  0
SECTION
  2
HEADER
  9
$ACADVER
  1
AC1009
  9
$INSBASE
 10
0
 20
0
  9
$EXTMIN
 10
-304.3000004964816
 20
-39.14014059536436
  9
$EXTMAX
 10
85.60399910162818
 20
348.553998799801
  9
$LIMMIN
 10
-304.3000004964816
 20
-39.14014059536436
  9
$LIMMAX
 10
85.60399910162818
 20
348.553998799801
  9
$VIEWCTR
 10
10
 20
10
  9
$VIEWSIZE
 40
10
  9
$SNAPMODE
 70
0
  9
$SNAPUNIT
 10
1
 20
1
  9
$SNAPBASE
 10
0
 20
0
  9
$SNAPANG
 50
0
  9
$SNAPSTYLE
 70
0
  9
$SNAPISOPAIR
 70
0
  9
$GRIDMODE
 70
0
  9
$GRIDUNIT
 10
0
 20
0
  9
$ORTHOMODE
 70
0
  9
$REGENMODE
 70
1
  9
$FILLMODE
 70
1
  9
$QTEXTMODE
 70
0
  9
$DRAGMODE
 70
2
  9
$LTSCALE
 40
1
  9
$OSMODE
 70
0
  9
$ATTMODE
 70
1
  9
$TEXTSIZE
 40
3.5
  9
$TRACEWID
 40
0.5
  9
$TEXTSTYLE
  7
STANDARD
  9
$CLAYER
  8
0
  9
$CELTYPE
  6
BYLAYER
  9
$CECOLOR
 62
256
  9
$DIMSCALE
 40
1
  9
$DIMASZ
 40
0.18
  9
$DIMEXO
 40
0.0625
  9
$DIMDLI
 40
0.38
  9
$DIMRND
 40
0
  9
$DIMDLE
 40
0
  9
$DIMEXE
 40
0.18
  9
$DIMTP
 40
0
  9
$DIMTM
 40
0
  9
$DIMTXT
 40
0.18
  9
$DIMCEN
 40
0.09
  9
$DIMTSZ
 40
0
  9
$DIMTOL
 70
0
  9
$DIMLIM
 70
0
  9
$DIMTIH
 70
1
  9
$DIMTOH
 70
1
  9
$DIMSE1
 70
0
  9
$DIMSE2
 70
0
  9
$DIMTAD
 70
0
  9
$DIMZIN
 70
0
  9
$DIMBLK
  1

  9
$DIMASO
 70
1
  9
$DIMSHO
 70
1
  9
$DIMPOST
  1

  9
$DIMAPOST
  1

  9
$DIMALT
 70
0
  9
$DIMALTD
 70
2
  9
$DIMALTF
 40
25.4
  9
$DIMLFAC
 40
1
  9
$DIMTOFL
 70
0
  9
$DIMTVP
 40
0
  9
$DIMTIX
 70
0
  9
$DIMSOXD
 70
0
  9
$DIMSAH
 70
0
  9
$DIMBLK1
  1

  9
$DIMBLK2
  1

  9
$DIMSTYLE
  2
*UNNAMED
  9
$DIMCLRD
 70
0
  9
$DIMCLRE
 70
0
  9
$DIMCLRT
 70
0
  9
$DIMTFAC
 40
1
  9
$DIMGAP
 40
0.09
  9
$LUNITS
 70
2
  9
$LUPREC
 70
4
  9
$AXISMODE
 70
0
  9
$AXISUNIT
 10
0
 20
0
  9
$SKETCHINC
 40
0.1
  9
$FILLETRAD
 40
2
  9
$AUNITS
 70
0
  9
$AUPREC
 70
0
  9
$MENU
  1
ACAD
  9
$ELEVATION
 40
0
  9
$THICKNESS
 40
0
  9
$VIEWDIR
 10
0
 20
0
 30
1
  9
$LIMCHECK
 70
0
  9
$BLIPMODE
 70
1
  9
$CHAMFERA
 40
0
  9
$CHAMFERB
 40
0
  9
$FASTZOOM
 70
1
  9
$SKPOLY
 70
0
  9
$ANGBASE
 50
0
  9
$ANGDIR
 70
0
  9
$PDMODE
 70
0
  9
$PDSIZE
 40
0
  9
$PLINEWID
 40
0
  9
$COORDS
 70
2
  0
ENDSEC
  0
SECTION
  2
TABLES
  0
TABLE
  2
DIMSTYLE
 70
0
  0
ENDTAB
  0
TABLE
  2
LTYPE
 70
9
  0
LTYPE
  2
CONTINUOUS
 70
64
  3
Solid line
 72
65
 73
0
 40
0
  0
LTYPE
  2
BORDER
 70
64
  3
__ __ . __ __ .
 72
65
 73
6
 40
17.95610524464979
 49
5.130315784185655
 49
-2.565157892092827
 49
5.130315784185655
 49
-2.565157892092827
 49
0
 49
-2.565157892092827
  0
LTYPE
  2
CENTER
 70
64
  3
____ _ ____ _
 72
65
 73
4
 40
20.52126313674262
 49
12.82578946046414
 49
-2.565157892092827
 49
2.565157892092827
 49
-2.565157892092827
  0
LTYPE
  2
DASHDOT
 70
64
  3
__ . __ . __ .
 72
65
 73
4
 40
10.26063156837131
 49
5.130315784185655
 49
-2.565157892092827
 49
0
 49
-2.565157892092827
  0
LTYPE
  2
DASHED
 70
64
  3
__ __ __ __ __
 72
65
 73
2
 40
7.695473676278482
 49
5.130315784185655
 49
-2.565157892092827
  0
LTYPE
  2
DIVIDE
 70
64
  3
__ . . __ . . 
 72
65
 73
6
 40
12.82578946046414
 49
5.130315784185655
 49
-2.565157892092827
 49
0
 49
-2.565157892092827
 49
0
 49
-2.565157892092827
  0
LTYPE
  2
DOT
 70
64
  3
..............
 72
65
 73
4
 40
5.130315784185655
 49
0
 49
-2.565157892092827
 49
0
 49
-2.565157892092827
  0
LTYPE
  2
HIDDEN
 70
64
  3
_ _ _ _ _ _ _
 72
65
 73
2
 40
3.847736838139241
 49
2.565157892092827
 49
-1.282578946046414
  0
LTYPE
  2
PHANTOM
 70
64
  3
_____ _ _ _____ _ _ 
 72
65
 73
6
 40
25.65157892092827
 49
12.82578946046414
 49
-2.565157892092827
 49
2.565157892092827
 49
-2.565157892092827
 49
2.565157892092827
 49
-2.565157892092827
  0
ENDTAB
  0
TABLE
  2
LAYER
 70
3
  0
LAYER
  2
1
 70
0
 62
7
  6
CONTINUOUS
  0
LAYER
  2
0
 70
0
 62
7
  6
CONTINUOUS
  0
ENDTAB
  0
TABLE
  2
STYLE
 70
4
  0
STYLE
  2
STANDARD
 70
0
 40
0
 41
1
 50
0
 71
0
 42
3.5
  3
txt
  4

  0
STYLE
  2
SIMPLEX
 70
0
 40
0
 41
1
 50
0
 71
0
 42
3.5
  3
simplex
  4

  0
STYLE
  2
COMPLEX
 70
0
 40
0
 41
1
 50
0
 71
0
 42
3.5
  3
complex
  4

  0
STYLE
  2
ITALIC
 70
0
 40
0
 41
1
 50
0
 71
0
 42
3.5
  3
italic
  4

  0
ENDTAB
  0
TABLE
  2
VIEW
 70
0
  0
ENDTAB
  0
ENDSEC
  0
SECTION
  2
BLOCKS
  0
BLOCK
  8
0
  2
CHR
 70
0
 10
-242.7552134328489
 20
10.03228140796745
 30
0
  0
TEXT
  8
1
 62
2
 10
-207.9552134328489
 20
25.03228140796745
 30
0
 40
2
  1
F.B.Pot.
 41
0.9
  7
SIMPLEX
 72
1
 73
2
 11
-200.7552134328489
 21
26.03228140796745
 31
0
  0
TEXT
  8
1
 62
2
 10
-242.7552134328489
 20
25.03228140796746
 30
0
 40
3
  1
Control Motor
 41
0.9
  0
TEXT
  8
1
 62
2
 10
-191.0052134328489
 20
10.03228140796745
 30
0
 40
1.5
  1
83165239-011-02
 41
0.9
 72
2
 11
-170.7552134328489
 21
10.03228140796745
 31
0
  0
TEXT
  8
1
 62
2
 10
-182.4552134328489
 20
13.03228140796745
 30
0
 40
1
  1
Made in China
 41
0.9
 72
2
 11
-170.7552134328489
 21
13.03228140796745
 31
0
  0
TEXT
  8
1
 62
2
 10
-193.8402134328489
 20
15.53228140796745
 30
0
 40
1.5
  1
Yamatake Coporation
 41
0.8100000000000001
 72
2
 11
-170.7552134328489
 21
15.53228140796745
 31
0
  0
TEXT
  8
1
 62
2
 10
-203.4552134328489
 20
16.03228140796745
 30
0
 40
2
  1
9VA
 41
0.9
 72
1
 73
2
 11
-200.7552134328489
 21
17.03228140796745
 31
0
  0
TEXT
  8
1
 62
2
 10
-205.2552134328489
 20
11.03228140796745
 30
0
 40
2
  1
160üï
 41
0.9
 72
1
 73
2
 11
-200.7552134328489
 21
12.03228140796745
 31
0
  0
TEXT
  8
1
 62
2
 10
-223.1552134328489
 20
11.03228140796745
 30
0
 40
2
  1
69/58s
 41
0.9
 72
1
 73
2
 11
-217.7552134328489
 21
12.03228140796745
 31
0
  0
TEXT
  8
1
 62
2
 10
-240.1552134328489
 20
11.03228140796745
 30
0
 40
2
  1
12.5Nm
 41
0.9
 72
1
 73
2
 11
-234.7552134328489
 21
12.03228140796745
 31
0
  0
TEXT
  8
1
 62
2
 10
-239.2552134328489
 20
16.03228140796745
 30
0
 40
2
  1
24Vü`
 41
0.9
 72
1
 73
2
 11
-234.7552134328489
 21
17.03228140796745
 31
0
  0
TEXT
  8
1
 62
2
 10
-224.0552134328489
 20
16.03228140796745
 30
0
 40
2
  1
50/60Hz
 41
0.9
 72
1
 73
2
 11
-217.7552134328489
 21
17.03228140796745
 31
0
  0
TEXT
  8
1
 62
2
 10
-242.7552134328489
 20
20.03228140796745
 30
0
 40
3
  1
ECM3000F0200
 41
0.9
  0
ENDBLK
  8
0
  0
BLOCK
  8
1
  2
*X0
 70
1
 10
0
 20
0
 30
0
  0
LINE
  8
1
 62
1
 10
-248.5597880881063
 20
28.62607013702045
 30
0
 11
-248.349002161902
 21
28.83685606322469
 31
0
  0
LINE
  8
1
 62
1
 10
-248.7077119688955
 20
28.33672489999387
 30
0
 11
-248.0596569248754
 21
28.98477994401402
 31
0
  0
LINE
  8
1
 62
1
 10
-248.7475920256683
 20
28.15542348698381
 30
0
 11
-247.8783555118653
 21
29.0246600007868
 31
0
  0
LINE
  8
1
 62
1
 10
-248.7552134328489
 20
28.00638072356583
 30
0
 11
-247.7293127484474
 21
29.03228140796747
 31
0
  0
LINE
  8
1
 62
1
 10
-248.7552134328489
 20
27.86495936732852
 30
0
 11
-247.5878913922101
 21
29.03228140796747
 31
0
  0
LINE
  8
1
 62
1
 10
-248.7552134328489
 20
27.72353801109121
 30
0
 11
-247.4464700359727
 21
29.03228140796747
 31
0
  0
LINE
  8
1
 62
1
 10
-248.7552134328489
 20
27.5821166548539
 30
0
 11
-247.3050486797354
 21
29.03228140796747
 31
0
  0
LINE
  8
1
 62
1
 10
-248.7552134328489
 20
27.44069529861659
 30
0
 11
-247.1636273234981
 21
29.03228140796747
 31
0
  0
LINE
  8
1
 62
1
 10
-248.7552134328489
 20
27.29927394237928
 30
0
 11
-247.0222059672608
 21
29.03228140796747
 31
0
  0
LINE
  8
1
 62
1
 10
-248.7552134328489
 20
27.15785258614197
 30
0
 11
-246.8807846110235
 21
29.03228140796747
 31
0
  0
LINE
  8
1
 62
1
 10
-248.7552134328489
 20
27.01643122990466
 30
0
 11
-246.7393632547862
 21
29.03228140796747
 31
0
  0
LINE
  8
1
 62
1
 10
-248.7552134328489
 20
26.87500987366735
 30
0
 11
-246.5979418985488
 21
29.03228140796747
 31
0
  0
LINE
  8
1
 62
1
 10
-248.7552134328489
 20
26.73358851743004
 30
0
 11
-246.4565205423115
 21
29.03228140796747
 31
0
  0
LINE
  8
1
 62
1
 10
-248.7552134328489
 20
26.59216716119273
 30
0
 11
-246.3150991860742
 21
29.03228140796747
 31
0
  0
LINE
  8
1
 62
1
 10
-248.7552134328489
 20
26.45074580495542
 30
0
 11
-246.1736778298369
 21
29.03228140796747
 31
0
  0
LINE
  8
1
 62
1
 10
-248.7552134328489
 20
26.30932444871812
 30
0
 11
-246.0322564735996
 21
29.03228140796747
 31
0
  0
LINE
  8
1
 62
1
 10
-248.7552134328489
 20
26.16790309248081
 30
0
 11
-245.8908351173623
 21
29.03228140796747
 31
0
  0
LINE
  8
1
 62
1
 10
-248.7552134328489
 20
26.0264817362435
 30
0
 11
-245.7494137611249
 21
29.03228140796747
 31
0
  0
LINE
  8
1
 62
1
 10
-248.7552134328489
 20
25.88506038000619
 30
0
 11
-245.6079924048876
 21
29.03228140796747
 31
0
  0
LINE
  8
1
 62
1
 10
-248.7552134328489
 20
25.74363902376888
 30
0
 11
-245.4665710486503
 21
29.03228140796747
 31
0
  0
LINE
  8
1
 62
1
 10
-248.7552134328489
 20
25.60221766753157
 30
0
 11
-245.325149692413
 21
29.03228140796747
 31
0
  0
LINE
  8
1
 62
1
 10
-247.7239218674258
 20
26.49208787671745
 30
0
 11
-245.1837283361757
 21
29.03228140796747
 31
0
  0
LINE
  8
1
 62
1
 10
-248.7552134328489
 20
25.46079631129426
 30
0
 11
-247.8266409328489
 21
26.3893688112943
 31
0
  0
LINE
  8
1
 62
1
 10
-247.5825005111884
 20
26.49208787671745
 30
0
 11
-245.0423069799384
 21
29.03228140796747
 31
0
  0
LINE
  8
1
 62
1
 10
-248.7552134328489
 20
25.31937495505695
 30
0
 11
-247.8266409328489
 21
26.247947455057
 31
0
  0
LINE
  8
1
 62
1
 10
-247.4410791549511
 20
26.49208787671745
 30
0
 11
-244.900885623701
 21
29.03228140796747
 31
0
  0
LINE
  8
1
 62
1
 10
-248.7552134328489
 20
25.17795359881964
 30
0
 11
-247.8266409328489
 21
26.10652609881969
 31
0
  0
LINE
  8
1
 62
1
 10
-247.4382484640989
 20
26.35349721133236
 30
0
 11
-244.7594642674637
 21
29.03228140796747
 31
0
  0
LINE
  8
1
 62
1
 10
-248.7552134328489
 20
25.03653224258233
 30
0
 11
-247.8266409328489
 21
25.96510474258238
 31
0
  0
LINE
  8
1
 62
1
 10
-247.4382484640989
 20
26.21207585509505
 30
0
 11
-244.7552134328489
 21
28.89511088634501
 31
0
  0
LINE
  8
1
 62
1
 10
-248.7552134328489
 20
24.89511088634502
 30
0
 11
-247.8266409328489
 21
25.82368338634507
 31
0
  0
LINE
  8
1
 62
1
 10
-247.4382484640989
 20
26.07065449885774
 30
0
 11
-244.7552134328489
 21
28.7536895301077
 31
0
  0
LINE
  8
1
 62
1
 10
-248.7552134328489
 20
24.75368953010771
 30
0
 11
-247.8266409328489
 21
25.68226203010776
 31
0
  0
LINE
  8
1
 62
1
 10
-246.9423579487519
 20
26.42512365796746
 30
0
 11
-244.7552134328489
 21
28.61226817387039
 31
0
  0
LINE
  8
1
 62
1
 10
-247.4382484640989
 20
25.92923314262043
 30
0
 11
-246.9694989328489
 21
26.3979826738704
 31
0
  0
LINE
  8
1
 62
1
 10
-248.7552134328489
 20
24.61226817387041
 30
0
 11
-247.8266409328489
 21
25.54084067387045
 31
0
  0
LINE
  8
1
 62
1
 10
-246.8009365925146
 20
26.42512365796746
 30
0
 11
-244.7552134328489
 21
28.47084681763308
 31
0
  0
LINE
  8
1
 62
1
 10
-247.4382484640989
 20
25.78781178638312
 30
0
 11
-246.9694989328489
 21
26.25656131763309
 31
0
  0
LINE
  8
1
 62
1
 10
-248.7552134328489
 20
24.4708468176331
 30
0
 11
-247.8266409328489
 21
25.39941931763314
 31
0
  0
LINE
  8
1
 62
1
 10
-246.6595152362773
 20
26.42512365796746
 30
0
 11
-244.7552134328489
 21
28.32942546139577
 31
0
  0
LINE
  8
1
 62
1
 10
-247.4382484640989
 20
25.64639043014581
 30
0
 11
-246.9694989328489
 21
26.11513996139578
 31
0
  0
LINE
  8
1
 62
1
 10
-248.7552134328489
 20
24.32942546139579
 30
0
 11
-247.8266409328489
 21
25.25799796139583
 31
0
  0
LINE
  8
1
 62
1
 10
-246.5811064640988
 20
26.36211107390857
 30
0
 11
-244.7552134328489
 21
28.18800410515846
 31
0
  0
LINE
  8
1
 62
1
 10
-247.3350573487899
 20
25.60816018921746
 30
0
 11
-246.9694989328489
 21
25.97371860515847
 31
0
  0
LINE
  8
1
 62
1
 10
-248.7552134328489
 20
24.18800410515848
 30
0
 11
-247.79041403629
 21
25.15280350171753
 31
0
  0
LINE
  8
1
 62
1
 10
-246.5811064640988
 20
26.22068971767126
 30
0
 11
-244.7552134328489
 21
28.04658274892115
 31
0
  0
LINE
  8
1
 62
1
 10
-247.1936359925526
 20
25.60816018921746
 30
0
 11
-246.9694989328489
 21
25.83229724892116
 31
0
  0
LINE
  8
1
 62
1
 10
-247.8028685310957
 20
24.99892765067424
 30
0
 11
-247.6489926800527
 21
25.15280350171753
 31
0
  0
LINE
  8
1
 62
1
 10
-248.7552134328489
 20
24.04658274892117
 30
0
 11
-247.8266409328489
 21
24.97515524892121
 31
0
  0
LINE
  8
1
 62
1
 10
-246.5811064640988
 20
26.07926836143395
 30
0
 11
-244.7552134328489
 21
27.90516139268384
 31
0
  0
LINE
  8
1
 62
1
 10
-247.0522146363153
 20
25.60816018921746
 30
0
 11
-246.9694989328489
 21
25.69087589268385
 31
0
  0
LINE
  8
1
 62
1
 10
-247.7259714702515
 20
24.9344033552812
 30
0
 11
-247.5075713238153
 21
25.15280350171753
 31
0
  0
LINE
  8
1
 62
1
 10
-248.7552134328489
 20
23.90516139268386
 30
0
 11
-247.8266409328489
 21
24.8337338926839
 31
0
  0
LINE
  8
1
 62
1
 10
-245.986687061328
 20
26.53226640796741
 30
0
 11
-244.7552134328489
 21
27.76374003644654
 31
0
  0
LINE
  8
1
 62
1
 10
-246.5811064640988
 20
25.93784700519665
 30
0
 11
-246.0721784015989
 21
26.44677506769654
 31
0
  0
LINE
  8
1
 62
1
 10
-247.6490744094072
 20
24.86987905988816
 30
0
 11
-247.366149967578
 21
25.15280350171753
 31
0
  0
LINE
  8
1
 62
1
 10
-248.7552134328489
 20
23.76374003644655
 30
0
 11
-247.8266409328489
 21
24.69231253644659
 31
0
  0
LINE
  8
1
 62
1
 10
-245.8452657050907
 20
26.53226640796741
 30
0
 11
-244.7552134328489
 21
27.62231868020923
 31
0
  0
LINE
  8
1
 62
1
 10
-246.5811064640988
 20
25.79642564895934
 30
0
 11
-246.0721784015989
 21
26.30535371145923
 31
0
  0
LINE
  8
1
 62
1
 10
-247.572177348563
 20
24.80535476449512
 30
0
 11
-247.2247286113407
 21
25.15280350171753
 31
0
  0
LINE
  8
1
 62
1
 10
-248.7552134328489
 20
23.62231868020924
 30
0
 11
-247.8266409328489
 21
24.55089118020928
 31
0
  0
LINE
  8
1
 62
1
 10
-245.7038443488534
 20
26.53226640796741
 30
0
 11
-244.7552134328489
 21
27.48089732397192
 31
0
  0
LINE
  8
1
 62
1
 10
-246.5811064640988
 20
25.65500429272203
 30
0
 11
-246.0721784015989
 21
26.16393235522192
 31
0
  0
LINE
  8
1
 62
1
 10
-247.4952802877187
 20
24.74083046910208
 30
0
 11
-247.0833072551034
 21
25.15280350171753
 31
0
  0
LINE
  8
1
 62
1
 10
-248.7552134328489
 20
23.48089732397193
 30
0
 11
-247.7720070369781
 21
24.4641037198426
 31
0
  0
LINE
  8
1
 62
1
 10
-245.6837859328488
 20
26.41090346773474
 30
0
 11
-244.7552134328489
 21
27.33947596773461
 31
0
  0
LINE
  8
1
 62
1
 10
-246.4865292113661
 20
25.60816018921746
 30
0
 11
-246.0721784015989
 21
26.02251099898462
 31
0
  0
LINE
  8
1
 62
1
 10
-247.4183832268744
 20
24.67630617370904
 30
0
 11
-246.9418858988661
 21
25.15280350171753
 31
0
  0
LINE
  8
1
 62
1
 10
-248.7552134328489
 20
23.33947596773462
 30
0
 11
-247.6951099761338
 21
24.39957942444956
 31
0
  0
LINE
  8
1
 62
1
 10
-245.6837859328488
 20
26.26948211149743
 30
0
 11
-244.7552134328489
 21
27.1980546114973
 31
0
  0
LINE
  8
1
 62
1
 10
-246.3451078551288
 20
25.60816018921746
 30
0
 11
-246.0721784015989
 21
25.88108964274731
 31
0
  0
LINE
  8
1
 62
1
 10
-247.3414861660302
 20
24.61178187831601
 30
0
 11
-246.8004645426288
 21
25.15280350171753
 31
0
  0
LINE
  8
1
 62
1
 10
-248.7552134328489
 20
23.19805461149731
 30
0
 11
-247.6182129152896
 21
24.33505512905652
 31
0
  0
LINE
  8
1
 62
1
 10
-245.6837859328488
 20
26.12806075526012
 30
0
 11
-244.7552134328489
 21
27.05663325525999
 31
0
  0
LINE
  8
1
 62
1
 10
-246.2036864988914
 20
25.60816018921746
 30
0
 11
-246.0721784015989
 21
25.73966828651
 31
0
  0
LINE
  8
1
 62
1
 10
-247.2645891051859
 20
24.54725758292297
 30
0
 11
-246.6590431863914
 21
25.15280350171753
 31
0
  0
LINE
  8
1
 62
1
 10
-248.7552134328489
 20
23.05663325526
 30
0
 11
-247.5413158544453
 21
24.27053083366349
 31
0
  0
LINE
  8
1
 62
1
 10
-245.6837859328488
 20
25.98663939902281
 30
0
 11
-244.7552134328489
 21
26.91521189902268
 31
0
  0
LINE
  8
1
 62
1
 10
-247.1876920443417
 20
24.48273328752993
 30
0
 11
-246.5176218301541
 21
25.15280350171753
 31
0
  0
LINE
  8
1
 62
1
 10
-248.7552134328489
 20
22.91521189902269
 30
0
 11
-247.4644187936011
 21
24.20600653827045
 31
0
  0
LINE
  8
1
 62
1
 10
-245.6837859328488
 20
25.8452180427855
 30
0
 11
-244.7552134328489
 21
26.77379054278537
 31
0
  0
LINE
  8
1
 62
1
 10
-247.1107949834974
 20
24.41820899213689
 30
0
 11
-246.3762004739168
 21
25.15280350171753
 31
0
  0
LINE
  8
1
 62
1
 10
-247.7958419114168
 20
23.7331620642175
 30
0
 11
-247.3875217327568
 21
24.14148224287741
 31
0
  0
LINE
  8
1
 62
1
 10
-248.7552134328489
 20
22.77379054278539
 30
0
 11
-247.8266409328489
 21
23.70236304278536
 31
0
  0
LINE
  8
1
 62
1
 10
-245.6837859328488
 20
25.7037966865482
 30
0
 11
-244.7552134328489
 21
26.63236918654806
 31
0
  0
LINE
  8
1
 62
1
 10
-247.0338979226531
 20
24.35368469674385
 30
0
 11
-246.2347791176795
 21
25.15280350171753
 31
0
  0
LINE
  8
1
 62
1
 10
-247.6544205551795
 20
23.7331620642175
 30
0
 11
-247.3106246719125
 21
24.07695794748437
 31
0
  0
LINE
  8
1
 62
1
 10
-248.7552134328489
 20
22.63236918654808
 30
0
 11
-247.8266409328489
 21
23.56094168654805
 31
0
  0
LINE
  8
1
 62
1
 10
-245.6837859328488
 20
25.56237533031089
 30
0
 11
-244.7552134328489
 21
26.49094783031075
 31
0
  0
LINE
  8
1
 62
1
 10
-246.9570008618089
 20
24.28916040135081
 30
0
 11
-246.0933577614422
 21
25.15280350171753
 31
0
  0
LINE
  8
1
 62
1
 10
-247.5129991989422
 20
23.7331620642175
 30
0
 11
-247.2337276110683
 21
24.01243365209133
 31
0
  0
LINE
  8
1
 62
1
 10
-248.7552134328489
 20
22.49094783031077
 30
0
 11
-247.8266409328489
 21
23.41952033031074
 31
0
  0
LINE
  8
1
 62
1
 10
-245.6837859328488
 20
25.42095397407358
 30
0
 11
-244.7552134328489
 21
26.34952647407344
 31
0
  0
LINE
  8
1
 62
1
 10
-246.871404955671
 20
24.23333495125131
 30
0
 11
-245.9519364052049
 21
25.15280350171753
 31
0
  0
LINE
  8
1
 62
1
 10
-247.3715778427049
 20
23.7331620642175
 30
0
 11
-247.156830550224
 21
23.94790935669829
 31
0
  0
LINE
  8
1
 62
1
 10
-248.7552134328489
 20
22.34952647407346
 30
0
 11
-247.8266409328489
 21
23.27809897407343
 31
0
  0
LINE
  8
1
 62
1
 10
-245.6837859328488
 20
25.27953261783627
 30
0
 11
-244.7552134328489
 21
26.20810511783613
 31
0
  0
LINE
  8
1
 62
1
 10
-246.5240763847923
 20
24.43924216589279
 30
0
 11
-245.8105150489676
 21
25.15280350171753
 31
0
  0
LINE
  8
1
 62
1
 10
-247.2301564864676
 20
23.7331620642175
 30
0
 11
-247.0799334893798
 21
23.88338506130526
 31
0
  0
LINE
  8
1
 62
1
 10
-248.7552134328489
 20
22.20810511783615
 30
0
 11
-247.6855131739677
 21
23.27780537671748
 31
0
  0
LINE
  8
1
 62
1
 10
-245.950233088539
 20
24.87166410590872
 30
0
 11
-244.7552134328489
 21
26.06668376159882
 31
0
  0
LINE
  8
1
 62
1
 10
-247.0887351302303
 20
23.7331620642175
 30
0
 11
-247.0030364285355
 21
23.81886076591222
 31
0
  0
LINE
  8
1
 62
1
 10
-248.7552134328489
 20
22.06668376159884
 30
0
 11
-247.5440918177304
 21
23.27780537671748
 31
0
  0
LINE
  8
1
 62
1
 10
-245.6837859328488
 20
24.99668990536166
 30
0
 11
-244.7552134328489
 21
25.92526240536152
 31
0
  0
LINE
  8
1
 62
1
 10
-246.9473137739929
 20
23.7331620642175
 30
0
 11
-246.9261393676912
 21
23.75433647051918
 31
0
  0
LINE
  8
1
 62
1
 10
-248.7552134328489
 20
21.92526240536153
 30
0
 11
-247.4026704614931
 21
23.27780537671748
 31
0
  0
LINE
  8
1
 62
1
 10
-245.6837859328488
 20
24.85526854912435
 30
0
 11
-244.7552134328489
 21
25.78384104912421
 31
0
  0
LINE
  8
1
 62
1
 10
-248.7552134328489
 20
21.78384104912422
 30
0
 11
-247.2612491052558
 21
23.27780537671748
 31
0
  0
LINE
  8
1
 62
1
 10
-245.6837859328488
 20
24.71384719288704
 30
0
 11
-244.7552134328489
 21
25.6424196928869
 31
0
  0
LINE
  8
1
 62
1
 10
-246.6644710615183
 20
23.73316206421751
 30
0
 11
-246.402460773086
 21
23.99517235264977
 31
0
  0
LINE
  8
1
 62
1
 10
-248.7552134328489
 20
21.64241969288691
 30
0
 11
-247.1198277490184
 21
23.27780537671748
 31
0
  0
LINE
  8
1
 62
1
 10
-245.6837859328488
 20
24.57242583664973
 30
0
 11
-244.7552134328489
 21
25.50099833664959
 31
0
  0
LINE
  8
1
 62
1
 10
-246.523049705281
 20
23.73316206421751
 30
0
 11
-245.828617476833
 21
24.42759429266555
 31
0
  0
LINE
  8
1
 62
1
 10
-248.7552134328489
 20
21.5009983366496
 30
0
 11
-246.9784063927811
 21
23.27780537671748
 31
0
  0
LINE
  8
1
 62
1
 10
-246.3816283490437
 20
23.73316206421751
 30
0
 11
-244.7552134328489
 21
25.35957698041228
 31
0
  0
LINE
  8
1
 62
1
 10
-247.7825172001442
 20
22.33227321311692
 30
0
 11
-246.8369850365438
 21
23.27780537671748
 31
0
  0
LINE
  8
1
 62
1
 10
-248.7552134328489
 20
21.35957698041229
 30
0
 11
-247.8266409328489
 21
22.2881494804123
 31
0
  0
LINE
  8
1
 62
1
 10
-246.2402069928064
 20
23.73316206421751
 30
0
 11
-244.7552134328489
 21
25.21815562417497
 31
0
  0
LINE
  8
1
 62
1
 10
-247.5365670153837
 20
22.43680204164014
 30
0
 11
-246.6955636803065
 21
23.27780537671748
 31
0
  0
LINE
  8
1
 62
1
 10
-248.7552134328489
 20
21.21815562417498
 30
0
 11
-247.8266409328489
 21
22.14672812417499
 31
0
  0
LINE
  8
1
 62
1
 10
-246.0987856365691
 20
23.73316206421751
 30
0
 11
-244.7552134328489
 21
25.07673426793766
 31
0
  0
LINE
  8
1
 62
1
 10
-247.2906168306232
 20
22.54133087016335
 30
0
 11
-246.5541423240692
 21
23.27780537671748
 31
0
  0
LINE
  8
1
 62
1
 10
-248.7552134328489
 20
21.07673426793767
 30
0
 11
-247.8266409328489
 21
22.00530676793768
 31
0
  0
LINE
  8
1
 62
1
 10
-245.9573642803318
 20
23.73316206421751
 30
0
 11
-244.7552134328489
 21
24.93531291170035
 31
0
  0
LINE
  8
1
 62
1
 10
-247.0446666458627
 20
22.64585969868656
 30
0
 11
-246.4127209678319
 21
23.27780537671748
 31
0
  0
LINE
  8
1
 62
1
 10
-248.7552134328489
 20
20.93531291170037
 30
0
 11
-247.8024605407315
 21
21.88806580381767
 31
0
  0
LINE
  8
1
 62
1
 10
-245.8159429240944
 20
23.73316206421751
 30
0
 11
-244.7552134328489
 21
24.79389155546304
 31
0
  0
LINE
  8
1
 62
1
 10
-246.7987164611022
 20
22.75038852720978
 30
0
 11
-246.2712996115945
 21
23.27780537671748
 31
0
  0
LINE
  8
1
 62
1
 10
-248.7552134328489
 20
20.79389155546306
 30
0
 11
-247.7032174837229
 21
21.845887504589
 31
0
  0
LINE
  8
1
 62
1
 10
-245.6837859328488
 20
23.72389769922587
 30
0
 11
-244.7552134328489
 21
24.65247019922573
 31
0
  0
LINE
  8
1
 62
1
 10
-246.5527662763417
 20
22.85491735573299
 30
0
 11
-246.1298782553572
 21
23.27780537671748
 31
0
  0
LINE
  8
1
 62
1
 10
-248.7552134328489
 20
20.65247019922575
 30
0
 11
-247.6039744267143
 21
21.80370920536033
 31
0
  0
LINE
  8
1
 62
1
 10
-245.6837859328488
 20
23.58247634298856
 30
0
 11
-244.7552134328489
 21
24.51104884298842
 31
0
  0
LINE
  8
1
 62
1
 10
-246.3068160915811
 20
22.95944618425621
 30
0
 11
-245.9884568991199
 21
23.27780537671748
 31
0
  0
LINE
  8
1
 62
1
 10
-247.1779450226262
 20
22.08831725321107
 30
0
 11
-247.122032667668
 21
22.14422960816935
 31
0
  0
LINE
  8
1
 62
1
 10
-248.7552134328489
 20
20.51104884298844
 30
0
 11
-247.5047313697056
 21
21.76153090613166
 31
0
  0
LINE
  8
1
 62
1
 10
-245.6837859328488
 20
23.44105498675125
 30
0
 11
-244.7552134328489
 21
24.36962748675111
 31
0
  0
LINE
  8
1
 62
1
 10
-246.0608659068206
 20
23.06397501277942
 30
0
 11
-245.8470355428826
 21
23.27780537671748
 31
0
  0
LINE
  8
1
 62
1
 10
-247.0787019656175
 20
22.04613895398241
 30
0
 11
-246.8760824829074
 21
22.24875843669258
 31
0
  0
LINE
  8
1
 62
1
 10
-247.7220336678826
 20
21.40280725171741
 30
0
 11
-247.405488312697
 21
21.71935260690299
 31
0
  0
LINE
  8
1
 62
1
 10
-248.7552134328489
 20
20.36962748675113
 30
0
 11
-247.8266409328489
 21
21.29819998675115
 31
0
  0
LINE
  8
1
 62
1
 10
-245.6837859328488
 20
23.29963363051394
 30
0
 11
-244.7552134328489
 21
24.2282061305138
 31
0
  0
LINE
  8
1
 62
1
 10
-245.8149157220601
 20
23.16850384130264
 30
0
 11
-245.7056141866453
 21
23.27780537671748
 31
0
  0
LINE
  8
1
 62
1
 10
-246.9794589086089
 20
22.00396065475374
 30
0
 11
-246.6301322981469
 21
22.35328726521582
 31
0
  0
LINE
  8
1
 62
1
 10
-247.5806123116453
 20
21.40280725171741
 30
0
 11
-247.3062452556883
 21
21.67717430767432
 31
0
  0
LINE
  8
1
 62
1
 10
-248.7552134328489
 20
20.22820613051382
 30
0
 11
-247.8266409328489
 21
21.15677863051384
 31
0
  0
LINE
  8
1
 62
1
 10
-245.6837859328488
 20
23.15821227427658
 30
0
 11
-244.7552134328489
 21
24.0867847742765
 31
0
  0
LINE
  8
1
 62
1
 10
-246.8802158516003
 20
21.96178235552507
 30
0
 11
-246.3841821133863
 21
22.45781609373905
 31
0
  0
LINE
  8
1
 62
1
 10
-247.439190955408
 20
21.40280725171741
 30
0
 11
-247.2070021986797
 21
21.63499600844565
 31
0
  0
LINE
  8
1
 62
1
 10
-248.7552134328489
 20
20.08678477427651
 30
0
 11
-247.8266409328489
 21
21.01535727427653
 31
0
  0
LINE
  8
1
 62
1
 10
-245.6837859328488
 20
23.01679091803927
 30
0
 11
-244.7552134328489
 21
23.94536341803919
 31
0
  0
LINE
  8
1
 62
1
 10
-246.7809727945916
 20
21.91960405629641
 30
0
 11
-246.1382319286258
 21
22.56234492226228
 31
0
  0
LINE
  8
1
 62
1
 10
-247.4382484640989
 20
21.26232838678921
 30
0
 11
-247.1077591416711
 21
21.59281770921698
 31
0
  0
LINE
  8
1
 62
1
 10
-248.7552134328489
 20
19.9453634180392
 30
0
 11
-247.8266409328489
 21
20.87393591803922
 31
0
  0
LINE
  8
1
 62
1
 10
-245.6837859328488
 20
22.87536956180196
 30
0
 11
-244.7552134328489
 21
23.80394206180188
 31
0
  0
LINE
  8
1
 62
1
 10
-246.681729737583
 20
21.87742575706774
 30
0
 11
-245.8922817438653
 21
22.66687375078551
 31
0
  0
LINE
  8
1
 62
1
 10
-247.4382484640989
 20
21.12090703055191
 30
0
 11
-247.0085160846624
 21
21.55063940998831
 31
0
  0
LINE
  8
1
 62
1
 10
-248.7552134328489
 20
19.80394206180189
 30
0
 11
-247.8266409328489
 21
20.73251456180191
 31
0
  0
LINE
  8
1
 62
1
 10
-245.9258343851919
 20
22.49189975322163
 30
0
 11
-244.7552134328489
 21
23.66252070556457
 31
0
  0
LINE
  8
1
 62
1
 10
-246.5824866805744
 20
21.83524745783907
 30
0
 11
-246.0587855578489
 21
22.35894858056458
 31
0
  0
LINE
  8
1
 62
1
 10
-247.4382484640989
 20
20.9794856743146
 30
0
 11
-246.9092730276538
 21
21.50846111075964
 31
0
  0
LINE
  8
1
 62
1
 10
-248.7552134328489
 20
19.66252070556458
 30
0
 11
-247.8266409328489
 21
20.5910932055646
 31
0
  0
LINE
  8
1
 62
1
 10
-245.6837859328488
 20
22.59252684932738
 30
0
 11
-244.7552134328489
 21
23.52109934932726
 31
0
  0
LINE
  8
1
 62
1
 10
-246.4832436235657
 20
21.79306915861041
 30
0
 11
-246.0587855578489
 21
22.21752722432727
 31
0
  0
LINE
  8
1
 62
1
 10
-247.4382484640989
 20
20.83806431807729
 30
0
 11
-246.8100299706452
 21
21.46628281153097
 31
0
  0
LINE
  8
1
 62
1
 10
-248.7552134328489
 20
19.52109934932727
 30
0
 11
-247.8266409328489
 21
20.4496718493273
 31
0
  0
LINE
  8
1
 62
1
 10
-245.6837859328488
 20
22.45110549309007
 30
0
 11
-244.7552134328489
 21
23.37967799308995
 31
0
  0
LINE
  8
1
 62
1
 10
-246.3840005665571
 20
21.75089085938174
 30
0
 11
-246.0587855578489
 21
22.07610586808996
 31
0
  0
LINE
  8
1
 62
1
 10
-247.3615478304715
 20
20.77334359546744
 30
0
 11
-246.7107869136365
 21
21.4241045123023
 31
0
  0
LINE
  8
1
 62
1
 10
-248.7552134328489
 20
19.37967799308996
 30
0
 11
-247.8266409328489
 21
20.30825049308999
 31
0
  0
LINE
  8
1
 62
1
 10
-245.6837859328488
 20
22.30968413685276
 30
0
 11
-244.7552134328489
 21
23.23825663685264
 31
0
  0
LINE
  8
1
 62
1
 10
-246.2847575095485
 20
21.70871256015307
 30
0
 11
-246.0587855578489
 21
21.93468451185265
 31
0
  0
LINE
  8
1
 62
1
 10
-247.2201264742342
 20
20.77334359546744
 30
0
 11
-246.6115438566279
 21
21.38192621307363
 31
0
  0
LINE
  8
1
 62
1
 10
-248.7552134328489
 20
19.23825663685265
 30
0
 11
-247.8266409328489
 21
20.16682913685268
 31
0
  0
LINE
  8
1
 62
1
 10
-245.6837859328488
 20
22.16826278061545
 30
0
 11
-244.7552134328489
 21
23.09683528061533
 31
0
  0
LINE
  8
1
 62
1
 10
-246.1855144525398
 20
21.66653426092441
 30
0
 11
-246.0587855578489
 21
21.79326315561534
 31
0
  0
LINE
  8
1
 62
1
 10
-247.0787051179969
 20
20.77334359546744
 30
0
 11
-246.5123007996193
 21
21.33974791384496
 31
0
  0
LINE
  8
1
 62
1
 10
-248.7552134328489
 20
19.09683528061535
 30
0
 11
-247.8266409328489
 21
20.02540778061537
 31
0
  0
LINE
  8
1
 62
1
 10
-245.6837859328488
 20
22.02684142437814
 30
0
 11
-244.7552134328489
 21
22.95541392437802
 31
0
  0
LINE
  8
1
 62
1
 10
-246.0862713955312
 20
21.62435596169574
 30
0
 11
-246.0587855578489
 21
21.65184179937803
 31
0
  0
LINE
  8
1
 62
1
 10
-246.9372837617596
 20
20.77334359546744
 30
0
 11
-246.4130577426106
 21
21.29756961461629
 31
0
  0
LINE
  8
1
 62
1
 10
-247.4382484640989
 20
20.27237889312804
 30
0
 11
-247.3926404492596
 21
20.31798690796748
 31
0
  0
LINE
  8
1
 62
1
 10
-248.7552134328489
 20
18.95541392437804
 30
0
 11
-247.8266409328489
 21
19.88398642437806
 31
0
  0
LINE
  8
1
 62
1
 10
-245.6837859328488
 20
21.88542006814083
 30
0
 11
-244.7552134328489
 21
22.81399256814071
 31
0
  0
LINE
  8
1
 62
1
 10
-246.7958624055222
 20
20.77334359546744
 30
0
 11
-246.313814685602
 21
21.25539131538762
 31
0
  0
LINE
  8
1
 62
1
 10
-247.4382484640989
 20
20.13095753689073
 30
0
 11
-247.2512190930222
 21
20.31798690796748
 31
0
  0
LINE
  8
1
 62
1
 10
-248.7552134328489
 20
18.81399256814073
 30
0
 11
-247.8266409328489
 21
19.74256506814075
 31
0
  0
LINE
  8
1
 62
1
 10
-245.6837859328488
 20
21.74399871190352
 30
0
 11
-244.7552134328489
 21
22.6725712119034
 31
0
  0
LINE
  8
1
 62
1
 10
-246.6544410492849
 20
20.77334359546744
 30
0
 11
-246.2145716285934
 21
21.21321301615895
 31
0
  0
LINE
  8
1
 62
1
 10
-247.4382484640989
 20
19.98953618065342
 30
0
 11
-247.1097977367849
 21
20.31798690796748
 31
0
  0
LINE
  8
1
 62
1
 10
-248.7552134328489
 20
18.67257121190342
 30
0
 11
-247.739261393035
 21
19.68852325171741
 31
0
  0
LINE
  8
1
 62
1
 10
-245.6837859328488
 20
21.60257735566621
 30
0
 11
-244.7552134328489
 21
22.53114985566609
 31
0
  0
LINE
  8
1
 62
1
 10
-246.5130196930476
 20
20.77334359546744
 30
0
 11
-246.1153285715847
 21
21.17103471693028
 31
0
  0
LINE
  8
1
 62
1
 10
-247.4382484640989
 20
19.84811482441611
 30
0
 11
-246.9683763805476
 21
20.31798690796748
 31
0
  0
LINE
  8
1
 62
1
 10
-248.7552134328489
 20
18.53114985566611
 30
0
 11
-247.5978400367976
 21
19.68852325171741
 31
0
  0
LINE
  8
1
 62
1
 10
-245.6837859328488
 20
21.4611559994289
 30
0
 11
-244.7552134328489
 21
22.38972849942878
 31
0
  0
LINE
  8
1
 62
1
 10
-246.3715983368103
 20
20.77334359546744
 30
0
 11
-246.0160855145761
 21
21.12885641770161
 31
0
  0
LINE
  8
1
 62
1
 10
-247.4382484640989
 20
19.7066934681788
 30
0
 11
-246.8269550243103
 21
20.31798690796748
 31
0
  0
LINE
  8
1
 62
1
 10
-248.7552134328489
 20
18.3897284994288
 30
0
 11
-247.4564186805603
 21
19.68852325171741
 31
0
  0
LINE
  8
1
 62
1
 10
-245.6837859328488
 20
21.3197346431916
 30
0
 11
-244.7552134328489
 21
22.24830714319148
 31
0
  0
LINE
  8
1
 62
1
 10
-246.230176980573
 20
20.77334359546744
 30
0
 11
-245.9168424575674
 21
21.08667811847294
 31
0
  0
LINE
  8
1
 62
1
 10
-247.7986263419341
 20
19.20489423410621
 30
0
 11
-246.685533668073
 21
20.31798690796748
 31
0
  0
LINE
  8
1
 62
1
 10
-248.7552134328489
 20
18.24830714319149
 30
0
 11
-247.8266409328489
 21
19.17687964319148
 31
0
  0
LINE
  8
1
 62
1
 10
-245.6837859328488
 20
21.17831328695429
 30
0
 11
-244.7552134328489
 21
22.10688578695417
 31
0
  0
LINE
  8
1
 62
1
 10
-246.0887556243357
 20
20.77334359546744
 30
0
 11
-245.8175994005588
 21
21.04449981924427
 31
0
  0
LINE
  8
1
 62
1
 10
-247.5526761571736
 20
19.30942306262942
 30
0
 11
-246.5441123118357
 21
20.31798690796748
 31
0
  0
LINE
  8
1
 62
1
 10
-248.7552134328489
 20
18.10688578695418
 30
0
 11
-247.8266409328489
 21
19.03545828695417
 31
0
  0
LINE
  8
1
 62
1
 10
-245.6837859328488
 20
21.03689193071698
 30
0
 11
-244.7552134328489
 21
21.96546443071686
 31
0
  0
LINE
  8
1
 62
1
 10
-245.9473342680983
 20
20.77334359546744
 30
0
 11
-245.7183563435502
 21
21.0023215200156
 31
0
  0
LINE
  8
1
 62
1
 10
-247.3067259724131
 20
19.41395189115264
 30
0
 11
-246.4026909555983
 21
20.31798690796748
 31
0
  0
LINE
  8
1
 62
1
 10
-248.7552134328489
 20
17.96546443071687
 30
0
 11
-247.8266409328489
 21
18.89403693071687
 31
0
  0
LINE
  8
1
 62
1
 10
-245.805912911861
 20
20.77334359546744
 30
0
 11
-244.7552134328489
 21
21.82404307447955
 31
0
  0
LINE
  8
1
 62
1
 10
-247.0607757876526
 20
19.51848071967585
 30
0
 11
-246.261269599361
 21
20.31798690796748
 31
0
  0
LINE
  8
1
 62
1
 10
-248.7552134328489
 20
17.82404307447956
 30
0
 11
-247.808960720752
 21
18.77029578657636
 31
0
  0
LINE
  8
1
 62
1
 10
-245.6837859328488
 20
20.75404921824238
 30
0
 11
-244.7552134328489
 21
21.68262171824224
 31
0
  0
LINE
  8
1
 62
1
 10
-246.814825602892
 20
19.62300954819907
 30
0
 11
-246.1198482431237
 21
20.31798690796748
 31
0
  0
LINE
  8
1
 62
1
 10
-248.7552134328489
 20
17.68262171824225
 30
0
 11
-247.7097176637434
 21
18.72811748734769
 31
0
  0
LINE
  8
1
 62
1
 10
-245.6837859328488
 20
20.61262786200507
 30
0
 11
-244.7552134328489
 21
21.54120036200493
 31
0
  0
LINE
  8
1
 62
1
 10
-246.5688754181315
 20
19.72753837672228
 30
0
 11
-245.9784268868864
 21
20.31798690796748
 31
0
  0
LINE
  8
1
 62
1
 10
-248.7552134328489
 20
17.54120036200494
 30
0
 11
-247.6104746067348
 21
18.68593918811902
 31
0
  0
LINE
  8
1
 62
1
 10
-245.6837859328488
 20
20.47120650576776
 30
0
 11
-244.7552134328489
 21
21.39977900576762
 31
0
  0
LINE
  8
1
 62
1
 10
-246.322925233371
 20
19.83206720524549
 30
0
 11
-245.8370055306491
 21
20.31798690796748
 31
0
  0
LINE
  8
1
 62
1
 10
-247.1844452026467
 20
18.97054723596981
 30
0
 11
-247.1381418094578
 21
19.0168506291587
 31
0
  0
LINE
  8
1
 62
1
 10
-248.7552134328489
 20
17.39977900576763
 30
0
 11
-247.5112315497261
 21
18.64376088889035
 31
0
  0
LINE
  8
1
 62
1
 10
-245.6837859328488
 20
20.32978514953045
 30
0
 11
-244.7552134328489
 21
21.25835764953031
 31
0
  0
LINE
  8
1
 62
1
 10
-246.0769750486105
 20
19.93659603376871
 30
0
 11
-245.6955841744118
 21
20.31798690796748
 31
0
  0
LINE
  8
1
 62
1
 10
-247.0852021456381
 20
18.92836893674114
 30
0
 11
-246.8921916246973
 21
19.12137945768191
 31
0
  0
LINE
  8
1
 62
1
 10
-248.7552134328489
 20
17.25835764953033
 30
0
 11
-247.4119884927175
 21
18.60158258966168
 31
0
  0
LINE
  8
1
 62
1
 10
-245.83102486385
 20
20.04112486229192
 30
0
 11
-244.7552134328489
 21
21.116936293293
 31
0
  0
LINE
  8
1
 62
1
 10
-246.9859590886294
 20
18.88619063751247
 30
0
 11
-246.6462414399368
 21
19.22590828620512
 31
0
  0
LINE
  8
1
 62
1
 10
-248.7552134328489
 20
17.11693629329302
 30
0
 11
-247.3127454357089
 21
18.55940429043301
 31
0
  0
LINE
  8
1
 62
1
 10
-245.6837859328488
 20
20.0469424370558
 30
0
 11
-244.7552134328489
 21
20.97551493705569
 31
0
  0
LINE
  8
1
 62
1
 10
-246.8867160316208
 20
18.8440123382838
 30
0
 11
-246.4002912551763
 21
19.33043711472833
 31
0
  0
LINE
  8
1
 62
1
 10
-248.7552134328489
 20
16.97551493705571
 30
0
 11
-247.2135023787002
 21
18.51722599120434
 31
0
  0
LINE
  8
1
 62
1
 10
-245.6837859328488
 20
19.9055210808185
 30
0
 11
-244.7552134328489
 21
20.83409358081838
 31
0
  0
LINE
  8
1
 62
1
 10
-246.7874729746121
 20
18.80183403905513
 30
0
 11
-246.1543410704158
 21
19.43496594325153
 31
0
  0
LINE
  8
1
 62
1
 10
-248.7552134328489
 20
16.8340935808184
 30
0
 11
-247.1142593216916
 21
18.47504769197567
 31
0
  0
LINE
  8
1
 62
1
 10
-245.6837859328488
 20
19.76409972458119
 30
0
 11
-244.7552134328489
 21
20.69267222458107
 31
0
  0
LINE
  8
1
 62
1
 10
-246.6882299176035
 20
18.75965573982646
 30
0
 11
-245.9083908856553
 21
19.53949477177474
 31
0
  0
LINE
  8
1
 62
1
 10
-248.7552134328489
 20
16.69267222458109
 30
0
 11
-247.0150162646829
 21
18.432869392747
 31
0
  0
LINE
  8
1
 62
1
 10
-245.9419435269816
 20
19.36452077421107
 30
0
 11
-244.7552134328489
 21
20.55125086834376
 31
0
  0
LINE
  8
1
 62
1
 10
-246.5889868605949
 20
18.71747744059779
 30
0
 11
-246.0587855578489
 21
19.24767874334379
 31
0
  0
LINE
  8
1
 62
1
 10
-248.7552134328489
 20
16.55125086834378
 30
0
 11
-246.9157732076743
 21
18.39069109351833
 31
0
  0
LINE
  8
1
 62
1
 10
-245.6959933422211
 20
19.4690496027342
 30
0
 11
-244.7552134328489
 21
20.40982951210646
 31
0
  0
LINE
  8
1
 62
1
 10
-246.4897438035862
 20
18.67529914136912
 30
0
 11
-246.0587855578489
 21
19.10625738710648
 31
0
  0
LINE
  8
1
 62
1
 10
-247.3954088394418
 20
17.76963410551358
 30
0
 11
-246.8165301506657
 21
18.34851279428966
 31
0
  0
LINE
  8
1
 62
1
 10
-248.7552134328489
 20
16.40982951210647
 30
0
 11
-247.782749911645
 21
17.38229303331032
 31
0
  0
LINE
  8
1
 62
1
 10
-245.6837859328488
 20
19.33983565586925
 30
0
 11
-244.7552134328489
 21
20.26840815586915
 31
0
  0
LINE
  8
1
 62
1
 10
-246.3905007465776
 20
18.63312084214045
 30
0
 11
-246.0587855578489
 21
18.96483603086917
 31
0
  0
LINE
  8
1
 62
1
 10
-247.2124125317858
 20
17.81120905693226
 30
0
 11
-246.717287093657
 21
18.30633449506099
 31
0
  0
LINE
  8
1
 62
1
 10
-248.7552134328489
 20
16.26840815586916
 30
0
 11
-247.8243248630637
 21
17.19929672565439
 31
0
  0
LINE
  8
1
 62
1
 10
-245.6837859328488
 20
19.19841429963194
 30
0
 11
-244.7552134328489
 21
20.12698679963184
 31
0
  0
LINE
  8
1
 62
1
 10
-246.291257689569
 20
18.59094254291178
 30
0
 11
-246.0587855578489
 21
18.82341467463186
 31
0
  0
LINE
  8
1
 62
1
 10
-247.0686751057634
 20
17.81352512671744
 30
0
 11
-246.6180440366484
 21
18.26415619583232
 31
0
  0
LINE
  8
1
 62
1
 10
-248.7552134328489
 20
16.12698679963185
 30
0
 11
-247.8266409328489
 21
17.05555929963183
 31
0
  0
LINE
  8
1
 62
1
 10
-245.6837859328488
 20
19.05699294339463
 30
0
 11
-244.7552134328489
 21
19.98556544339453
 31
0
  0
LINE
  8
1
 62
1
 10
-246.1920146325603
 20
18.54876424368311
 30
0
 11
-246.0587855578489
 21
18.68199331839455
 31
0
  0
LINE
  8
1
 62
1
 10
-246.9272537495261
 20
17.81352512671744
 30
0
 11
-246.5188009796398
 21
18.22197789660365
 31
0
  0
LINE
  8
1
 62
1
 10
-248.7552134328489
 20
15.98556544339454
 30
0
 11
-247.8266409328489
 21
16.91413794339452
 31
0
  0
LINE
  8
1
 62
1
 10
-245.6837859328488
 20
18.91557158715732
 30
0
 11
-244.7552134328489
 21
19.84414408715722
 31
0
  0
LINE
  8
1
 62
1
 10
-246.0927715755517
 20
18.50658594445444
 30
0
 11
-246.0587855578489
 21
18.54057196215724
 31
0
  0
LINE
  8
1
 62
1
 10
-246.7858323932887
 20
17.81352512671744
 30
0
 11
-246.4195579226311
 21
18.17979959737498
 31
0
  0
LINE
  8
1
 62
1
 10
-247.4359911566319
 20
17.16336636337424
 30
0
 11
-247.2300535445056
 21
17.36930397550054
 31
0
  0
LINE
  8
1
 62
1
 10
-248.7552134328489
 20
15.84414408715723
 30
0
 11
-247.7367242995387
 21
16.86263322046746
 31
0
  0
LINE
  8
1
 62
1
 10
-245.6837859328488
 20
18.77415023092001
 30
0
 11
-244.7552134328489
 21
19.70272273091991
 31
0
  0
LINE
  8
1
 62
1
 10
-246.6444110370514
 20
17.81352512671744
 30
0
 11
-246.3203148656225
 21
18.13762129814631
 31
0
  0
LINE
  8
1
 62
1
 10
-247.4198329957697
 20
17.0381031679991
 30
0
 11
-247.0863748808015
 21
17.37156128296742
 31
0
  0
LINE
  8
1
 62
1
 10
-248.7552134328489
 20
15.70272273091992
 30
0
 11
-247.5953029433013
 21
16.86263322046746
 31
0
  0
LINE
  8
1
 62
1
 10
-245.6837859328488
 20
18.63272887468271
 30
0
 11
-244.7552134328489
 21
19.5613013746826
 31
0
  0
LINE
  8
1
 62
1
 10
-246.5029896808141
 20
17.81352512671744
 30
0
 11
-246.2210718086139
 21
18.09544299891764
 31
0
  0
LINE
  8
1
 62
1
 10
-247.3619699861957
 20
16.95454482133584
 30
0
 11
-246.9449535245641
 21
17.37156128296742
 31
0
  0
LINE
  8
1
 62
1
 10
-248.7552134328489
 20
15.56130137468261
 30
0
 11
-247.7670296876003
 21
16.54948511993123
 31
0
  0
LINE
  8
1
 62
1
 10
-245.6837859328488
 20
18.4913075184454
 30
0
 11
-244.7552134328489
 21
19.41988001844529
 31
0
  0
LINE
  8
1
 62
1
 10
-246.3615683245768
 20
17.81352512671744
 30
0
 11
-246.1218287516052
 21
18.05326469968897
 31
0
  0
LINE
  8
1
 62
1
 10
-247.2733232897118
 20
16.90177016158243
 30
0
 11
-246.8035321683268
 21
17.37156128296742
 31
0
  0
LINE
  8
1
 62
1
 10
-248.7552134328489
 20
15.41988001844531
 30
0
 11
-247.8218440748686
 21
16.35324937642565
 31
0
  0
LINE
  8
1
 62
1
 10
-245.6837859328488
 20
18.34988616220809
 30
0
 11
-244.7552134328489
 21
19.27845866220798
 31
0
  0
LINE
  8
1
 62
1
 10
-246.2201469683395
 20
17.81352512671744
 30
0
 11
-246.0225856945966
 21
18.0110864004603
 31
0
  0
LINE
  8
1
 62
1
 10
-247.1442531870895
 20
16.88941890796744
 30
0
 11
-246.6621108120895
 21
17.37156128296742
 31
0
  0
LINE
  8
1
 62
1
 10
-248.7552134328489
 20
15.278458662208
 30
0
 11
-247.8266409328489
 21
16.20703116220798
 31
0
  0
LINE
  8
1
 62
1
 10
-245.6837859328488
 20
18.20846480597078
 30
0
 11
-244.7552134328489
 21
19.13703730597067
 31
0
  0
LINE
  8
1
 62
1
 10
-246.0787256121022
 20
17.81352512671744
 30
0
 11
-245.923342637588
 21
17.96890810123163
 31
0
  0
LINE
  8
1
 62
1
 10
-247.0028318308522
 20
16.88941890796744
 30
0
 11
-246.5206894558522
 21
17.37156128296742
 31
0
  0
LINE
  8
1
 62
1
 10
-248.7552134328489
 20
15.13703730597069
 30
0
 11
-247.8266409328489
 21
16.06560980597067
 31
0
  0
LINE
  8
1
 62
1
 10
-245.6837859328488
 20
18.06704344973347
 30
0
 11
-244.7552134328489
 21
18.99561594973336
 31
0
  0
LINE
  8
1
 62
1
 10
-245.9373042558648
 20
17.81352512671744
 30
0
 11
-245.8240995805793
 21
17.92672980200296
 31
0
  0
LINE
  8
1
 62
1
 10
-246.8614104746149
 20
16.88941890796744
 30
0
 11
-246.3792680996149
 21
17.37156128296742
 31
0
  0
LINE
  8
1
 62
1
 10
-248.7552134328489
 20
14.99561594973338
 30
0
 11
-247.8266409328489
 21
15.92418844973336
 31
0
  0
LINE
  8
1
 62
1
 10
-245.6837859328488
 20
17.92562209349616
 30
0
 11
-244.7552134328489
 21
18.85419459349605
 31
0
  0
LINE
  8
1
 62
1
 10
-245.7958828996275
 20
17.81352512671744
 30
0
 11
-245.7248565235707
 21
17.88455150277429
 31
0
  0
LINE
  8
1
 62
1
 10
-246.7199891183776
 20
16.88941890796744
 30
0
 11
-246.2378467433776
 21
17.37156128296742
 31
0
  0
LINE
  8
1
 62
1
 10
-247.4359806003624
 20
16.1734274259826
 30
0
 11
-247.1619529621275
 21
16.44745506421745
 31
0
  0
LINE
  8
1
 62
1
 10
-248.7552134328489
 20
14.85419459349607
 30
0
 11
-247.8266409328489
 21
15.78276709349606
 31
0
  0
LINE
  8
1
 62
1
 10
-245.6837859328488
 20
17.78420073725887
 30
0
 11
-244.7552134328489
 21
18.71277323725875
 31
0
  0
LINE
  8
1
 62
1
 10
-246.5785677621402
 20
16.88941890796744
 30
0
 11
-246.0964253871402
 21
17.37156128296742
 31
0
  0
LINE
  8
1
 62
1
 10
-247.3967792547163
 20
16.07120741539139
 30
0
 11
-247.0205316058902
 21
16.44745506421745
 31
0
  0
LINE
  8
1
 62
1
 10
-248.7552134328489
 20
14.71277323725876
 30
0
 11
-247.8266409328489
 21
15.64134573725875
 31
0
  0
LINE
  8
1
 62
1
 10
-245.6837859328488
 20
17.64277938102156
 30
0
 11
-244.7552134328489
 21
18.57135188102144
 31
0
  0
LINE
  8
1
 62
1
 10
-246.4371464059029
 20
16.88941890796744
 30
0
 11
-245.9550040309029
 21
17.37156128296742
 31
0
  0
LINE
  8
1
 62
1
 10
-247.3247369615527
 20
16.00182835231757
 30
0
 11
-246.8791102496529
 21
16.44745506421745
 31
0
  0
LINE
  8
1
 62
1
 10
-248.7552134328489
 20
14.57135188102145
 30
0
 11
-247.8032164684029
 21
15.52334884546751
 31
0
  0
LINE
  8
1
 62
1
 10
-245.6837859328488
 20
17.50135802478425
 30
0
 11
-244.7552134328489
 21
18.42993052478413
 31
0
  0
LINE
  8
1
 62
1
 10
-246.2957250496656
 20
16.88941890796744
 30
0
 11
-245.8135826746656
 21
17.37156128296742
 31
0
  0
LINE
  8
1
 62
1
 10
-247.2188501622385
 20
15.96629379539454
 30
0
 11
-246.7376888934156
 21
16.44745506421745
 31
0
  0
LINE
  8
1
 62
1
 10
-248.7552134328489
 20
14.42993052478414
 30
0
 11
-247.6617951121656
 21
15.52334884546751
 31
0
  0
LINE
  8
1
 62
1
 10
-246.1543036934283
 20
16.88941890796744
 30
0
 11
-244.7552134328489
 21
18.28850916854682
 31
0
  0
LINE
  8
1
 62
1
 10
-247.0784099121784
 20
15.96531268921738
 30
0
 11
-246.5962675371783
 21
16.44745506421745
 31
0
  0
LINE
  8
1
 62
1
 10
-247.7614449434283
 20
15.28227765796747
 30
0
 11
-247.5203737559283
 21
15.52334884546751
 31
0
  0
LINE
  8
1
 62
1
 10
-248.7552134328489
 20
14.28850916854683
 30
0
 11
-247.8266409328489
 21
15.2170816685468
 31
0
  0
LINE
  8
1
 62
1
 10
-246.012882337191
 20
16.88941890796744
 30
0
 11
-244.7552134328489
 21
18.14708781230951
 31
0
  0
LINE
  8
1
 62
1
 10
-246.9369885559411
 20
15.96531268921738
 30
0
 11
-246.454846180941
 21
16.44745506421745
 31
0
  0
LINE
  8
1
 62
1
 10
-247.620023587191
 20
15.28227765796747
 30
0
 11
-247.378952399691
 21
15.52334884546751
 31
0
  0
LINE
  8
1
 62
1
 10
-248.7552134328489
 20
14.14708781230952
 30
0
 11
-247.8266409328489
 21
15.07566031230949
 31
0
  0
LINE
  8
1
 62
1
 10
-245.8714609809537
 20
16.88941890796744
 30
0
 11
-244.7552134328489
 21
18.0056664560722
 31
0
  0
LINE
  8
1
 62
1
 10
-246.7955671997038
 20
15.96531268921738
 30
0
 11
-246.3134248247037
 21
16.44745506421745
 31
0
  0
LINE
  8
1
 62
1
 10
-247.4786022309537
 20
15.28227765796747
 30
0
 11
-247.2375310434537
 21
15.52334884546751
 31
0
  0
LINE
  8
1
 62
1
 10
-248.7552134328489
 20
14.00566645607221
 30
0
 11
-247.8266409328489
 21
14.93423895607218
 31
0
  0
LINE
  8
1
 62
1
 10
-245.7300396247163
 20
16.88941890796744
 30
0
 11
-244.7552134328489
 21
17.86424509983489
 31
0
  0
LINE
  8
1
 62
1
 10
-246.6541458434664
 20
15.96531268921738
 30
0
 11
-246.1720034684663
 21
16.44745506421745
 31
0
  0
LINE
  8
1
 62
1
 10
-247.3371808747164
 20
15.28227765796747
 30
0
 11
-247.0961096872163
 21
15.52334884546751
 31
0
  0
LINE
  8
1
 62
1
 10
-248.7552134328489
 20
13.8642450998349
 30
0
 11
-247.8266409328489
 21
14.79281759983487
 31
0
  0
LINE
  8
1
 62
1
 10
-245.6837859328488
 20
16.79425124359766
 30
0
 11
-244.7552134328489
 21
17.72282374359758
 31
0
  0
LINE
  8
1
 62
1
 10
-246.5127244872291
 20
15.96531268921738
 30
0
 11
-246.030582112229
 21
16.44745506421745
 31
0
  0
LINE
  8
1
 62
1
 10
-247.1957595184791
 20
15.28227765796747
 30
0
 11
-246.954688330979
 21
15.52334884546751
 31
0
  0
LINE
  8
1
 62
1
 10
-248.7552134328489
 20
13.72282374359759
 30
0
 11
-247.8266409328489
 21
14.65139624359756
 31
0
  0
LINE
  8
1
 62
1
 10
-245.6837859328488
 20
16.65282988736035
 30
0
 11
-244.7552134328489
 21
17.58140238736027
 31
0
  0
LINE
  8
1
 62
1
 10
-246.3713031309918
 20
15.96531268921738
 30
0
 11
-245.8891607559917
 21
16.44745506421745
 31
0
  0
LINE
  8
1
 62
1
 10
-247.0543381622418
 20
15.28227765796747
 30
0
 11
-246.8132669747417
 21
15.52334884546751
 31
0
  0
LINE
  8
1
 62
1
 10
-248.7552134328489
 20
13.58140238736029
 30
0
 11
-247.7521394821396
 21
14.58447633806941
 31
0
  0
LINE
  8
1
 62
1
 10
-245.6837859328488
 20
16.51140853112304
 30
0
 11
-244.7552134328489
 21
17.43998103112296
 31
0
  0
LINE
  8
1
 62
1
 10
-246.2298817747545
 20
15.96531268921738
 30
0
 11
-245.7477393997544
 21
16.44745506421745
 31
0
  0
LINE
  8
1
 62
1
 10
-246.9129168060044
 20
15.28227765796747
 30
0
 11
-246.6718456185044
 21
15.52334884546751
 31
0
  0
LINE
  8
1
 62
1
 10
-248.7552134328489
 20
13.43998103112298
 30
0
 11
-247.6707458958159
 21
14.52444856815573
 31
0
  0
LINE
  8
1
 62
1
 10
-246.0884604185172
 20
15.96531268921738
 30
0
 11
-244.7552134328489
 21
17.29855967488565
 31
0
  0
LINE
  8
1
 62
1
 10
-246.7714954497671
 20
15.28227765796747
 30
0
 11
-246.5304242622671
 21
15.52334884546751
 31
0
  0
LINE
  8
1
 62
1
 10
-247.2828678700457
 20
14.77090523768886
 30
0
 11
-247.2268521372671
 21
14.82692097046754
 31
0
  0
LINE
  8
1
 62
1
 10
-247.7897632087729
 20
14.26400989896148
 30
0
 11
-247.5893523094923
 21
14.46442079824206
 31
0
  0
LINE
  8
1
 62
1
 10
-248.7552134328489
 20
13.29855967488567
 30
0
 11
-247.8266409328489
 21
14.22713217488568
 31
0
  0
LINE
  8
1
 62
1
 10
-245.9470390622799
 20
15.96531268921738
 30
0
 11
-244.7552134328489
 21
17.15713831864834
 31
0
  0
LINE
  8
1
 62
1
 10
-246.6300740935298
 20
15.28227765796747
 30
0
 11
-246.3890029060298
 21
15.52334884546751
 31
0
  0
LINE
  8
1
 62
1
 10
-247.2014742837221
 20
14.71087746777517
 30
0
 11
-247.0854307810298
 21
14.82692097046754
 31
0
  0
LINE
  8
1
 62
1
 10
-247.7083696224493
 20
14.2039821290478
 30
0
 11
-247.5079587231687
 21
14.40439302832839
 31
0
  0
LINE
  8
1
 62
1
 10
-248.7552134328489
 20
13.15713831864836
 30
0
 11
-247.8266409328489
 21
14.08571081864837
 31
0
  0
LINE
  8
1
 62
1
 10
-245.8056177060425
 20
15.96531268921738
 30
0
 11
-244.7552134328489
 21
17.01571696241103
 31
0
  0
LINE
  8
1
 62
1
 10
-246.4886527372925
 20
15.28227765796747
 30
0
 11
-246.2475815497924
 21
15.52334884546751
 31
0
  0
LINE
  8
1
 62
1
 10
-247.1200806973985
 20
14.65084969786149
 30
0
 11
-246.9440094247925
 21
14.82692097046754
 31
0
  0
LINE
  8
1
 62
1
 10
-247.6269760361257
 20
14.14395435913413
 30
0
 11
-247.4265651368451
 21
14.34436525841471
 31
0
  0
LINE
  8
1
 62
1
 10
-248.7552134328489
 20
13.01571696241105
 30
0
 11
-247.8266409328489
 21
13.94428946241106
 31
0
  0
LINE
  8
1
 62
1
 10
-245.6837859328488
 20
15.94572310617383
 30
0
 11
-244.7552134328489
 21
16.87429560617373
 31
0
  0
LINE
  8
1
 62
1
 10
-246.3472313810552
 20
15.28227765796747
 30
0
 11
-246.1061601935551
 21
15.52334884546751
 31
0
  0
LINE
  8
1
 62
1
 10
-247.0386871110748
 20
14.59082192794781
 30
0
 11
-246.8025880685551
 21
14.82692097046754
 31
0
  0
LINE
  8
1
 62
1
 10
-247.5455824498021
 20
14.08392658922045
 30
0
 11
-247.3451715505214
 21
14.28433748850104
 31
0
  0
LINE
  8
1
 62
1
 10
-248.7552134328489
 20
12.87429560617374
 30
0
 11
-247.8266409328489
 21
13.80286810617375
 31
0
  0
LINE
  8
1
 62
1
 10
-245.6837859328488
 20
15.80430174993652
 30
0
 11
-244.7552134328489
 21
16.73287424993642
 31
0
  0
LINE
  8
1
 62
1
 10
-246.2058100248179
 20
15.28227765796747
 30
0
 11
-245.9647388373178
 21
15.52334884546751
 31
0
  0
LINE
  8
1
 62
1
 10
-246.9572935247512
 20
14.53079415803413
 30
0
 11
-246.6611667123178
 21
14.82692097046754
 31
0
  0
LINE
  8
1
 62
1
 10
-247.4641888634784
 20
14.02389881930677
 30
0
 11
-247.2637779641978
 21
14.22430971858736
 31
0
  0
LINE
  8
1
 62
1
 10
-248.7552134328489
 20
12.73287424993643
 30
0
 11
-247.8266409328489
 21
13.66144674993645
 31
0
  0
LINE
  8
1
 62
1
 10
-245.6837859328488
 20
15.66288039369921
 30
0
 11
-244.7552134328489
 21
16.59145289369911
 31
0
  0
LINE
  8
1
 62
1
 10
-246.0643886685805
 20
15.28227765796747
 30
0
 11
-245.8233174810805
 21
15.52334884546751
 31
0
  0
LINE
  8
1
 62
1
 10
-246.8758999384276
 20
14.47076638812044
 30
0
 11
-246.5197453560805
 21
14.82692097046754
 31
0
  0
LINE
  8
1
 62
1
 10
-247.3827952771548
 20
13.9638710493931
 30
0
 11
-247.1823843778742
 21
14.16428194867369
 31
0
  0
LINE
  8
1
 62
1
 10
-248.7552134328489
 20
12.59145289369912
 30
0
 11
-247.8266409328489
 21
13.52002539369914
 31
0
  0
LINE
  8
1
 62
1
 10
-245.9229673123432
 20
15.28227765796747
 30
0
 11
-244.7552134328489
 21
16.4500315374618
 31
0
  0
LINE
  8
1
 62
1
 10
-246.794506352104
 20
14.41073861820676
 30
0
 11
-246.3783239998432
 21
14.82692097046754
 31
0
  0
LINE
  8
1
 62
1
 10
-247.3014016908312
 20
13.90384327947942
 30
0
 11
-247.1009907915505
 21
14.10425417876002
 31
0
  0
LINE
  8
1
 62
1
 10
-248.7552134328489
 20
12.45003153746181
 30
0
 11
-247.8266409328489
 21
13.37860403746183
 31
0
  0
LINE
  8
1
 62
1
 10
-245.7815459561059
 20
15.28227765796747
 30
0
 11
-244.7552134328489
 21
16.30861018122449
 31
0
  0
LINE
  8
1
 62
1
 10
-246.7131127657803
 20
14.35071084829308
 30
0
 11
-246.2369026436059
 21
14.82692097046754
 31
0
  0
LINE
  8
1
 62
1
 10
-247.2200081045075
 20
13.84381550956575
 30
0
 11
-247.0195972052269
 21
14.04422640884634
 31
0
  0
LINE
  8
1
 62
1
 10
-248.7552134328489
 20
12.3086101812245
 30
0
 11
-247.763686831106
 21
13.30013678296739
 31
0
  0
LINE
  8
1
 62
1
 10
-245.6837859328488
 20
15.23861632498728
 30
0
 11
-244.7552134328489
 21
16.16718882498718
 31
0
  0
LINE
  8
1
 62
1
 10
-246.6317191794567
 20
14.29068307837939
 30
0
 11
-246.0954812873686
 21
14.82692097046754
 31
0
  0
LINE
  8
1
 62
1
 10
-247.1386145181839
 20
13.78378773965207
 30
0
 11
-246.9382036189033
 21
13.98419863893267
 31
0
  0
LINE
  8
1
 62
1
 10
-248.7552134328489
 20
12.16718882498719
 30
0
 11
-247.6222654748687
 21
13.30013678296739
 31
0
  0
LINE
  8
1
 62
1
 10
-245.6837859328488
 20
15.09719496874997
 30
0
 11
-244.7552134328489
 21
16.02576746874987
 31
0
  0
LINE
  8
1
 62
1
 10
-246.5503255931331
 20
14.23065530846571
 30
0
 11
-245.9540599311312
 21
14.82692097046754
 31
0
  0
LINE
  8
1
 62
1
 10
-247.0572209318603
 20
13.7237599697384
 30
0
 11
-246.8568100325797
 21
13.92417086901899
 31
0
  0
LINE
  8
1
 62
1
 10
-248.7552134328489
 20
12.02576746874988
 30
0
 11
-247.4808441186314
 21
13.30013678296739
 31
0
  0
LINE
  8
1
 62
1
 10
-245.6837859328488
 20
14.95577361251266
 30
0
 11
-244.7552134328489
 21
15.88434611251256
 31
0
  0
LINE
  8
1
 62
1
 10
-245.973352699894
 20
14.66620684546749
 30
0
 11
-245.8126385748939
 21
14.82692097046754
 31
0
  0
LINE
  8
1
 62
1
 10
-246.4689320068094
 20
14.17062753855203
 30
0
 11
-246.0587855578489
 21
14.58077398751255
 31
0
  0
LINE
  8
1
 62
1
 10
-246.9758273455367
 20
13.66373219982472
 30
0
 11
-246.775416446256
 21
13.86414309910532
 31
0
  0
LINE
  8
1
 62
1
 10
-248.7552134328489
 20
11.88434611251257
 30
0
 11
-247.3394227623941
 21
13.30013678296739
 31
0
  0
LINE
  8
1
 62
1
 10
-245.8319313436566
 20
14.66620684546749
 30
0
 11
-244.7552134328489
 21
15.74292475627525
 31
0
  0
LINE
  8
1
 62
1
 10
-246.3875384204858
 20
14.11059976863835
 30
0
 11
-246.0587855578489
 21
14.43935263127524
 31
0
  0
LINE
  8
1
 62
1
 10
-246.894433759213
 20
13.60370442991104
 30
0
 11
-246.6940228599324
 21
13.80411532919165
 31
0
  0
LINE
  8
1
 62
1
 10
-248.7552134328489
 20
11.74292475627527
 30
0
 11
-247.1980014061568
 21
13.30013678296739
 31
0
  0
LINE
  8
1
 62
1
 10
-245.6905099874193
 20
14.66620684546749
 30
0
 11
-244.7552134328489
 21
15.60150340003794
 31
0
  0
LINE
  8
1
 62
1
 10
-246.3061448341622
 20
14.05057199872466
 30
0
 11
-246.0587855578489
 21
14.29793127503793
 31
0
  0
LINE
  8
1
 62
1
 10
-246.8130401728894
 20
13.54367665999737
 30
0
 11
-246.6126292736088
 21
13.74408755927797
 31
0
  0
LINE
  8
1
 62
1
 10
-248.7552134328489
 20
11.60150340003796
 30
0
 11
-247.0627177453849
 21
13.2939990875019
 31
0
  0
LINE
  8
1
 62
1
 10
-245.6837859328488
 20
14.53150954380074
 30
0
 11
-244.7552134328489
 21
15.46008204380063
 31
0
  0
LINE
  8
1
 62
1
 10
-246.2247512478386
 20
13.99054422881098
 30
0
 11
-246.0587855578489
 21
14.15650991880062
 31
0
  0
LINE
  8
1
 62
1
 10
-246.7316465865658
 20
13.48364889008369
 30
0
 11
-246.5312356872852
 21
13.6840597893643
 31
0
  0
LINE
  8
1
 62
1
 10
-247.7187293186822
 20
12.49656615796744
 30
0
 11
-246.95737855596
 21
13.25791692068958
 31
0
  0
LINE
  8
1
 62
1
 10
-248.7552134328489
 20
11.46008204380065
 30
0
 11
-247.8266409328489
 21
12.38865454380064
 31
0
  0
LINE
  8
1
 62
1
 10
-245.6837859328488
 20
14.39008818756343
 30
0
 11
-244.7552134328489
 21
15.31866068756332
 31
0
  0
LINE
  8
1
 62
1
 10
-246.1433576615149
 20
13.9305164588973
 30
0
 11
-246.0587855578489
 21
14.01508856256331
 31
0
  0
LINE
  8
1
 62
1
 10
-246.6502530002422
 20
13.42362112017002
 30
0
 11
-246.4498421009615
 21
13.62403201945062
 31
0
  0
LINE
  8
1
 62
1
 10
-247.5773079624449
 20
12.49656615796744
 30
0
 11
-246.8744721056689
 21
13.1994020147433
 31
0
  0
LINE
  8
1
 62
1
 10
-248.7552134328489
 20
11.31866068756334
 30
0
 11
-247.8266409328489
 21
12.24723318756333
 31
0
  0
LINE
  8
1
 62
1
 10
-245.6837859328488
 20
14.24866683132612
 30
0
 11
-244.7552134328489
 21
15.17723933132601
 31
0
  0
LINE
  8
1
 62
1
 10
-246.0619640751913
 20
13.87048868898361
 30
0
 11
-246.0587855578489
 21
13.873667206326
 31
0
  0
LINE
  8
1
 62
1
 10
-246.5688594139185
 20
13.36359335025634
 30
0
 11
-246.3684485146379
 21
13.56400424953695
 31
0
  0
LINE
  8
1
 62
1
 10
-247.4358866062075
 20
12.49656615796744
 30
0
 11
-246.8108277631374
 21
13.12162500103752
 31
0
  0
LINE
  8
1
 62
1
 10
-248.7552134328489
 20
11.17723933132603
 30
0
 11
-247.8266409328489
 21
12.10581183132602
 31
0
  0
LINE
  8
1
 62
1
 10
-245.6837859328488
 20
14.10724547508881
 30
0
 11
-244.7552134328489
 21
15.03581797508871
 31
0
  0
LINE
  8
1
 62
1
 10
-246.4874658275949
 20
13.30356558034267
 30
0
 11
-246.2870549283143
 21
13.50397647962328
 31
0
  0
LINE
  8
1
 62
1
 10
-247.2944652499702
 20
12.49656615796744
 30
0
 11
-246.7681749067926
 21
13.02285650114496
 31
0
  0
LINE
  8
1
 62
1
 10
-248.7552134328489
 20
11.03581797508872
 30
0
 11
-247.8266409328489
 21
11.96439047508871
 31
0
  0
LINE
  8
1
 62
1
 10
-245.6837859328488
 20
13.9658241188515
 30
0
 11
-244.7552134328489
 21
14.8943966188514
 31
0
  0
LINE
  8
1
 62
1
 10
-246.4060722412713
 20
13.24353781042899
 30
0
 11
-246.2056613419906
 21
13.4439487097096
 31
0
  0
LINE
  8
1
 62
1
 10
-247.1530438937329
 20
12.49656615796744
 30
0
 11
-246.7552134328489
 21
12.8943966188514
 31
0
  0
LINE
  8
1
 62
1
 10
-248.7552134328489
 20
10.89439661885141
 30
0
 11
-247.8266409328489
 21
11.8229691188514
 31
0
  0
LINE
  8
1
 62
1
 10
-245.6837859328488
 20
13.82440276261419
 30
0
 11
-244.7552134328489
 21
14.75297526261409
 31
0
  0
LINE
  8
1
 62
1
 10
-246.3246786549476
 20
13.18351004051531
 30
0
 11
-246.124267755667
 21
13.38392093979593
 31
0
  0
LINE
  8
1
 62
1
 10
-247.0116225374956
 20
12.49656615796744
 30
0
 11
-246.7552134328489
 21
12.75297526261409
 31
0
  0
LINE
  8
1
 62
1
 10
-248.7552134328489
 20
10.7529752626141
 30
0
 11
-247.8266409328489
 21
11.6815477626141
 31
0
  0
LINE
  8
1
 62
1
 10
-245.6837859328488
 20
13.68298140637688
 30
0
 11
-244.7552134328489
 21
14.61155390637678
 31
0
  0
LINE
  8
1
 62
1
 10
-246.243285068624
 20
13.12348227060164
 30
0
 11
-246.0428741693434
 21
13.32389316988225
 31
0
  0
LINE
  8
1
 62
1
 10
-246.8702011812583
 20
12.49656615796744
 30
0
 11
-246.7552134328489
 21
12.61155390637678
 31
0
  0
LINE
  8
1
 62
1
 10
-248.7552134328489
 20
10.61155390637679
 30
0
 11
-247.8266409328489
 21
11.54012640637679
 31
0
  0
LINE
  8
1
 62
1
 10
-245.6837859328488
 20
13.54156005013957
 30
0
 11
-244.7552134328489
 21
14.47013255013947
 31
0
  0
LINE
  8
1
 62
1
 10
-246.1618914823004
 20
13.06345450068796
 30
0
 11
-245.9614805830198
 21
13.26386539996858
 31
0
  0
LINE
  8
1
 62
1
 10
-248.7552134328489
 20
10.47013255013948
 30
0
 11
-246.6941901926617
 21
12.53115579032689
 31
0
  0
LINE
  8
1
 62
1
 10
-245.6837859328488
 20
13.40013869390226
 30
0
 11
-244.7552134328489
 21
14.32871119390216
 31
0
  0
LINE
  8
1
 62
1
 10
-246.0804978959768
 20
13.00342673077429
 30
0
 11
-245.8800869966961
 21
13.20383763005491
 31
0
  0
LINE
  8
1
 62
1
 10
-248.7552134328489
 20
10.32871119390217
 30
0
 11
-246.6133779890975
 21
12.47054663765376
 31
0
  0
LINE
  8
1
 62
1
 10
-245.6837859328488
 20
13.25871733766496
 30
0
 11
-244.7552134328489
 21
14.18728983766485
 31
0
  0
LINE
  8
1
 62
1
 10
-245.9991043096531
 20
12.94339896086061
 30
0
 11
-245.7986934103725
 21
13.14380986014123
 31
0
  0
LINE
  8
1
 62
1
 10
-248.7552134328489
 20
10.18728983766486
 30
0
 11
-246.5325657855333
 21
12.40993748498063
 31
0
  0
LINE
  8
1
 62
1
 10
-245.6837859328488
 20
13.11729598142765
 30
0
 11
-244.7552134328489
 21
14.04586848142754
 31
0
  0
LINE
  8
1
 62
1
 10
-245.9177107233295
 20
12.88337119094694
 30
0
 11
-245.7172998240489
 21
13.08378209022756
 31
0
  0
LINE
  8
1
 62
1
 10
-248.7552134328489
 20
10.04586848142755
 30
0
 11
-246.4517535819691
 21
12.3493283323075
 31
0
  0
LINE
  8
1
 62
1
 10
-245.8363171370059
 20
12.82334342103326
 30
0
 11
-244.7552134328489
 21
13.90444712519023
 31
0
  0
LINE
  8
1
 62
1
 10
-248.7552134328489
 20
9.904447125190245
 30
0
 11
-246.3709413784049
 21
12.28871917963437
 31
0
  0
LINE
  8
1
 62
1
 10
-245.7549235506822
 20
12.76331565111958
 30
0
 11
-244.7552134328489
 21
13.76302576895292
 31
0
  0
LINE
  8
1
 62
1
 10
-248.7552134328489
 20
9.763025768952936
 30
0
 11
-246.2901291748407
 21
12.22811002696124
 31
0
  0
LINE
  8
1
 62
1
 10
-245.6837859328488
 20
12.69303191271573
 30
0
 11
-244.7552134328489
 21
13.62160441271561
 31
0
  0
LINE
  8
1
 62
1
 10
-248.7552134328489
 20
9.621604412715627
 30
0
 11
-246.2093169712765
 21
12.16750087428811
 31
0
  0
LINE
  8
1
 62
1
 10
-245.6837859328488
 20
12.55161055647842
 30
0
 11
-244.7552134328489
 21
13.4801830564783
 31
0
  0
LINE
  8
1
 62
1
 10
-248.7552134328489
 20
9.480183056478317
 30
0
 11
-246.1285047677123
 21
12.10689172161498
 31
0
  0
LINE
  8
1
 62
1
 10
-245.6837859328488
 20
12.41018920024111
 30
0
 11
-244.7552134328489
 21
13.33876170024099
 31
0
  0
LINE
  8
1
 62
1
 10
-248.7552134328489
 20
9.338761700241008
 30
0
 11
-246.0476925641481
 21
12.04628256894185
 31
0
  0
LINE
  8
1
 62
1
 10
-245.6837859328488
 20
12.2687678440038
 30
0
 11
-244.7552134328489
 21
13.19734034400369
 31
0
  0
LINE
  8
1
 62
1
 10
-248.7552134328489
 20
9.197340344003699
 30
0
 11
-245.9668803605839
 21
11.98567341626872
 31
0
  0
LINE
  8
1
 62
1
 10
-245.6837859328488
 20
12.12734648776649
 30
0
 11
-244.7552134328489
 21
13.05591898776638
 31
0
  0
LINE
  8
1
 62
1
 10
-248.7552134328489
 20
9.05591898776639
 30
0
 11
-245.8860681570197
 21
11.92506426359559
 31
0
  0
LINE
  8
1
 62
1
 10
-245.6837859328488
 20
11.98592513152918
 30
0
 11
-244.7552134328489
 21
12.91449763152907
 31
0
  0
LINE
  8
1
 62
1
 10
-248.6374296564107
 20
9.03228140796746
 30
0
 11
-245.8052559534555
 21
11.86445511092246
 31
0
  0
LINE
  8
1
 62
1
 10
-245.6837859328488
 20
11.84450377529187
 30
0
 11
-244.7552134328489
 21
12.77307627529176
 31
0
  0
LINE
  8
1
 62
1
 10
-248.4960083001734
 20
9.03228140796746
 30
0
 11
-245.7244437498914
 21
11.80384595824933
 31
0
  0
LINE
  8
1
 62
1
 10
-248.3545869439361
 20
9.03228140796746
 30
0
 11
-244.7552134328489
 21
12.63165491905445
 31
0
  0
LINE
  8
1
 62
1
 10
-248.2131655876987
 20
9.03228140796746
 30
0
 11
-244.7552134328489
 21
12.49023356281714
 31
0
  0
LINE
  8
1
 62
1
 10
-248.0717442314614
 20
9.03228140796746
 30
0
 11
-244.7552134328489
 21
12.34881220657983
 31
0
  0
LINE
  8
1
 62
1
 10
-247.9303228752241
 20
9.03228140796746
 30
0
 11
-244.7552134328489
 21
12.20739085034252
 31
0
  0
LINE
  8
1
 62
1
 10
-247.7889015189868
 20
9.03228140796746
 30
0
 11
-244.7552134328489
 21
12.06596949410521
 31
0
  0
LINE
  8
1
 62
1
 10
-247.6474801627495
 20
9.03228140796746
 30
0
 11
-244.7552134328489
 21
11.9245481378679
 31
0
  0
LINE
  8
1
 62
1
 10
-247.5060588065122
 20
9.03228140796746
 30
0
 11
-244.7552134328489
 21
11.78312678163059
 31
0
  0
LINE
  8
1
 62
1
 10
-247.3646374502748
 20
9.03228140796746
 30
0
 11
-244.7552134328489
 21
11.64170542539328
 31
0
  0
LINE
  8
1
 62
1
 10
-247.2232160940375
 20
9.03228140796746
 30
0
 11
-244.7552134328489
 21
11.50028406915597
 31
0
  0
LINE
  8
1
 62
1
 10
-247.0817947378002
 20
9.03228140796746
 30
0
 11
-244.7552134328489
 21
11.35886271291867
 31
0
  0
LINE
  8
1
 62
1
 10
-246.9403733815629
 20
9.03228140796746
 30
0
 11
-244.7552134328489
 21
11.21744135668136
 31
0
  0
LINE
  8
1
 62
1
 10
-246.7989520253256
 20
9.03228140796746
 30
0
 11
-244.7552134328489
 21
11.07602000044405
 31
0
  0
LINE
  8
1
 62
1
 10
-246.6575306690883
 20
9.03228140796746
 30
0
 11
-244.7552134328489
 21
10.93459864420674
 31
0
  0
LINE
  8
1
 62
1
 10
-246.5161093128509
 20
9.03228140796746
 30
0
 11
-244.7552134328489
 21
10.79317728796943
 31
0
  0
LINE
  8
1
 62
1
 10
-246.3746879566136
 20
9.03228140796746
 30
0
 11
-244.7552134328489
 21
10.65175593173212
 31
0
  0
LINE
  8
1
 62
1
 10
-246.2332666003763
 20
9.03228140796746
 30
0
 11
-244.7552134328489
 21
10.51033457549481
 31
0
  0
LINE
  8
1
 62
1
 10
-246.091845244139
 20
9.03228140796746
 30
0
 11
-244.7552134328489
 21
10.3689132192575
 31
0
  0
LINE
  8
1
 62
1
 10
-245.9504238879017
 20
9.03228140796746
 30
0
 11
-244.7552134328489
 21
10.22749186302019
 31
0
  0
LINE
  8
1
 62
1
 10
-245.8090025316644
 20
9.03228140796746
 30
0
 11
-244.7552134328489
 21
10.08607050678288
 31
0
  0
LINE
  8
1
 62
1
 10
-245.6675811754271
 20
9.03228140796746
 30
0
 11
-244.7552134328489
 21
9.944649150545573
 31
0
  0
LINE
  8
1
 62
1
 10
-245.5261598191897
 20
9.03228140796746
 30
0
 11
-244.7552134328489
 21
9.803227794308263
 31
0
  0
LINE
  8
1
 62
1
 10
-245.3847384629524
 20
9.03228140796746
 30
0
 11
-244.7552134328489
 21
9.661806438070954
 31
0
  0
LINE
  8
1
 62
1
 10
-245.2433171067151
 20
9.03228140796746
 30
0
 11
-244.7552134328489
 21
9.520385081833645
 31
0
  0
LINE
  8
1
 62
1
 10
-245.1018957504778
 20
9.03228140796746
 30
0
 11
-244.7552134328489
 21
9.378963725596336
 31
0
  0
LINE
  8
1
 62
1
 10
-244.9604743942405
 20
9.03228140796746
 30
0
 11
-244.7552134328489
 21
9.237542369359026
 31
0
  0
LINE
  8
1
 62
1
 10
-244.8190530380032
 20
9.03228140796746
 30
0
 11
-244.7552134328489
 21
9.096121013121717
 31
0
  0
ENDBLK
  8
0
  0
BLOCK
  8
0
  2
LAVEL
 70
0
 10
-208.7552134328489
 20
19.03228140796746
 30
0
  0
INSERT
  8
1
  2
*X0
 10
0
 20
0
 30
0
  0
LINE
  8
1
 62
2
  6
DIVIDE
 10
-189.5552134328489
 20
0.03228140796746004
 30
0
 11
-189.5552134328489
 21
-1.96771859203254
 31
0
  0
LINE
  8
1
 62
2
  6
DIVIDE
 10
-227.9552134328488
 20
0.03228140796746004
 30
0
 11
-189.5552134328489
 21
0.03228140796746004
 31
0
  0
LINE
  8
1
 62
2
  6
DIVIDE
 10
-227.9552134328488
 20
-1.96771859203254
 30
0
 11
-227.9552134328488
 21
0.03228140796746004
 31
0
  0
LINE
  8
1
 62
2
  6
DIVIDE
 10
-189.5552134328489
 20
-1.96771859203254
 30
0
 11
-227.9552134328488
 21
-1.96771859203254
 31
0
  0
LINE
  8
1
 62
2
  6
DIVIDE
 10
-227.9552134328488
 20
1.03228140796746
 30
0
 11
-227.9552134328488
 21
8.03228140796746
 31
0
  0
LINE
  8
1
 62
2
  6
DIVIDE
 10
-189.5552134328489
 20
1.03228140796746
 30
0
 11
-227.9552134328488
 21
1.03228140796746
 31
0
  0
LINE
  8
1
 62
2
  6
DIVIDE
 10
-189.5552134328489
 20
8.03228140796746
 30
0
 11
-189.5552134328489
 21
1.03228140796746
 31
0
  0
LINE
  8
1
 62
2
  6
DIVIDE
 10
-227.9552134328488
 20
8.03228140796746
 30
0
 11
-189.5552134328489
 21
8.03228140796746
 31
0
  0
LINE
  8
1
 62
7
 10
-168.7552134328489
 20
-1.96771859203254
 30
0
 11
-168.7552134328489
 21
9.03228140796746
 31
0
  0
LINE
  8
1
 62
7
 10
-247.7552134328489
 20
-2.96771859203254
 30
0
 11
-169.7552134328489
 21
-2.96771859203254
 31
0
  0
LINE
  8
1
 62
7
 10
-248.7552134328489
 20
9.03228140796746
 30
0
 11
-248.7552134328489
 21
-1.96771859203254
 31
0
  0
LINE
  8
1
 62
7
 10
-248.7552134328489
 20
9.03228140796746
 30
0
 11
-248.7552134328489
 21
28.03228140796746
 31
0
  0
LINE
  8
1
 62
2
 10
-168.7552134328489
 20
9.03228140796746
 30
0
 11
-244.7552134328489
 21
9.03228140796746
 31
0
  0
LINE
  8
1
 62
7
 10
-168.7552134328489
 20
28.03228140796746
 30
0
 11
-168.7552134328489
 21
9.03228140796746
 31
0
  0
LINE
  8
1
 62
7
 10
-247.7552134328489
 20
29.03228140796746
 30
0
 11
-244.7552134328489
 21
29.03228140796746
 31
0
  0
LINE
  8
1
 62
2
 10
-242.7552134328489
 20
19.03228140796746
 30
0
 11
-226.7552134328489
 21
19.03228140796746
 31
0
  0
LINE
  8
1
 62
2
 10
-242.7552134328489
 20
15.03228140796746
 30
0
 11
-242.7552134328489
 21
19.03228140796746
 31
0
  0
LINE
  8
1
 62
2
 10
-242.7552134328489
 20
10.03228140796746
 30
0
 11
-242.7552134328489
 21
14.03228140796746
 31
0
  0
LINE
  8
1
 62
2
 10
-242.7552134328489
 20
14.03228140796746
 30
0
 11
-226.7552134328489
 21
14.03228140796746
 31
0
  0
LINE
  8
1
 62
2
 10
-226.7552134328489
 20
19.03228140796746
 30
0
 11
-226.7552134328489
 21
15.03228140796746
 31
0
  0
LINE
  8
1
 62
2
 10
-226.7552134328489
 20
15.03228140796746
 30
0
 11
-242.7552134328489
 21
15.03228140796746
 31
0
  0
LINE
  8
1
 62
2
 10
-226.7552134328489
 20
14.03228140796746
 30
0
 11
-226.7552134328489
 21
10.03228140796746
 31
0
  0
LINE
  8
1
 62
2
 10
-226.7552134328489
 20
10.03228140796746
 30
0
 11
-242.7552134328489
 21
10.03228140796746
 31
0
  0
LINE
  8
1
 62
2
 10
-209.7552134328489
 20
10.03228140796746
 30
0
 11
-225.7552134328489
 21
10.03228140796746
 31
0
  0
LINE
  8
1
 62
2
 10
-209.7552134328489
 20
14.03228140796746
 30
0
 11
-209.7552134328489
 21
10.03228140796746
 31
0
  0
LINE
  8
1
 62
2
 10
-209.7552134328489
 20
15.03228140796746
 30
0
 11
-225.7552134328489
 21
15.03228140796746
 31
0
  0
LINE
  8
1
 62
2
 10
-209.7552134328489
 20
19.03228140796746
 30
0
 11
-209.7552134328489
 21
15.03228140796746
 31
0
  0
LINE
  8
1
 62
2
 10
-225.7552134328489
 20
14.03228140796746
 30
0
 11
-209.7552134328489
 21
14.03228140796746
 31
0
  0
LINE
  8
1
 62
2
 10
-225.7552134328489
 20
10.03228140796746
 30
0
 11
-225.7552134328489
 21
14.03228140796746
 31
0
  0
LINE
  8
1
 62
2
 10
-225.7552134328489
 20
15.03228140796746
 30
0
 11
-225.7552134328489
 21
19.03228140796746
 31
0
  0
LINE
  8
1
 62
2
 10
-225.7552134328489
 20
19.03228140796746
 30
0
 11
-209.7552134328489
 21
19.03228140796746
 31
0
  0
LINE
  8
1
 62
2
 10
-192.7552134328489
 20
10.03228140796746
 30
0
 11
-208.7552134328489
 21
10.03228140796746
 31
0
  0
LINE
  8
1
 62
2
 10
-192.7552134328489
 20
14.03228140796746
 30
0
 11
-192.7552134328489
 21
10.03228140796746
 31
0
  0
LINE
  8
1
 62
2
 10
-192.7552134328489
 20
15.03228140796746
 30
0
 11
-208.7552134328489
 21
15.03228140796746
 31
0
  0
LINE
  8
1
 62
2
 10
-192.7552134328489
 20
19.03228140796746
 30
0
 11
-192.7552134328489
 21
15.03228140796746
 31
0
  0
LINE
  8
1
 62
2
 10
-208.7552134328489
 20
14.03228140796746
 30
0
 11
-192.7552134328489
 21
14.03228140796746
 31
0
  0
LINE
  8
1
 62
2
 10
-208.7552134328489
 20
10.03228140796746
 30
0
 11
-208.7552134328489
 21
14.03228140796746
 31
0
  0
LINE
  8
1
 62
2
 10
-208.7552134328489
 20
15.03228140796746
 30
0
 11
-208.7552134328489
 21
19.03228140796746
 31
0
  0
LINE
  8
1
 62
2
 10
-208.7552134328489
 20
19.03228140796746
 30
0
 11
-192.7552134328489
 21
19.03228140796746
 31
0
  0
LINE
  8
1
 62
2
 10
-170.7552134328489
 20
18.03228140796746
 30
0
 11
-191.7552134328489
 21
18.03228140796746
 31
0
  0
LINE
  8
1
 62
2
 10
-170.7552134328489
 20
23.03228140796746
 30
0
 11
-170.7552134328489
 21
18.03228140796746
 31
0
  0
LINE
  8
1
 62
2
 10
-170.7552134328489
 20
23.03228140796746
 30
0
 11
-191.7552134328489
 21
23.03228140796746
 31
0
  0
LINE
  8
1
 62
2
 10
-170.7552134328489
 20
28.03228140796746
 30
0
 11
-170.7552134328489
 21
23.03228140796746
 31
0
  0
LINE
  8
1
 62
2
 10
-191.7552134328489
 20
18.03228140796746
 30
0
 11
-191.7552134328489
 21
23.03228140796746
 31
0
  0
LINE
  8
1
 62
2
 10
-191.7552134328489
 20
23.03228140796746
 30
0
 11
-191.7552134328489
 21
28.03228140796746
 31
0
  0
LINE
  8
1
 62
2
 10
-191.7552134328489
 20
28.03228140796746
 30
0
 11
-170.7552134328489
 21
28.03228140796746
 31
0
  0
LINE
  8
1
 62
2
 10
-244.7552134328489
 20
29.03228140796746
 30
0
 11
-244.7552134328489
 21
9.03228140796746
 31
0
  0
LINE
  8
1
 62
2
 10
-244.7552134328489
 20
9.03228140796746
 30
0
 11
-248.7552134328489
 21
9.03228140796746
 31
0
  0
LINE
  8
1
 62
7
 10
-244.7552134328489
 20
29.03228140796746
 30
0
 11
-169.7552134328489
 21
29.03228140796746
 31
0
  0
LINE
  8
1
 62
2
 10
-208.7552134328489
 20
28.03228140796746
 30
0
 11
-192.7552134328489
 21
28.03228140796746
 31
0
  0
LINE
  8
1
 62
2
 10
-192.7552134328489
 20
28.03228140796746
 30
0
 11
-192.7552134328489
 21
24.03228140796746
 31
0
  0
LINE
  8
1
 62
2
 10
-208.7552134328489
 20
24.03228140796746
 30
0
 11
-208.7552134328489
 21
28.03228140796746
 31
0
  0
LINE
  8
1
 62
2
 10
-192.7552134328489
 20
24.03228140796746
 30
0
 11
-208.7552134328489
 21
24.03228140796746
 31
0
  0
LINE
  8
1
 62
2
 10
-247.8266409328489
 20
11.53228140796746
 30
0
 11
-247.8266409328489
 21
12.49656615796745
 31
0
  0
LINE
  8
1
 62
2
 10
-247.8266409328489
 20
12.49656615796745
 30
0
 11
-246.7552134328489
 21
12.49656615796745
 31
0
  0
LINE
  8
1
 62
2
 10
-246.7552134328489
 20
12.49656615796745
 30
0
 11
-247.8266409328489
 21
11.53228140796746
 31
0
  0
LINE
  8
1
 62
2
 10
-246.7552134328489
 20
12.57692322046744
 30
0
 11
-245.6837859328488
 21
11.77335259546742
 31
0
  0
LINE
  8
1
 62
2
 10
-245.6837859328488
 20
11.77335259546742
 30
0
 11
-245.6837859328488
 21
12.71085165796744
 31
0
  0
LINE
  8
1
 62
2
 10
-247.8266409328489
 20
14.29120722046743
 30
0
 11
-245.6837859328488
 21
12.71085165796744
 31
0
  0
LINE
  8
1
 62
2
 10
-247.8266409328489
 20
13.30013678296739
 30
0
 11
-247.8266409328489
 21
14.29120722046743
 31
0
  0
LINE
  8
1
 62
2
 10
-247.8266409328489
 20
13.30013678296739
 30
0
 11
-247.1302130578489
 21
13.30013678296739
 31
0
  0
LINE
  8
1
 62
2
 10
-246.7552134328489
 20
12.92513715796751
 30
0
 11
-246.7552134328489
 21
12.57692322046744
 31
0
  0
LINE
  8
1
 62
2
 10
-245.6837859328488
 20
13.05906559546752
 30
0
 11
-245.6837859328488
 21
14.66620684546747
 31
0
  0
LINE
  8
1
 62
2
 10
-247.8266409328489
 20
14.63942115796742
 30
0
 11
-245.6837859328488
 21
13.05906559546752
 31
0
  0
LINE
  8
1
 62
2
 10
-247.8266409328489
 20
14.63942115796742
 30
0
 11
-247.8266409328489
 21
15.28227765796747
 31
0
  0
LINE
  8
1
 62
2
 10
-245.6837859328488
 20
14.66620684546747
 30
0
 11
-246.0587855578489
 21
14.66620684546747
 31
0
  0
LINE
  8
1
 62
2
 10
-245.6837859328488
 20
14.82692097046753
 30
0
 11
-247.3588214060168
 21
14.82692097046753
 31
0
  0
LINE
  8
1
 62
2
 10
-245.6837859328488
 20
14.82692097046753
 30
0
 11
-245.6837859328488
 21
15.28227765796747
 31
0
  0
LINE
  8
1
 62
2
 10
-247.8266409328489
 20
15.28227765796747
 30
0
 11
-245.6837859328488
 21
15.28227765796747
 31
0
  0
LINE
  8
1
 62
2
 10
-247.3588214060168
 20
14.82692097046753
 30
0
 11
-246.0587855578489
 21
13.86814453244359
 31
0
  0
LINE
  8
1
 62
2
 10
-246.0587855578489
 20
13.86814453244359
 30
0
 11
-246.0587855578489
 21
14.66620684546747
 31
0
  0
LINE
  8
1
 62
2
 10
-247.8266409328489
 20
15.52334884546751
 30
0
 11
-245.6837859328488
 21
15.52334884546751
 31
0
  0
LINE
  8
1
 62
2
 10
-245.6837859328488
 20
15.52334884546751
 30
0
 11
-245.6837859328488
 21
15.96531268921738
 31
0
  0
LINE
  8
1
 62
2
 10
-245.6837859328488
 20
15.96531268921738
 30
0
 11
-247.1971772765988
 21
15.96531268921738
 31
0
  0
LINE
  8
1
 62
2
 10
-245.6837859328488
 20
16.44745506421747
 30
0
 11
-247.1971772765988
 21
16.44745506421747
 31
0
  0
LINE
  8
1
 62
2
 10
-245.6837859328488
 20
16.44745506421747
 30
0
 11
-245.6837859328488
 21
16.88941890796743
 31
0
  0
LINE
  8
1
 62
2
 10
-245.6837859328488
 20
16.88941890796743
 30
0
 11
-247.1971772765988
 21
16.88941890796743
 31
0
  0
LINE
  8
1
 62
2
 10
-245.6837859328488
 20
17.37156128296742
 30
0
 11
-247.1971772765988
 21
17.37156128296742
 31
0
  0
LINE
  8
1
 62
2
 10
-245.6837859328488
 20
17.37156128296742
 30
0
 11
-245.6837859328488
 21
17.81352512671747
 31
0
  0
LINE
  8
1
 62
2
 10
-247.8266409328489
 20
15.52334884546751
 30
0
 11
-247.8266409328489
 21
16.27334809546743
 31
0
  0
LINE
  8
1
 62
2
 10
-247.4750611617604
 20
16.86263322046746
 30
0
 11
-247.8266409328489
 21
16.86263322046746
 31
0
  0
LINE
  8
1
 62
2
 10
-247.8266409328489
 20
16.86263322046746
 30
0
 11
-247.8266409328489
 21
17.14388293921745
 31
0
  0
LINE
  8
1
 62
2
 10
-247.156998745349
 20
17.81352512671747
 30
0
 11
-245.6837859328488
 21
17.81352512671747
 31
0
  0
LINE
  8
1
 62
2
 10
-247.8266409328489
 20
18.77780987671746
 30
0
 11
-245.6837859328488
 21
17.86709650171748
 31
0
  0
LINE
  8
1
 62
2
 10
-247.8266409328489
 20
18.77780987671746
 30
0
 11
-247.8266409328489
 21
19.19298803296745
 31
0
  0
LINE
  8
1
 62
2
 10
-245.6837859328488
 20
17.86709650171748
 30
0
 11
-245.6837859328488
 21
19.47423775171744
 31
0
  0
LINE
  8
1
 62
2
 10
-247.8266409328489
 20
19.19298803296745
 30
0
 11
-245.6837859328488
 21
20.10370140796742
 31
0
  0
LINE
  8
1
 62
2
 10
-245.6837859328488
 20
19.63495187671749
 30
0
 11
-245.6837859328488
 21
20.10370140796742
 31
0
  0
LINE
  8
1
 62
2
 10
-247.2157680862745
 20
18.98385946151164
 30
0
 11
-246.0587855578489
 21
18.49214188693075
 31
0
  0
LINE
  8
1
 62
2
 10
-247.2157680862745
 20
18.98385946151164
 30
0
 11
-245.6837859328488
 21
19.63495187671749
 31
0
  0
LINE
  8
1
 62
2
 10
-246.0587855578489
 20
18.49214188693075
 30
0
 11
-246.0587855578489
 21
19.31486291109248
 31
0
  0
LINE
  8
1
 62
2
 10
-246.0587855578489
 20
19.31486291109248
 30
0
 11
-245.6837859328488
 21
19.47423775171744
 31
0
  0
LINE
  8
1
 62
2
 10
-245.6837859328488
 20
20.31798690796749
 30
0
 11
-245.6837859328488
 21
20.77334359546744
 31
0
  0
LINE
  8
1
 62
2
 10
-247.4382484640989
 20
19.68852325171743
 30
0
 11
-247.8266409328489
 21
19.68852325171743
 31
0
  0
LINE
  8
1
 62
2
 10
-247.8266409328489
 20
19.68852325171743
 30
0
 11
-247.8266409328489
 21
21.40280725171742
 31
0
  0
LINE
  8
1
 62
2
 10
-247.8266409328489
 20
21.40280725171742
 30
0
 11
-247.4382484640989
 21
21.40280725171742
 31
0
  0
LINE
  8
1
 62
2
 10
-247.4382484640989
 20
21.40280725171742
 30
0
 11
-247.4382484640989
 21
20.77334359546744
 31
0
  0
LINE
  8
1
 62
2
 10
-247.4382484640989
 20
20.77334359546744
 30
0
 11
-245.6837859328488
 21
20.77334359546744
 31
0
  0
LINE
  8
1
 62
2
 10
-245.6837859328488
 20
20.31798690796749
 30
0
 11
-247.4382484640989
 21
20.31798690796749
 31
0
  0
LINE
  8
1
 62
2
 10
-247.4382484640989
 20
20.31798690796749
 30
0
 11
-247.4382484640989
 21
19.68852325171743
 31
0
  0
LINE
  8
1
 62
2
 10
-247.8266409328489
 20
21.89834247046748
 30
0
 11
-245.6837859328488
 21
20.98762909546751
 31
0
  0
LINE
  8
1
 62
2
 10
-247.8266409328489
 20
21.89834247046748
 30
0
 11
-247.8266409328489
 21
22.31352062671748
 31
0
  0
LINE
  8
1
 62
2
 10
-247.8266409328489
 20
22.31352062671748
 30
0
 11
-245.6837859328488
 21
23.22423400171745
 31
0
  0
LINE
  8
1
 62
2
 10
-247.2157680862745
 20
22.10439205526158
 30
0
 11
-245.6837859328488
 21
22.75548447046752
 31
0
  0
LINE
  8
1
 62
2
 10
-247.2157680862745
 20
22.10439205526158
 30
0
 11
-246.0587855578489
 21
21.61267448068078
 31
0
  0
LINE
  8
1
 62
2
 10
-246.0587855578489
 20
21.61267448068078
 30
0
 11
-246.0587855578489
 21
22.43539550484242
 31
0
  0
LINE
  8
1
 62
2
 10
-246.0587855578489
 20
22.43539550484242
 30
0
 11
-245.6837859328488
 21
22.59477034546738
 31
0
  0
LINE
  8
1
 62
2
 10
-245.6837859328488
 20
20.98762909546751
 30
0
 11
-245.6837859328488
 21
22.59477034546738
 31
0
  0
LINE
  8
1
 62
2
 10
-245.6837859328488
 20
22.75548447046752
 30
0
 11
-245.6837859328488
 21
23.22423400171745
 31
0
  0
LINE
  8
1
 62
2
 10
-247.8266409328489
 20
23.27780537671747
 30
0
 11
-247.8266409328489
 21
23.7331620642175
 31
0
  0
LINE
  8
1
 62
2
 10
-247.8266409328489
 20
23.27780537671747
 30
0
 11
-245.6837859328488
 21
23.27780537671747
 31
0
  0
LINE
  8
1
 62
2
 10
-245.6837859328488
 20
23.27780537671747
 30
0
 11
-245.6837859328488
 21
23.7331620642175
 31
0
  0
LINE
  8
1
 62
2
 10
-247.8266409328489
 20
23.7331620642175
 30
0
 11
-246.9009046929102
 21
23.7331620642175
 31
0
  0
LINE
  8
1
 62
2
 10
-246.9009046929102
 20
23.7331620642175
 30
0
 11
-247.8266409328489
 21
24.50994700171746
 31
0
  0
LINE
  8
1
 62
2
 10
-247.8266409328489
 20
24.50994700171746
 30
0
 11
-247.8266409328489
 21
25.01887506421743
 31
0
  0
LINE
  8
1
 62
2
 10
-246.9198462167989
 20
24.25798395242644
 30
0
 11
-247.8266409328489
 21
25.01887506421743
 31
0
  0
LINE
  8
1
 62
2
 10
-245.6837859328488
 20
24.53673268921743
 30
0
 11
-246.7501601695614
 21
23.7331620642175
 31
0
  0
LINE
  8
1
 62
2
 10
-246.7501601695614
 20
23.7331620642175
 30
0
 11
-245.6837859328488
 21
23.7331620642175
 31
0
  0
LINE
  8
1
 62
2
 10
-245.6837859328488
 20
24.53673268921743
 30
0
 11
-245.6837859328488
 21
25.07244643921744
 31
0
  0
LINE
  8
1
 62
2
 10
-245.6837859328488
 20
25.07244643921744
 30
0
 11
-246.7698272994669
 21
24.25405556882326
 31
0
  0
LINE
  8
1
 62
2
 10
-247.8266409328489
 20
26.49208787671746
 30
0
 11
-247.8266409328489
 21
25.15280350171751
 31
0
  0
LINE
  8
1
 62
2
 10
-247.8266409328489
 20
25.15280350171751
 30
0
 11
-245.6837859328488
 21
25.15280350171751
 31
0
  0
LINE
  8
1
 62
2
 10
-247.8266409328489
 20
26.49208787671746
 30
0
 11
-247.4382484640989
 21
26.49208787671746
 31
0
  0
LINE
  8
1
 62
2
 10
-247.4382484640989
 20
26.49208787671746
 30
0
 11
-247.4382484640989
 21
25.60816018921746
 31
0
  0
LINE
  8
1
 62
2
 10
-247.4382484640989
 20
25.60816018921746
 30
0
 11
-246.9694989328489
 21
25.60816018921746
 31
0
  0
LINE
  8
1
 62
2
 10
-246.9694989328489
 20
25.60816018921746
 30
0
 11
-246.9694989328489
 21
26.42512365796746
 31
0
  0
LINE
  8
1
 62
2
 10
-246.9694989328489
 20
26.42512365796746
 30
0
 11
-246.5811064640988
 21
26.42512365796746
 31
0
  0
LINE
  8
1
 62
2
 10
-246.5811064640988
 20
26.42512365796746
 30
0
 11
-246.5811064640988
 21
25.60816018921746
 31
0
  0
LINE
  8
1
 62
2
 10
-246.5811064640988
 20
25.60816018921746
 30
0
 11
-246.0721784015989
 21
25.60816018921746
 31
0
  0
LINE
  8
1
 62
2
 10
-246.0721784015989
 20
25.60816018921746
 30
0
 11
-246.0721784015989
 21
26.53226640796741
 31
0
  0
LINE
  8
1
 62
2
 10
-246.0721784015989
 20
26.53226640796741
 30
0
 11
-245.6837859328488
 21
26.53226640796741
 31
0
  0
LINE
  8
1
 62
2
 10
-245.6837859328488
 20
26.53226640796741
 30
0
 11
-245.6837859328488
 21
25.15280350171751
 31
0
  0
ARC
  8
1
 62
2
 10
-247.1971772765988
 20
16.20638387671743
 30
0
 40
0.2410711875000366
 50
90
 51
270
  0
ARC
  8
1
 62
2
 10
-247.1971772765988
 20
17.13049009546747
 30
0
 40
0.2410711874999514
 50
90
 51
270
  0
ARC
  8
1
 62
2
 10
-247.1569987453489
 20
16.27334809546743
 30
0
 40
0.6696421875000373
 50
118.3576365763288
 51
180
  0
ARC
  8
1
 62
2
 10
-247.1569987453489
 20
17.14388293921745
 30
0
 40
0.6696421875000205
 50
90
 51
180
  0
ARC
  8
1
 62
7
 10
-169.7552134328489
 20
-1.96771859203254
 30
0
 40
1
 50
270
 51
0
  0
ARC
  8
1
 62
7
 10
-247.7552134328489
 20
-1.96771859203254
 30
0
 40
1
 50
180
 51
270
  0
ARC
  8
1
 62
7
 10
-169.7552134328489
 20
28.03228140796746
 30
0
 40
1
 50
0
 51
90
  0
ARC
  8
1
 62
7
 10
-247.7552134328489
 20
28.03228140796746
 30
0
 40
1
 50
90
 51
180
  0
ARC
  8
1
 62
2
 10
-247.1302130578489
 20
12.92513715796751
 30
0
 40
0.3749996249999867
 50
0
 51
90
  0
ARC
  8
1
 62
2
 10
-246.8423674306102
 20
24.35031957421667
 30
0
 40
0.1205355937499854
 50
230.0000000000055
 51
306.9999999999974
  0
INSERT
  8
0
  2
CHR
 10
-242.7552134328489
 20
10.03228140796745
 30
0
  0
ENDBLK
  8
0
  0
ENDSEC
  0
SECTION
  2
ENTITIES
  0
LINE
  8
0
 62
7
 10
-265.4651039715535
 20
81.67967578761633
 30
0
 11
-264.3104034506715
 21
79.67967577751423
 31
0
  0
LINE
  8
0
 62
7
 10
-265.4651040065481
 20
77.67967578761633
 30
0
 11
-267.7745050833068
 21
77.67967580782045
 31
0
  0
LINE
  8
0
 62
7
 10
-264.3104034506715
 20
79.67967577751423
 30
0
 11
-265.4651040065481
 21
77.67967578761633
 31
0
  0
LINE
  8
0
 62
7
 10
-268.9292056041887
 20
79.67967581792263
 30
0
 11
-267.7745050483121
 21
81.67967580782045
 31
0
  0
LINE
  8
0
 62
7
 10
-267.7745050833068
 20
77.67967580782045
 30
0
 11
-268.9292056041887
 21
79.67967581792263
 31
0
  0
LINE
  8
0
 62
7
 10
-267.7745050483121
 20
81.67967580782045
 30
0
 11
-265.4651039715535
 21
81.67967578761633
 31
0
  0
LINE
  8
0
 62
7
 10
-265.4651039715529
 20
18.04006548082691
 30
0
 11
-264.310403450671
 21
16.04006547072481
 31
0
  0
LINE
  8
0
 62
7
 10
-265.4651040065476
 20
14.04006548082691
 30
0
 11
-267.7745050833062
 21
14.04006550103111
 31
0
  0
LINE
  8
0
 62
7
 10
-264.310403450671
 20
16.04006547072481
 30
0
 11
-265.4651040065476
 21
14.04006548082691
 31
0
  0
LINE
  8
0
 62
7
 10
-268.9292056041881
 20
16.04006551113321
 30
0
 11
-267.7745050483115
 21
18.04006550103111
 31
0
  0
LINE
  8
0
 62
7
 10
-267.7745050833062
 20
14.04006550103111
 30
0
 11
-268.9292056041881
 21
16.04006551113321
 31
0
  0
LINE
  8
0
 62
7
 10
-267.7745050483115
 20
18.04006550103111
 30
0
 11
-265.4651039715529
 21
18.04006548082691
 31
0
  0
LINE
  8
0
 62
7
 10
-201.8254936647666
 20
18.04006548082765
 30
0
 11
-200.6707931438847
 21
16.04006547072555
 31
0
  0
LINE
  8
0
 62
7
 10
-201.8254936997613
 20
14.04006548082765
 30
0
 11
-204.1348947765199
 21
14.04006550103185
 31
0
  0
LINE
  8
0
 62
7
 10
-200.6707931438847
 20
16.04006547072555
 30
0
 11
-201.8254936997613
 21
14.04006548082765
 31
0
  0
LINE
  8
0
 62
7
 10
-205.2895952974019
 20
16.04006551113395
 30
0
 11
-204.1348947415252
 21
18.04006550103185
 31
0
  0
LINE
  8
0
 62
7
 10
-204.1348947765199
 20
14.04006550103185
 30
0
 11
-205.2895952974019
 21
16.04006551113395
 31
0
  0
LINE
  8
0
 62
7
 10
-204.1348947415252
 20
18.04006550103185
 30
0
 11
-201.8254936647666
 21
18.04006548082765
 31
0
  0
LINE
  8
0
 62
7
 10
-204.1348947765205
 20
77.67967580782113
 30
0
 11
-205.2895952974024
 21
79.67967581792323
 31
0
  0
LINE
  8
0
 62
7
 10
-205.2895952974024
 20
79.67967581792323
 30
0
 11
-204.1348947415258
 21
81.67967580782113
 31
0
  0
LINE
  8
0
 62
7
 10
-204.1348947415258
 20
81.67967580782113
 30
0
 11
-201.8254936647672
 21
81.67967578761693
 31
0
  0
LINE
  8
0
 62
7
 10
-201.8254936647672
 20
81.67967578761693
 30
0
 11
-200.6707931438852
 21
79.67967577751483
 31
0
  0
LINE
  8
0
 62
7
 10
-200.6707931438852
 20
79.67967577751483
 30
0
 11
-201.8254936997619
 21
77.67967578761693
 31
0
  0
LINE
  8
0
 62
7
 10
-201.8254936997619
 20
77.67967578761693
 30
0
 11
-204.1348947765205
 21
77.67967580782113
 31
0
  0
LINE
  8
0
 62
7
 10
-233.9373411627281
 20
51.31252612309862
 30
0
 11
-236.3008797699575
 21
51.72928174949922
 31
0
  0
LINE
  8
0
 62
7
 10
-230.1221573398855
 20
47.03504180040463
 30
0
 11
-229.5144511564741
 21
50.48151463158993
 31
0
  0
LINE
  8
0
 62
7
 10
-232.1783540756165
 20
42.57432836227133
 30
0
 11
-235.6248230106114
 21
43.18203381751403
 31
0
  0
LINE
  8
0
 62
7
 10
-235.6248230106114
 20
43.18203381751403
 30
0
 11
-239.0712938267263
 21
43.78973961678983
 31
0
  0
LINE
  8
0
 62
7
 10
-233.7289633495278
 20
52.49429542671322
 30
0
 11
-233.5128080429038
 21
53.72017368277884
 31
0
  0
LINE
  8
0
 62
7
 10
-230.5286914593877
 20
51.93000114687862
 30
0
 11
-233.7289633495278
 21
52.49429542671322
 31
0
  0
LINE
  8
0
 62
7
 10
-233.7289633495278
 20
52.49429542671322
 30
0
 11
-233.9373411627281
 21
51.31252612309862
 31
0
  0
LINE
  8
0
 62
7
 10
-238.8701243431398
 20
52.13117496763243
 30
0
 11
-239.4778309935014
 21
48.68469948824043
 31
0
  0
LINE
  8
0
 62
7
 10
-239.4778309935014
 20
48.68469948824043
 30
0
 11
-240.0855369336176
 21
45.23822763992112
 31
0
  0
LINE
  8
0
 62
7
 10
-236.0925019567572
 20
52.91105105311382
 30
0
 11
-237.4216410672834
 21
53.14541413941453
 31
0
  0
LINE
  8
0
 62
7
 10
-235.9446298232885
 20
53.74967619067735
 30
0
 11
-236.0925019567572
 21
52.91105105311382
 31
0
  0
LINE
  8
0
 62
7
 10
-236.3008797699575
 20
51.72928174949922
 30
0
 11
-236.1818329148362
 21
52.40443021309602
 31
0
  0
LINE
  8
0
 62
7
 10
-236.1818329148362
 20
52.40443021309602
 30
0
 11
-236.0925019567572
 21
52.91105105311382
 31
0
  0
LINE
  8
0
 62
7
 10
-230.7298628130513
 20
43.58857260029194
 30
0
 11
-230.1221573398855
 21
47.03504180040463
 31
0
  0
LINE
  8
0
 62
7
 10
-228.5009071262355
 20
47.96680712053473
 30
0
 11
-227.9863809010873
 21
48.10467400704783
 31
0
  0
LINE
  8
0
 62
7
 10
-227.9863809010873
 20
47.61506728160023
 30
0
 11
-228.5009071262355
 21
47.75293416811334
 31
0
  0
LINE
  8
0
 62
7
 10
-281.799999587498
 20
143.8598706443236
 30
0
 11
-187.799999587498
 21
143.8598706443245
 31
0
  0
LINE
  8
0
 62
7
 10
-283.1269048054652
 20
143.5504695675651
 30
0
 11
-286.7194298706697
 21
143.5504695675651
 31
0
  0
LINE
  8
0
 62
7
 10
-184.7999995087597
 20
131.8598706443245
 30
0
 11
-184.7999995087594
 21
97.89478017412682
 31
0
  0
LINE
  8
0
 62
7
 10
-182.7999998299384
 20
120.2065846303399
 30
0
 11
-182.7999998581806
 21
97.89478017412714
 31
0
  0
LINE
  8
0
 62
7
 10
-182.7999996067114
 20
142.8598706443246
 30
0
 11
-182.7999997699183
 21
136.7078808890923
 31
0
  0
LINE
  8
0
 62
7
 10
-182.7999997699183
 20
136.7078808890923
 30
0
 11
-182.7999997528232
 21
133.2175402036464
 31
0
  0
LINE
  8
0
 62
7
 10
-186.4730943870283
 20
143.5504695675661
 30
0
 11
-182.8805693218236
 21
143.5504695675661
 31
0
  0
LINE
  8
0
 62
7
 10
-185.7999995962467
 20
145.8598706443245
 30
0
 11
-283.7999995962467
 21
145.8598706443236
 31
0
  0
LINE
  8
0
 62
7
 10
-182.7999998937004
 20
-18.09012935567546
 30
0
 11
-182.699999716624
 21
-18.09012935567546
 31
0
  0
LINE
  8
0
 62
7
 10
-180.699999716624
 20
-18.09012935567546
 30
0
 11
-179.7999998937003
 21
-18.09012935567534
 31
0
  0
LINE
  8
0
 62
7
 10
-286.7999997528232
 20
133.2175402036453
 30
0
 11
-286.7999997699183
 21
136.7078808890923
 31
0
  0
LINE
  8
0
 62
7
 10
-286.7999998581806
 20
97.89478017411523
 30
0
 11
-286.7999998299384
 21
120.2065846303388
 31
0
  0
LINE
  8
0
 62
7
 10
-284.7999995087597
 20
131.8598706443236
 30
0
 11
-284.7999995087594
 21
97.89478017411554
 31
0
  0
LINE
  8
0
 62
7
 10
-286.7999998937004
 20
-21.14012935567649
 30
0
 11
-286.3349089677043
 21
-21.14012935567649
 31
0
  0
LINE
  8
0
 62
7
 10
-289.7999998937004
 20
-18.09012935567648
 30
0
 11
-288.8999997166258
 21
-18.09012935567648
 31
0
  0
LINE
  8
0
 62
7
 10
-290.7999998937005
 20
-7.190129355676447
 30
0
 11
-290.2999994641463
 21
-6.690128926122384
 31
0
  0
LINE
  8
0
 62
7
 10
-290.7999998937004
 20
-17.09012935567648
 30
0
 11
-289.7999998937004
 21
-18.09012935567648
 31
0
  0
LINE
  8
0
 62
7
 10
-286.8999997166258
 20
-18.09012935567648
 30
0
 11
-286.7999998346242
 21
-18.09012935567648
 31
0
  0
LINE
  8
0
 62
7
 10
-178.7999998937005
 20
-7.190129355675367
 30
0
 11
-179.2999994641449
 21
-6.690129785230852
 31
0
  0
LINE
  8
0
 62
7
 10
-178.7999998937004
 20
-17.09012935567546
 30
0
 11
-179.7999998937003
 21
-18.09012935567534
 31
0
  0
LINE
  8
0
 62
7
 10
-183.2650899080957
 20
-21.14012935567547
 30
0
 11
-182.8000000012809
 21
-21.14012935567547
 31
0
  0
LINE
  8
0
 62
7
 10
-285.4881939153523
 20
145.4598706443236
 30
0
 11
-286.0708309145523
 21
145.4598706443236
 31
0
  0
LINE
  8
0
 62
7
 10
-283.7999996137389
 20
145.9598706443237
 30
0
 11
-185.7999996137388
 21
145.9598706443236
 31
0
  0
LINE
  8
0
 62
7
 10
-281.7999996137398
 20
147.8598706443236
 30
0
 11
-187.7999996137398
 21
147.8598706443236
 31
0
  0
LINE
  8
0
 62
7
 10
-183.5291683129273
 20
145.4598706443236
 30
0
 11
-184.1118053121254
 21
145.4598706443236
 31
0
  0
LINE
  8
0
 62
7
 10
-286.7999997699183
 20
136.7078808890923
 30
0
 11
-286.7999996294412
 21
142.8598706443236
 31
0
  0
LINE
  8
0
 62
7
 10
-296.2999994816335
 20
-37.14014059536447
 30
0
 11
-295.2999994641415
 21
-37.14014059536447
 31
0
  0
LINE
  8
0
 62
7
 10
-285.8999997178531
 20
-37.14014059536436
 30
0
 11
-284.8999997528478
 21
-37.14014059536436
 31
0
  0
LINE
  8
0
 62
7
 10
-295.2999994641415
 20
-37.14014059536447
 30
0
 11
-285.8999997178531
 21
-37.14014059536436
 31
0
  0
LINE
  8
0
 62
7
 10
-184.699999665359
 20
-37.14014059536436
 30
0
 11
-284.8999997528478
 21
-37.14014059536436
 31
0
  0
LINE
  8
0
 62
7
 10
-184.699999665359
 20
-37.14014059536436
 30
0
 11
-184.3000003783762
 21
-37.14014059536476
 31
0
  0
LINE
  8
0
 62
7
 10
-184.3000003783762
 20
-37.14014059536476
 30
0
 11
-183.6999996741078
 21
-37.14014059536436
 31
0
  0
LINE
  8
0
 62
7
 10
-173.2999994816417
 20
-35.14014059536407
 30
0
 11
-174.2999994394046
 21
-35.14014059536407
 31
0
  0
LINE
  8
0
 62
7
 10
-172.7999994816417
 20
-35.14014059536407
 30
0
 11
-173.2999994816417
 21
-35.14014059536407
 31
0
  0
LINE
  8
0
 62
7
 10
-173.2999994816417
 20
-37.14014059536447
 30
0
 11
-174.2999994641497
 21
-37.14014059536447
 31
0
  0
LINE
  8
0
 62
7
 10
-172.7999994816417
 20
-37.14014059536447
 30
0
 11
-173.2999994816417
 21
-37.14014059536447
 31
0
  0
LINE
  8
0
 62
7
 10
-174.2999994641497
 20
-37.14014059536447
 30
0
 11
-183.3000003871248
 21
-37.14014059536419
 31
0
  0
LINE
  8
0
 62
7
 10
-172.7999994816417
 20
-37.14014059536447
 30
0
 11
-165.2999995472567
 21
-37.14014059536447
 31
0
  0
LINE
  8
0
 62
7
 10
-165.2999995472567
 20
-37.14014059536447
 30
0
 11
-165.2999995472567
 21
-35.14014059536407
 31
0
  0
LINE
  8
0
 62
7
 10
-172.7999994816417
 20
-35.14014059536407
 30
0
 11
-165.2999995472567
 21
-35.14014059536407
 31
0
  0
LINE
  8
0
 62
7
 10
-174.2999994379035
 20
-34.14014059536447
 30
0
 11
-174.2999994379036
 21
-30.51943338824054
 31
0
  0
LINE
  8
0
 62
7
 10
-183.3000003871248
 20
-37.14014059536419
 30
0
 11
-183.6999996741078
 21
-37.14014059536436
 31
0
  0
LINE
  8
0
 62
7
 10
-296.2999994816335
 20
-35.14014059536407
 30
0
 11
-295.2999994393964
 21
-35.14014059536407
 31
0
  0
LINE
  8
0
 62
7
 10
-295.2999994378953
 20
-34.14014059536447
 30
0
 11
-295.2999994378951
 21
-30.51943338824054
 31
0
  0
LINE
  8
0
 62
7
 10
-286.8999996828582
 20
-15.14014059536135
 30
0
 11
-286.0380412755566
 21
-15.14014059536447
 31
0
  0
LINE
  8
0
 62
7
 10
-287.2999994379001
 20
97.89478017411523
 30
0
 11
-182.2999994378987
 21
97.89478017412714
 31
0
  0
LINE
  8
0
 62
7
 10
-180.6999996578583
 20
-15.10521982588477
 30
0
 11
-180.6999996578583
 21
-15.14014059536169
 31
0
  0
LINE
  8
0
 62
7
 10
-182.6999997178512
 20
-19.14014059536135
 30
0
 11
-182.6999997178512
 21
-21.70521954591999
 31
0
  0
LINE
  8
0
 62
7
 10
-180.6999996578583
 20
-15.14014059536169
 30
0
 11
-181.5786793142988
 21
-15.14014059536208
 31
0
  0
LINE
  8
0
 62
7
 10
-182.5999994781374
 20
-15.14014059536407
 30
0
 11
-182.6999996828564
 21
-15.14014059536135
 31
0
  0
LINE
  8
0
 62
7
 10
-182.3071064079274
 20
-15.14014059536208
 30
0
 11
-182.5999994781374
 21
-15.14014059536407
 31
0
  0
LINE
  8
0
 62
7
 10
-181.5786793142988
 20
-15.14014059536208
 30
0
 11
-182.3071064079274
 21
-15.14014059536208
 31
0
  0
LINE
  8
0
 62
7
 10
-180.6999997178512
 20
-23.70521954592005
 30
0
 11
-180.6999997178512
 21
-19.14014059536135
 31
0
  0
LINE
  8
0
 62
7
 10
-182.5999994781374
 20
-15.10521982588477
 30
0
 11
-182.5999994781374
 21
-15.14014059536407
 31
0
  0
LINE
  8
0
 62
7
 10
-286.9999994781388
 20
-15.10521982588477
 30
0
 11
-286.9999994781388
 21
-15.14014059536447
 31
0
  0
LINE
  8
0
 62
7
 10
-285.2999994378999
 20
-19.69100626349928
 30
0
 11
-285.2999994379
 21
-16.10521982588477
 31
0
  0
LINE
  8
0
 62
7
 10
-296.7999994816335
 20
-35.14014059536407
 30
0
 11
-304.2999995472486
 21
-35.14014059536407
 31
0
  0
LINE
  8
0
 62
7
 10
-296.7999994816335
 20
-37.14014059536447
 30
0
 11
-304.2999995472486
 21
-37.14014059536447
 31
0
  0
LINE
  8
0
 62
7
 10
-304.2999995472486
 20
-37.14014059536447
 30
0
 11
-304.2999995472486
 21
-35.14014059536407
 31
0
  0
LINE
  8
0
 62
7
 10
-296.2999994816335
 20
-35.14014059536407
 30
0
 11
-296.7999994816335
 21
-35.14014059536407
 31
0
  0
LINE
  8
0
 62
7
 10
-296.2999994816335
 20
-37.14014059536447
 30
0
 11
-296.7999994816335
 21
-37.14014059536447
 31
0
  0
LINE
  8
0
 62
7
 10
-287.2999994379001
 20
97.89478017411523
 30
0
 11
-290.2999994641463
 21
97.89478017411523
 31
0
  0
LINE
  8
0
 62
7
 10
-286.8999997178531
 20
-19.14014059536135
 30
0
 11
-286.8999997178531
 21
-21.70522010582528
 31
0
  0
LINE
  8
0
 62
7
 10
-287.2999994379001
 20
-15.10521982588477
 30
0
 11
-290.2999994641463
 21
-15.10521982588477
 31
0
  0
LINE
  8
0
 62
7
 10
-286.9999994781388
 20
-15.14014059536447
 30
0
 11
-286.8999996828582
 21
-15.14014059536135
 31
0
  0
LINE
  8
0
 62
7
 10
-287.2928928455557
 20
-15.14014059536208
 30
0
 11
-286.9999994781388
 21
-15.14014059536447
 31
0
  0
LINE
  8
0
 62
7
 10
-288.0213200014197
 20
-15.14014059536169
 30
0
 11
-287.2928928455557
 21
-15.14014059536208
 31
0
  0
LINE
  8
0
 62
7
 10
-288.0213200014197
 20
-15.14014059536169
 30
0
 11
-288.8999996578601
 21
-15.14014059536169
 31
0
  0
LINE
  8
0
 62
7
 10
-288.8999997178532
 20
-23.70522010582539
 30
0
 11
-288.8999997178531
 21
-19.14014059536135
 31
0
  0
LINE
  8
0
 62
7
 10
-285.5928926567134
 20
-20.39811304468589
 30
0
 11
-295.0071062190819
 21
-29.81232660705416
 31
0
  0
LINE
  8
0
 62
7
 10
-288.8999996578601
 20
-15.10521982588477
 30
0
 11
-288.8999996578601
 21
-15.14014059536169
 31
0
  0
LINE
  8
0
 62
7
 10
-286.2999994379001
 20
-15.10521982588477
 30
0
 11
-287.2999994379001
 21
-15.10521982588477
 31
0
  0
LINE
  8
0
 62
7
 10
-290.2999994641463
 20
97.89478017411523
 30
0
 11
-290.2999994641463
 21
-15.10521982588477
 31
0
  0
LINE
  8
0
 62
7
 10
-179.2999994641449
 20
97.89478017412753
 30
0
 11
-182.2999994378987
 21
97.89478017412714
 31
0
  0
LINE
  8
0
 62
7
 10
-183.2999994378987
 20
-15.10521982588477
 30
0
 11
-182.2999994378987
 21
-15.10521982588477
 31
0
  0
LINE
  8
0
 62
7
 10
-179.2999994641449
 20
-15.10521982588477
 30
0
 11
-182.2999994378987
 21
-15.10521982588477
 31
0
  0
LINE
  8
0
 62
7
 10
-182.6999996828564
 20
-15.14014059536135
 30
0
 11
-183.5619576002421
 21
-15.14014059536447
 31
0
  0
LINE
  8
0
 62
7
 10
-184.2999994378987
 20
-19.69100626349916
 30
0
 11
-184.2999994378987
 21
-16.10521982588477
 31
0
  0
LINE
  8
0
 62
7
 10
-184.0071062190853
 20
-20.39811304468589
 30
0
 11
-174.592892656717
 21
-29.81232660705405
 31
0
  0
LINE
  8
0
 62
7
 10
-179.2999994641449
 20
97.89478017412753
 30
0
 11
-179.2999994641449
 21
-15.10521982588477
 31
0
  0
LINE
  8
0
 62
7
 10
65.6039992022381
 20
-23.99012836507276
 30
0
 11
65.60399925472868
 21
-24.340129355676
 31
0
  0
LINE
  8
0
 62
7
 10
65.60399925472868
 20
-24.340129355676
 30
0
 11
65.60399925472868
 21
-27.84012935567543
 31
0
  0
LINE
  8
0
 62
7
 10
68.1039992022381
 20
-24.49012836507276
 30
0
 11
66.0539992188383
 21
-24.49012836507276
 31
0
  0
LINE
  8
0
 62
7
 10
66.05399920223809
 20
-23.99012836507276
 30
0
 11
65.6039992022381
 21
-23.99012836507276
 31
0
  0
LINE
  8
0
 62
7
 10
68.1039992022381
 20
-31.19012836507277
 30
0
 11
66.0539992188383
 21
-31.19012836507275
 31
0
  0
LINE
  8
0
 62
7
 10
66.05399920223809
 20
-31.69012836507277
 30
0
 11
65.6039992022381
 21
-31.69012836507277
 31
0
  0
LINE
  8
0
 62
7
 10
22.65399879979898
 20
143.7098706443251
 30
0
 11
22.203998799799
 21
143.7098706443251
 31
0
  0
LINE
  8
0
 62
7
 10
22.6539988138311
 20
143.359870644325
 30
0
 11
22.20399881383099
 21
143.359870644325
 31
0
  0
LINE
  8
0
 62
7
 10
22.82218259179209
 20
-14.61350248304844
 30
0
 11
19.59954652439538
 21
7.6598706443244
 31
0
  0
LINE
  8
0
 62
7
 10
19.59954652439538
 20
7.6598706443244
 30
0
 11
18.73143300185788
 21
13.65987064432453
 31
0
  0
LINE
  8
0
 62
7
 10
28.38365578292428
 20
-18.14015635501832
 30
0
 11
8.193252524267678
 21
121.5098914635319
 31
0
  0
LINE
  8
0
 62
7
 10
83.10399914934666
 20
-3.840129355674982
 30
0
 11
83.10399914934666
 21
-5.840129355674982
 31
0
  0
LINE
  8
0
 62
7
 10
83.10399914934666
 20
-7.840129355674982
 30
0
 11
83.10399914934666
 21
-9.840129355674975
 31
0
  0
LINE
  8
0
 62
7
 10
83.10399914934666
 20
-11.84012935567498
 30
0
 11
83.10399914934666
 21
-13.84012935567498
 31
0
  0
LINE
  8
0
 62
7
 10
79.58476134639128
 20
139.8598706622867
 30
0
 11
79.58476134639128
 21
-19.34012935567498
 31
0
  0
LINE
  8
0
 62
7
 10
81.31230120723311
 20
-21.84012935567495
 30
0
 11
80.87577949761337
 21
-21.84012935567668
 31
0
  0
LINE
  8
0
 62
7
 10
83.09552335586326
 20
-27.84012935567492
 30
0
 11
83.09552335586326
 21
-28.84012935567498
 31
0
  0
LINE
  8
0
 62
7
 10
83.60399910162838
 20
128.3598706443251
 30
0
 11
83.60399910162826
 21
76.75191107071396
 31
0
  0
LINE
  8
0
 62
7
 10
83.60399910162826
 20
18.9678302179361
 30
0
 11
83.60399853733927
 21
10.50987064432505
 31
0
  0
LINE
  8
0
 62
7
 10
83.60399885041616
 20
7.429464588089147
 30
0
 11
83.60399910162826
 21
7.689320116093647
 31
0
  0
LINE
  8
0
 62
7
 10
83.60399889790878
 20
7.119491906106347
 30
0
 11
83.60399878448899
 21
7.331297394325063
 31
0
  0
LINE
  8
0
 62
7
 10
83.60399893352829
 20
6.509869644325057
 30
0
 11
83.60399883854299
 21
6.688440894324842
 31
0
  0
LINE
  8
0
 62
7
 10
83.60399883854299
 20
6.688440894324842
 30
0
 11
83.60399872812721
 21
6.738016386793127
 31
0
  0
LINE
  8
0
 62
7
 10
83.60399895040106
 20
5.509870644324948
 30
0
 11
83.60399869012841
 21
5.898380671155138
 31
0
  0
LINE
  8
0
 62
7
 10
83.60399888166157
 20
2.652730644324862
 30
0
 11
83.60399910162826
 21
3.330421172556441
 31
0
  0
LINE
  8
0
 62
7
 10
83.60399910162826
 20
3.330421172556441
 30
0
 11
83.60399895040106
 21
5.509870644324948
 31
0
  0
LINE
  8
0
 62
7
 10
83.60399869012841
 20
5.898380671155138
 30
0
 11
83.60399893352829
 21
6.509869644325057
 31
0
  0
LINE
  8
0
 62
7
 10
83.60399872812721
 20
6.738016386793127
 30
0
 11
83.60399889790878
 21
7.119491906106347
 31
0
  0
LINE
  8
0
 62
7
 10
83.60399878448899
 20
7.331297394325063
 30
0
 11
83.60399885041616
 21
7.429464588089147
 31
0
  0
LINE
  8
0
 62
7
 10
83.60399910162826
 20
7.689320116093647
 30
0
 11
83.60399888166157
 21
8.367010644325021
 31
0
  0
LINE
  8
0
 62
7
 10
83.60399853733927
 20
10.50987064432505
 30
0
 11
83.60399888166157
 21
8.367010644325021
 31
0
  0
LINE
  8
0
 62
7
 10
83.60399910162826
 20
-13.84012935567498
 30
0
 11
83.10399914934666
 21
-13.84012935567498
 31
0
  0
LINE
  8
0
 62
7
 10
83.60399910162826
 20
-11.84012935567498
 30
0
 11
83.10399914934666
 21
-11.84012935567498
 31
0
  0
LINE
  8
0
 62
7
 10
83.60399910162826
 20
-9.840129355674975
 30
0
 11
83.60399910162826
 21
-11.84012935567498
 31
0
  0
LINE
  8
0
 62
7
 10
83.60399910162826
 20
-9.840129355674975
 30
0
 11
83.10399914934666
 21
-9.840129355674975
 31
0
  0
LINE
  8
0
 62
7
 10
83.60399910162826
 20
-7.840129355674982
 30
0
 11
83.10399914934666
 21
-7.840129355674982
 31
0
  0
LINE
  8
0
 62
7
 10
83.60399910162826
 20
-5.840129355674982
 30
0
 11
83.60399910162826
 21
-7.840129355674982
 31
0
  0
LINE
  8
0
 62
7
 10
83.60399910162826
 20
-5.840129355674982
 30
0
 11
83.10399914934666
 21
-5.840129355674982
 31
0
  0
LINE
  8
0
 62
7
 10
83.60399888166157
 20
2.652730644324862
 30
0
 11
83.60399853733927
 21
0.5098706443250478
 31
0
  0
LINE
  8
0
 62
7
 10
83.60399853733927
 20
0.5098706443250478
 30
0
 11
83.60399910162826
 21
-3.840129355674982
 31
0
  0
LINE
  8
0
 62
7
 10
83.60399910162826
 20
-3.840129355674982
 30
0
 11
83.10399914934666
 21
-3.840129355674982
 31
0
  0
LINE
  8
0
 62
7
 10
83.60399910162826
 20
-13.84012935567498
 30
0
 11
83.60399910162826
 21
-31.34012935567543
 31
0
  0
LINE
  8
0
 62
7
 10
83.60399910162826
 20
-31.34012935567543
 30
0
 11
83.45362224109837
 21
-31.34012935567529
 31
0
  0
LINE
  8
0
 62
7
 10
65.60399923285709
 20
-21.84012935567304
 30
0
 11
54.7039722735999
 21
-21.84012935567304
 31
0
  0
LINE
  8
0
 62
7
 10
65.60399923285709
 20
-21.84012935567304
 30
0
 11
65.60399923285698
 21
-19.34012935567495
 31
0
  0
LINE
  8
0
 62
7
 10
80.87577949761337
 20
-21.84012935567668
 30
0
 11
65.60399923285709
 21
-21.84012935567304
 31
0
  0
LINE
  8
0
 62
7
 10
-13.39600120019981
 20
145.8598706443246
 30
0
 11
22.20399879979908
 21
145.8598706443246
 31
0
  0
LINE
  8
0
 62
7
 10
79.58476134280281
 20
143.3598706443251
 30
0
 11
22.6539988138311
 21
143.359870644325
 31
0
  0
LINE
  8
0
 62
7
 10
-25.39600078901552
 20
147.8598706443246
 30
0
 11
-16.86010240415072
 21
147.8598706443246
 31
0
  0
LINE
  8
0
 62
7
 10
-5.028905779707998
 20
141.0291261136224
 30
0
 11
-8.199848322563099
 21
142.8598706443247
 31
0
  0
LINE
  8
0
 62
7
 10
-25.39600075165151
 20
145.4598706443246
 30
0
 11
-22.70318042862132
 21
145.4598706443246
 31
0
  0
LINE
  8
0
 62
7
 10
22.20399881383099
 20
143.359870644325
 30
0
 11
-9.065873726567503
 21
143.359870644325
 31
0
  0
LINE
  8
0
 62
7
 10
65.60399923285709
 20
-21.84012935567304
 30
0
 11
65.6039992022381
 21
-23.99012836507276
 31
0
  0
LINE
  8
0
 62
7
 10
57.20397227360289
 20
-24.340129355676
 30
0
 11
65.60399925472868
 21
-24.340129355676
 31
0
  0
LINE
  8
0
 62
7
 10
83.45362224109837
 20
-31.34012935567529
 30
0
 11
66.05399921627449
 21
-31.34012935567498
 31
0
  0
LINE
  8
0
 62
7
 10
65.6039984279806
 20
-33.84012935567543
 30
0
 11
65.6039992022381
 21
-31.69012836507277
 31
0
  0
LINE
  8
0
 62
7
 10
65.6039984279806
 20
-33.84012935567543
 30
0
 11
61.00399927294518
 21
-33.84012935567543
 31
0
  0
LINE
  8
0
 62
7
 10
65.6039992022381
 20
-31.69012836507277
 30
0
 11
65.6039984498523
 21
-31.34012935567543
 31
0
  0
LINE
  8
1
 62
2
 10
65.6039965042025
 20
-31.69012836507518
 30
0
 11
65.6039992022381
 21
-31.69012836507277
 31
0
  0
LINE
  8
0
 62
7
 10
-52.17039137767742
 20
83.92967579772
 30
0
 11
-46.6453913776773
 21
83.92967579772
 31
0
  0
LINE
  8
0
 62
7
 10
-52.79539137767742
 20
83.30467579772
 30
0
 11
-52.17039137767742
 21
83.92967579772
 31
0
  0
LINE
  8
0
 62
7
 10
-52.79539137767742
 20
76.05467579771995
 30
0
 11
-52.17039137767742
 21
75.42967579772007
 31
0
  0
LINE
  8
0
 62
7
 10
-52.17039137767742
 20
75.42967579772007
 30
0
 11
-46.6453913776773
 21
75.42967579772
 31
0
  0
LINE
  8
0
 62
7
 10
-46.6453913776773
 20
74.67967579772
 30
0
 11
-45.49539137767741
 21
74.67967579772
 31
0
  0
LINE
  8
0
 62
7
 10
-46.6453913776773
 20
84.6796757977199
 30
0
 11
-45.49539137767741
 21
84.6796757977199
 31
0
  0
LINE
  8
0
 62
7
 10
-52.79539137767742
 20
19.66506549093073
 30
0
 11
-52.17039137767742
 21
20.29006549093073
 31
0
  0
LINE
  8
0
 62
7
 10
-52.17039137767742
 20
11.79006549093081
 30
0
 11
-46.6453913776773
 21
11.79006549093073
 31
0
  0
LINE
  8
0
 62
7
 10
-52.17039137767742
 20
20.29006549093073
 30
0
 11
-46.6453913776773
 21
20.29006549093073
 31
0
  0
LINE
  8
0
 62
7
 10
-52.79539137767742
 20
12.41506549093069
 30
0
 11
-52.17039137767742
 21
11.79006549093081
 31
0
  0
LINE
  8
0
 62
7
 10
-46.6453913776773
 20
11.04006549093074
 30
0
 11
-45.49539137767741
 21
11.04006549093073
 31
0
  0
LINE
  8
0
 62
7
 10
-46.6453913776773
 20
21.04006549093063
 30
0
 11
-45.49539137767741
 21
21.04006549093063
 31
0
  0
LINE
  8
0
 62
7
 10
-59.89600115395952
 20
50.48151463159086
 30
0
 11
-61.99600115395951
 21
50.48151463159088
 31
0
  0
LINE
  8
0
 62
7
 10
-59.89600116283272
 20
51.93000114687961
 30
0
 11
-61.99600116283281
 21
51.93000114687963
 31
0
  0
LINE
  8
0
 62
7
 10
-53.99600116283281
 20
51.93000114687954
 30
0
 11
-58.59600116283271
 21
51.9300011468796
 31
0
  0
LINE
  8
0
 62
7
 10
-63.29600116283281
 20
51.93000114687963
 30
0
 11
-65.99600116283281
 21
51.93000114687965
 31
0
  0
LINE
  8
0
 62
7
 10
-53.99600115395961
 20
50.48151463159079
 30
0
 11
-58.59600115395951
 21
50.48151463159084
 31
0
  0
LINE
  8
0
 62
7
 10
-63.29600122313691
 20
53.14541413941548
 30
0
 11
-65.99600122313692
 21
53.14541413941551
 31
0
  0
LINE
  8
0
 62
7
 10
-65.99600121150881
 20
52.91105105311488
 30
0
 11
-65.99600122313692
 21
53.14541413941551
 31
0
  0
LINE
  8
0
 62
7
 10
-65.99600121150881
 20
52.91105105311488
 30
0
 11
-63.29600121150871
 21
52.91105105311488
 31
0
  0
LINE
  8
0
 62
7
 10
-63.29600121150871
 20
52.91105105311488
 30
0
 11
-63.29600122313691
 21
53.14541413941548
 31
0
  0
LINE
  8
0
 62
7
 10
-65.99600119083091
 20
52.49429542671424
 30
0
 11
-65.99600121150881
 21
52.91105105311488
 31
0
  0
LINE
  8
0
 62
7
 10
-59.89600116283272
 20
51.93000114687961
 30
0
 11
-59.89600121229022
 21
52.40443021309702
 31
0
  0
LINE
  8
0
 62
7
 10
-59.89600119083092
 20
52.49429542671425
 30
0
 11
-61.99600119084091
 21
52.48781193527345
 31
0
  0
LINE
  8
0
 62
7
 10
-59.89600121150872
 20
52.91105105311488
 30
0
 11
-59.89600122313691
 21
53.14541413941551
 31
0
  0
LINE
  8
0
 62
7
 10
-58.5960011908309
 20
52.49429542671424
 30
0
 11
-59.89600119083092
 21
52.49429542671425
 31
0
  0
LINE
  8
0
 62
7
 10
-53.996001223137
 20
53.14541413941539
 30
0
 11
-58.59600122313691
 21
53.14541413941551
 31
0
  0
LINE
  8
0
 62
7
 10
-58.59600121150871
 20
52.91105105311488
 30
0
 11
-58.59600122313691
 21
53.14541413941551
 31
0
  0
LINE
  8
0
 62
7
 10
-59.89600121229022
 20
52.40443021309702
 30
0
 11
-59.89600119083092
 21
52.49429542671425
 31
0
  0
LINE
  8
0
 62
7
 10
-59.89600119083092
 20
52.49429542671425
 30
0
 11
-59.89600121150872
 21
52.91105105311488
 31
0
  0
LINE
  8
0
 62
7
 10
-53.99600119083101
 20
52.49429542671424
 30
0
 11
-58.5960011908309
 21
52.49429542671424
 31
0
  0
LINE
  8
0
 62
7
 10
-58.59600121229032
 20
52.40443021309701
 30
0
 11
-58.5960011908309
 21
52.49429542671424
 31
0
  0
LINE
  8
0
 62
7
 10
-53.9960012102151
 20
53.74967619067834
 30
0
 11
-53.99600118893991
 21
53.72017368277984
 31
0
  0
LINE
  8
0
 62
7
 10
-53.99600118893991
 20
53.72017368277984
 30
0
 11
-53.996001223137
 21
53.14541413941539
 31
0
  0
LINE
  8
0
 62
7
 10
-53.9960012102151
 20
53.74967619067834
 30
0
 11
-51.196001210215
 21
53.74967619067834
 31
0
  0
LINE
  8
0
 62
7
 10
-53.996001223137
 20
53.14541413941539
 30
0
 11
-53.9960012115088
 21
52.91105105311492
 31
0
  0
LINE
  8
0
 62
7
 10
-58.59600121150871
 20
52.91105105311488
 30
0
 11
-53.9960012115088
 21
52.91105105311492
 31
0
  0
LINE
  8
0
 62
7
 10
-58.5960011908309
 20
52.49429542671424
 30
0
 11
-58.59600121150871
 21
52.91105105311488
 31
0
  0
LINE
  8
0
 62
7
 10
-61.99600121150871
 20
52.91105105311488
 30
0
 11
-59.89600121150872
 21
52.91105105311488
 31
0
  0
LINE
  8
0
 62
7
 10
-58.59600116283271
 20
51.9300011468796
 30
0
 11
-58.59600121229032
 21
52.40443021309701
 31
0
  0
LINE
  8
0
 62
7
 10
-61.9960011592762
 20
47.03504180040558
 30
0
 11
-61.99600115395951
 21
50.48151463159088
 31
0
  0
LINE
  8
0
 62
7
 10
-63.29600117726521
 20
42.57432836227232
 30
0
 11
-65.99600117726511
 21
42.57432836227233
 31
0
  0
LINE
  8
0
 62
7
 10
-63.29600116459281
 20
43.58857260029287
 30
0
 11
-65.99600116459281
 21
43.58857260029289
 31
0
  0
LINE
  8
0
 62
7
 10
-63.29600116459281
 20
43.58857260029287
 30
0
 11
-63.29600115927622
 21
47.03504180040559
 31
0
  0
LINE
  8
0
 62
7
 10
-63.29600115927622
 20
47.03504180040559
 30
0
 11
-63.29600115395951
 21
50.48151463159088
 31
0
  0
LINE
  8
0
 62
7
 10
-63.29600115395951
 20
50.48151463159088
 30
0
 11
-65.99600115395951
 21
50.48151463159091
 31
0
  0
LINE
  8
0
 62
7
 10
-65.99600116459281
 20
43.58857260029289
 30
0
 11
-65.99600115395951
 21
50.48151463159091
 31
0
  0
LINE
  8
0
 62
7
 10
-61.99600116958391
 20
43.10987064432349
 30
0
 11
-63.29600116958392
 21
43.10987064432351
 31
0
  0
LINE
  8
0
 62
7
 10
-61.99600116459281
 20
43.58857260029286
 30
0
 11
-61.9960011592762
 21
47.03504180040558
 31
0
  0
LINE
  8
0
 62
7
 10
-59.89600116459282
 20
43.58857260029284
 30
0
 11
-61.99600116459281
 21
43.58857260029286
 31
0
  0
LINE
  8
0
 62
7
 10
-59.89600116459282
 20
43.58857260029284
 30
0
 11
-59.89600115927611
 21
47.03504180040554
 31
0
  0
LINE
  8
0
 62
7
 10
-59.89600115927611
 20
47.03504180040554
 30
0
 11
-59.89600115395952
 21
50.48151463159086
 31
0
  0
LINE
  8
0
 62
7
 10
-59.89600117726521
 20
42.57432836227229
 30
0
 11
-61.99600117726521
 21
42.57432836227231
 31
0
  0
LINE
  8
0
 62
7
 10
-53.99600118893991
 20
53.72017368277984
 30
0
 11
-51.19600118893982
 21
53.72017368277984
 31
0
  0
LINE
  8
0
 62
7
 10
-53.99600120020111
 20
41.85987064432318
 30
0
 11
-50.99600113021131
 21
41.85987064432317
 31
0
  0
LINE
  8
0
 62
7
 10
-53.9960011753588
 20
42.57432836227222
 30
0
 11
-58.59600117726521
 21
42.57432836227228
 31
0
  0
LINE
  8
0
 62
7
 10
-53.99600116333602
 20
43.58857260029277
 30
0
 11
-58.59600116459281
 21
43.58857260029283
 31
0
  0
LINE
  8
0
 62
7
 10
-58.59600116459281
 20
43.58857260029283
 30
0
 11
-58.59600115927621
 21
47.03504180040554
 31
0
  0
LINE
  8
0
 62
7
 10
-58.59600115927621
 20
47.03504180040554
 30
0
 11
-58.59600115395951
 21
50.48151463159084
 31
0
  0
LINE
  8
0
 62
7
 10
-58.59600116958391
 20
43.10987064432345
 30
0
 11
-59.89600116958391
 21
43.10987064432346
 31
0
  0
LINE
  8
0
 62
7
 10
-61.99600116283281
 20
51.93000114687963
 30
0
 11
-61.99600121229031
 21
52.40443021309706
 31
0
  0
LINE
  8
0
 62
7
 10
-63.29600119084091
 20
52.48781193527346
 30
0
 11
-63.29600121150871
 21
52.91105105311488
 31
0
  0
LINE
  8
0
 62
7
 10
-63.29600116283281
 20
51.93000114687963
 30
0
 11
-63.29600121229021
 21
52.40443021309707
 31
0
  0
LINE
  8
0
 62
7
 10
-61.99600121229031
 20
52.40443021309706
 30
0
 11
-61.99600119084091
 21
52.48781193527345
 31
0
  0
LINE
  8
0
 62
7
 10
-61.99600119084091
 20
52.48781193527345
 30
0
 11
-63.29600119084091
 21
52.48781193527346
 31
0
  0
LINE
  8
0
 62
7
 10
-63.29600119084091
 20
52.48781193527346
 30
0
 11
-65.99600119083091
 21
52.49429542671424
 31
0
  0
LINE
  8
0
 62
7
 10
-65.99600116283281
 20
51.93000114687965
 30
0
 11
-65.99600119083091
 21
52.49429542671424
 31
0
  0
LINE
  8
0
 62
7
 10
-63.29600121229021
 20
52.40443021309707
 30
0
 11
-63.29600119084091
 21
52.48781193527346
 31
0
  0
LINE
  8
0
 62
7
 10
-61.99600119084091
 20
52.48781193527345
 30
0
 11
-61.99600121150871
 21
52.91105105311488
 31
0
  0
LINE
  8
0
 62
7
 10
-61.99600121150871
 20
52.91105105311488
 30
0
 11
-61.99600122313692
 21
53.14541413941551
 31
0
  0
LINE
  8
0
 62
7
 10
-59.89600122313691
 20
53.14541413941551
 30
0
 11
-61.99600122313692
 21
53.14541413941551
 31
0
  0
LINE
  8
0
 62
7
 10
7.496233302636483
 20
91.31238548853924
 30
0
 11
3.228989977487089
 21
120.8056018550517
 31
0
  0
LINE
  8
0
 62
7
 10
-13.49600072705542
 20
-31.84012935567468
 30
0
 11
-37.39600090274581
 21
-31.84012935567468
 31
0
  0
LINE
  8
0
 62
7
 10
6.603992757824301
 20
-6.190129355678032
 30
0
 11
11.6039992809761
 21
-6.190129355674458
 31
0
  0
LINE
  8
0
 62
7
 10
11.60399928972478
 20
-7.190129355674443
 30
0
 11
6.603999289724783
 21
-7.190129355674387
 31
0
  0
LINE
  8
0
 62
7
 10
11.60400580412798
 20
-18.09012935567085
 30
0
 11
6.603999280976098
 21
-18.09012935567444
 31
0
  0
LINE
  8
0
 62
7
 10
16.00705449341058
 20
-3.140129355673871
 30
0
 11
12.60399927294458
 21
-3.140129355674482
 31
0
  0
LINE
  8
0
 62
7
 10
23.3324385777199
 20
-18.14015635501835
 30
0
 11
22.82218259179209
 21
-14.61350248304844
 31
0
  0
LINE
  8
0
 62
7
 10
11.60399928972478
 20
-17.09012935567441
 30
0
 11
6.603999289724783
 21
-17.09012935567441
 31
0
  0
LINE
  8
0
 62
7
 10
-0.684339997558908
 20
120.2065846303409
 30
0
 11
16.99674795810489
 21
-1.996934817073587
 31
0
  0
LINE
  8
0
 62
7
 10
-28.39601394493502
 20
143.8598706443183
 30
0
 11
-27.39600074677051
 21
143.8598706443255
 31
0
  0
LINE
  8
0
 62
7
 10
-50.99600120020102
 20
57.85987064432501
 30
0
 11
-45.49539119675262
 21
58.89772158837189
 31
0
  0
LINE
  8
0
 62
7
 10
-50.99600120020102
 20
37.85987064432501
 30
0
 11
-45.49539119675262
 21
36.82201970027814
 31
0
  0
LINE
  8
0
 62
7
 10
-27.3960007715155
 20
145.8598706443255
 30
0
 11
-25.39600075402092
 21
145.8598706443255
 31
0
  0
LINE
  8
0
 62
7
 10
-7.54429036497902
 20
136.7078808890933
 30
0
 11
-16.46779754780062
 21
141.8598706430622
 31
0
  0
LINE
  8
0
 62
7
 10
-26.19984832256301
 20
142.8598706443256
 30
0
 11
-9.498842095940319
 21
133.2175402036474
 31
0
  0
LINE
  8
0
 62
7
 10
-40.3960008939971
 20
-16.84012935567466
 30
0
 11
-40.3960008939971
 21
-27.84012935567466
 31
0
  0
LINE
  8
0
 62
7
 10
-40.3960007890129
 20
131.8598706443255
 30
0
 11
-40.3960007890129
 21
97.89478017411605
 31
0
  0
LINE
  8
0
 62
7
 10
28.38365578292428
 20
-18.14015635501832
 30
0
 11
23.3324385777199
 21
-18.14015635501835
 31
0
  0
LINE
  8
0
 62
7
 10
23.23139813251399
 20
-18.14015635501836
 30
0
 11
6.603999273102488
 21
-18.14015635501839
 31
0
  0
LINE
  8
0
 62
7
 10
23.3324385777199
 20
-18.14015635501835
 30
0
 11
23.23139813251399
 21
-18.14015635501836
 31
0
  0
LINE
  8
0
 62
7
 10
-15.24600072574253
 20
-35.14014059536324
 30
0
 11
-14.49600075330142
 21
-35.14014059536311
 31
0
  0
LINE
  8
0
 62
7
 10
-43.49539121424962
 20
-19.6910062634982
 30
0
 11
-43.49539121424962
 21
-16.10521982588378
 31
0
  0
LINE
  8
0
 62
7
 10
-43.49539121168721
 20
-20.39811304468475
 30
0
 11
-43.49539112932501
 21
-29.81232660705302
 31
0
  0
LINE
  8
0
 62
7
 10
-45.49539121425002
 20
-19.69100626349818
 30
0
 11
-45.49539121425002
 21
-16.10521982588379
 31
0
  0
LINE
  8
0
 62
7
 10
-45.49539121168752
 20
-20.39811304468474
 30
0
 11
-45.49539112932541
 21
-29.81232660705314
 31
0
  0
LINE
  8
0
 62
7
 10
-21.78889487948362
 20
29.8598584140328
 30
0
 11
-22.47468042761813
 21
29.85985841403286
 31
0
  0
LINE
  8
0
 62
7
 10
-22.47468042761813
 20
29.85985841403286
 30
0
 11
-23.20310752124661
 21
29.85985841403286
 31
0
  0
LINE
  8
0
 62
7
 10
-23.20310752124661
 20
29.85985841403286
 30
0
 11
-23.91021519679711
 21
29.8598584140328
 31
0
  0
LINE
  8
0
 62
7
 10
-30.39600074367772
 20
29.85985841403281
 30
0
 11
-23.91021519679711
 21
29.8598584140328
 31
0
  0
LINE
  8
0
 62
7
 10
-21.78889487948362
 20
29.8598584140328
 30
0
 11
-21.06046772361981
 21
29.85985841403282
 31
0
  0
LINE
  8
0
 62
7
 10
-20.35336005781232
 20
29.85985841403281
 30
0
 11
-21.06046772361981
 21
29.85985841403282
 31
0
  0
LINE
  8
0
 62
7
 10
-41.4960006710636
 20
-35.14014059536311
 30
0
 11
-42.49539112676271
 21
-35.14014059536311
 31
0
  0
LINE
  8
0
 62
7
 10
-40.49600065794061
 20
-37.14014059536345
 30
0
 11
-41.4960006710636
 21
-37.14014059536345
 31
0
  0
LINE
  8
0
 62
7
 10
-23.99600059232571
 20
-35.14014059536311
 30
0
 11
-30.24600085041101
 21
-35.14014059536314
 31
0
  0
LINE
  8
0
 62
7
 10
-30.24600085041101
 20
-35.14014059536314
 30
0
 11
-32.99600059232552
 21
-35.14014059536311
 31
0
  0
LINE
  8
0
 62
7
 10
-40.49600065794061
 20
-37.14014059536345
 30
0
 11
-32.99600059232552
 21
-37.14014059536342
 31
0
  0
LINE
  8
0
 62
7
 10
-40.49600065794061
 20
-35.14014059536311
 30
0
 11
-32.99600059232552
 21
-35.14014059536311
 31
0
  0
LINE
  8
0
 62
7
 10
-40.49600065794061
 20
-37.14014059536345
 30
0
 11
-40.49600065794061
 21
-35.14014059536311
 31
0
  0
LINE
  8
0
 62
7
 10
-23.99600059232571
 20
-37.14014059536341
 30
0
 11
-32.99600059232552
 21
-37.14014059536342
 31
0
  0
LINE
  8
0
 62
7
 10
-40.49600065794061
 20
-35.14014059536311
 30
0
 11
-41.4960006710636
 21
-35.14014059536311
 31
0
  0
LINE
  8
0
 62
7
 10
-42.49539112676303
 20
-37.14014059536345
 30
0
 11
-41.4960006710636
 21
-37.14014059536345
 31
0
  0
LINE
  8
0
 62
7
 10
-43.4953911267626
 20
-34.14014059536311
 30
0
 11
-43.4953911267626
 21
-30.51943338823966
 31
0
  0
LINE
  8
0
 62
7
 10
-25.24600085041152
 20
-34.14014059536328
 30
0
 11
-30.24600085041101
 21
-35.14014059536314
 31
0
  0
LINE
  8
0
 62
7
 10
-15.49600075330142
 20
-37.14014059536338
 30
0
 11
-16.49600065794081
 21
-37.14014059536338
 31
0
  0
LINE
  8
0
 62
7
 10
-15.49600075330142
 20
-35.14014059536311
 30
0
 11
-16.49600065794081
 21
-35.14014059536311
 31
0
  0
LINE
  8
0
 62
7
 10
-14.49600075330142
 20
-37.14014059536338
 30
0
 11
-13.49600075330142
 21
-37.14014059536338
 31
0
  0
LINE
  8
0
 62
7
 10
-14.49600075330142
 20
-35.14014059536311
 30
0
 11
-13.49600072855631
 21
-35.14014059536309
 31
0
  0
LINE
  8
0
 62
7
 10
-13.49600072705542
 20
-34.14014059536336
 30
0
 11
-15.24600076729902
 21
-34.14014059536325
 31
0
  0
LINE
  8
0
 62
7
 10
-15.24600076729902
 20
-34.14014059536325
 30
0
 11
-25.24600085041152
 21
-34.14014059536328
 31
0
  0
LINE
  8
0
 62
7
 10
-13.49600072705542
 20
-34.14014059536336
 30
0
 11
-13.49600072705542
 21
-19.14014059536042
 31
0
  0
LINE
  8
0
 62
7
 10
-15.49600075330142
 20
-35.14014059536311
 30
0
 11
-15.24600072574253
 21
-35.14014059536324
 31
0
  0
LINE
  8
0
 62
7
 10
-15.49600075330142
 20
-37.14014059536338
 30
0
 11
-14.49600075330142
 21
-37.14014059536338
 31
0
  0
LINE
  8
0
 62
7
 10
75.5039994076748
 20
-35.14014059536311
 30
0
 11
70.5039994076748
 21
-35.14014059536311
 31
0
  0
LINE
  8
0
 62
7
 10
75.5039994076748
 20
-37.14014059536315
 30
0
 11
83.0039993420597
 21
-37.14014059536314
 31
0
  0
LINE
  8
0
 62
7
 10
83.0039993420597
 20
-37.14014059536314
 30
0
 11
83.0039993420597
 21
-35.14014059536312
 31
0
  0
LINE
  8
0
 62
7
 10
75.5039994076748
 20
-35.14014059536311
 30
0
 11
83.0039993420597
 21
-35.14014059536312
 31
0
  0
LINE
  8
0
 62
7
 10
75.5039994076748
 20
-37.14014059536315
 30
0
 11
70.5039994076748
 21
-37.14014059536316
 31
0
  0
LINE
  8
0
 62
7
 10
-16.49600065794081
 20
-35.14014059536311
 30
0
 11
-16.49600065794081
 21
-37.14014059536338
 31
0
  0
LINE
  8
0
 62
7
 10
-16.49600065794081
 20
-35.14014059536311
 30
0
 11
-23.99600059232571
 21
-35.14014059536311
 31
0
  0
LINE
  8
0
 62
7
 10
-16.49600065794081
 20
-37.14014059536338
 30
0
 11
-23.99600059232571
 21
-37.14014059536341
 31
0
  0
LINE
  8
0
 62
7
 10
12.60399927294458
 20
-5.140156355018377
 30
0
 11
12.60399927294458
 21
-3.140129355674482
 31
0
  0
LINE
  8
0
 62
7
 10
12.60399927294458
 20
-3.140129355674482
 30
0
 11
12.60399927294458
 21
3.445645842263822
 31
0
  0
LINE
  8
0
 62
7
 10
6.603999273102488
 20
-6.140156355018391
 30
0
 11
11.60399927294458
 21
-6.140156355018377
 31
0
  0
LINE
  8
0
 62
7
 10
12.3111060541311
 20
4.152752623450361
 30
0
 11
-13.10310651763803
 21
29.56696519521944
 31
0
  0
LINE
  8
0
 62
7
 10
-20.35336005781232
 20
29.85985841403281
 30
0
 11
-13.81021329882461
 21
29.85985841403281
 31
0
  0
LINE
  8
0
 62
7
 10
-35.4953921241152
 20
24.35987064432518
 30
0
 11
-35.4953921241152
 21
31.35987064432456
 31
0
  0
LINE
  8
0
 62
7
 10
-45.49539112676303
 20
-34.14014059536345
 30
0
 11
-45.49539112676303
 21
-30.51943338823966
 31
0
  0
LINE
  8
0
 62
7
 10
-35.49539212411531
 20
-14.10521982588382
 30
0
 11
-35.4953921241152
 21
-10.84012935567546
 31
0
  0
LINE
  8
0
 62
7
 10
-20.35336005781232
 20
-15.14014059536075
 30
0
 11
-21.06046772361981
 21
-15.14014059536083
 31
0
  0
LINE
  8
0
 62
7
 10
-21.78889487948351
 20
-15.14014059536116
 30
0
 11
-21.06046772361981
 21
-15.14014059536083
 31
0
  0
LINE
  8
0
 62
7
 10
-17.4960007270559
 20
-15.14014059536042
 30
0
 11
-20.35336005781232
 21
-15.14014059536075
 31
0
  0
LINE
  8
0
 62
7
 10
-21.78889487948351
 20
-15.14014059536116
 30
0
 11
-22.47468042761801
 21
-15.14014059536103
 31
0
  0
LINE
  8
0
 62
7
 10
-22.47468042761801
 20
-15.14014059536103
 30
0
 11
-23.20310752124672
 21
-15.14014059536112
 31
0
  0
LINE
  8
0
 62
7
 10
-23.20310752124672
 20
-15.14014059536112
 30
0
 11
-23.91021519679711
 21
-15.14014059536116
 31
0
  0
LINE
  8
0
 62
7
 10
-42.49539117050662
 20
97.89478017412819
 30
0
 11
-43.49539211536572
 21
97.89478017411625
 31
0
  0
LINE
  8
0
 62
7
 10
-45.49539119675262
 20
97.89478017412819
 30
0
 11
-45.49539137767741
 21
84.6796757977199
 31
0
  0
LINE
  8
0
 62
7
 10
-42.49539117050662
 20
-15.10521982588381
 30
0
 11
-41.39600160007961
 21
-15.10521982588381
 31
0
  0
LINE
  8
0
 62
7
 10
-40.89600074367752
 20
-15.14014059536314
 30
0
 11
-41.3960016020477
 21
-15.14014059536319
 31
0
  0
LINE
  8
0
 62
7
 10
-41.3960016020477
 20
-15.14014059536319
 30
0
 11
-43.39600076554922
 21
-15.14014059536342
 31
0
  0
LINE
  8
0
 62
7
 10
-45.49539137767741
 20
74.67967579772
 30
0
 11
-45.49539137767741
 21
21.04006549093063
 31
0
  0
LINE
  8
0
 62
7
 10
-45.49539137767741
 20
11.04006549093073
 30
0
 11
-45.49539120550131
 21
-15.10521982588381
 31
0
  0
LINE
  8
0
 62
7
 10
-42.49539117050662
 20
-15.10521982588381
 30
0
 11
-43.39600076554922
 21
-15.10521982588381
 31
0
  0
LINE
  8
0
 62
7
 10
-43.49539120550082
 20
-15.10521982588381
 30
0
 11
-45.49539120550131
 21
-15.10521982588381
 31
0
  0
LINE
  8
0
 62
7
 10
-43.39600076554922
 20
-15.10521982588381
 30
0
 11
-43.49539120550082
 21
-15.10521982588381
 31
0
  0
LINE
  8
0
 62
7
 10
-43.39600076554922
 20
-15.10521982588381
 30
0
 11
-43.39600076554922
 21
-15.14014059536342
 31
0
  0
LINE
  8
0
 62
7
 10
-43.49539211536572
 20
97.89478017411625
 30
0
 11
-45.49539119675262
 21
97.89478017412819
 31
0
  0
LINE
  8
0
 62
7
 10
-35.4953921241152
 20
16.58854331070864
 30
0
 11
-35.4953921241152
 21
19.13119797794235
 31
0
  0
LINE
  8
0
 62
7
 10
-35.4953921241152
 20
19.13119797794235
 30
0
 11
-35.4953921241152
 21
24.35987064432518
 31
0
  0
LINE
  8
0
 62
7
 10
-35.4953921241152
 20
-10.84012935567546
 30
0
 11
-35.4953921241152
 21
16.58854331070864
 31
0
  0
LINE
  8
0
 62
7
 10
-40.39600089127941
 20
-15.10521982588381
 30
0
 11
-36.49539212411531
 21
-15.10521982588381
 31
0
  0
LINE
  8
0
 62
7
 10
-23.91021519679711
 20
-15.14014059536116
 30
0
 11
-40.39600089139123
 21
-15.14014059536311
 31
0
  0
LINE
  8
0
 62
7
 10
-40.39600089139123
 20
-15.14014059536311
 30
0
 11
-40.89600074367752
 21
-15.14014059536314
 31
0
  0
LINE
  8
0
 62
7
 10
-41.39600160007961
 20
-15.10521982588381
 30
0
 11
-40.39600089127941
 21
-15.10521982588381
 31
0
  0
LINE
  8
0
 62
7
 10
64.75399914958899
 20
-34.14014059536324
 30
0
 11
61.00399927294518
 21
-34.14014059536319
 31
0
  0
LINE
  8
0
 62
7
 10
64.75399914958899
 20
-34.14014059536324
 30
0
 11
69.75399914958848
 21
-35.14014059536314
 31
0
  0
LINE
  8
0
 62
7
 10
70.5039994076748
 20
-35.14014059536311
 30
0
 11
69.75399914958848
 21
-35.14014059536314
 31
0
  0
LINE
  8
0
 62
7
 10
63.00399925019858
 20
-35.14014059536311
 30
0
 11
61.08748410770789
 21
-35.14014059536312
 31
0
  0
LINE
  8
0
 62
7
 10
69.75399914958848
 20
-35.14014059536314
 30
0
 11
63.00399925019858
 21
-35.14014059536311
 31
0
  0
LINE
  8
0
 62
7
 10
63.00399925019858
 20
-37.14014059536318
 30
0
 11
61.08748410770798
 21
-37.14014059536319
 31
0
  0
LINE
  8
0
 62
7
 10
63.00399925019858
 20
-35.14014059536311
 30
0
 11
63.00399925019858
 21
-37.14014059536318
 31
0
  0
LINE
  8
0
 62
7
 10
70.5039994076748
 20
-37.14014059536316
 30
0
 11
63.00399925019858
 21
-37.14014059536318
 31
0
  0
LINE
  8
0
 62
7
 10
-13.49600075330142
 20
-37.14014059536338
 30
0
 11
61.08748410770798
 21
-37.14014059536319
 31
0
  0
LINE
  8
0
 62
7
 10
-40.3960007890129
 20
97.89478017411605
 30
0
 11
-42.49539117050662
 21
97.89478017412819
 31
0
  0
LINE
  8
0
 62
7
 10
-35.4953921241152
 20
96.05987064432455
 30
0
 11
-35.4953921241152
 21
96.89478017411625
 31
0
  0
LINE
  8
0
 62
7
 10
-36.49539212411531
 20
97.89478017411609
 30
0
 11
-40.3960007890129
 21
97.89478017411605
 31
0
  0
LINE
  8
0
 62
7
 10
60.71110605413168
 20
-27.84726313620483
 30
0
 11
51.2968924917586
 21
-18.43304957383171
 31
0
  0
LINE
  8
0
 62
7
 10
50.58978571057199
 20
-18.14015635501829
 30
0
 11
28.38365578292428
 21
-18.14015635501832
 31
0
  0
LINE
  8
0
 62
7
 10
61.00399927294518
 20
-28.55436991739137
 30
0
 11
61.00399927294518
 21
-34.14014059536319
 31
0
  0
LINE
  8
0
 62
7
 10
-35.4953921241152
 20
76.58854331070869
 30
0
 11
-35.4953921241152
 21
79.13119797794225
 31
0
  0
LINE
  8
0
 62
7
 10
-35.4953921241152
 20
71.35987064432456
 30
0
 11
-35.4953921241152
 21
76.58854331070869
 31
0
  0
LINE
  8
0
 62
7
 10
-35.4953921241152
 20
91.05987064432463
 30
0
 11
-35.4953921241152
 21
96.05987064432455
 31
0
  0
LINE
  8
0
 62
7
 10
-35.4953921241152
 20
64.35987064432456
 30
0
 11
-35.4953921241152
 21
71.35987064432456
 31
0
  0
LINE
  8
0
 62
7
 10
-35.4953921241152
 20
79.13119797794225
 30
0
 11
-35.4953921241152
 21
83.85987064432456
 31
0
  0
LINE
  8
0
 62
7
 10
-35.4953921241152
 20
83.85987064432456
 30
0
 11
-35.4953921241152
 21
91.05987064432463
 31
0
  0
LINE
  8
0
 62
7
 10
-35.4953921241152
 20
41.85987064432318
 30
0
 11
-35.4953921241152
 21
53.85987064432317
 31
0
  0
LINE
  8
0
 62
7
 10
-35.4953921241152
 20
53.85987064432317
 30
0
 11
-35.4953921241152
 21
64.35987064432456
 31
0
  0
LINE
  8
0
 62
7
 10
-35.4953921241152
 20
31.35987064432456
 30
0
 11
-35.4953921241152
 21
32.69818044986268
 31
0
  0
LINE
  8
0
 62
7
 10
-35.4953921241152
 20
32.69818044986268
 30
0
 11
-35.4953921241152
 21
41.85987064432318
 31
0
  0
LINE
  8
0
 62
7
 10
-204.1348947765201
 20
210.1546086122208
 30
0
 11
-201.8254936997616
 21
210.154608632425
 31
0
  0
LINE
  8
0
 62
7
 10
-201.8254936997616
 20
210.154608632425
 30
0
 11
-199.3551942206429
 21
210.1546086540364
 31
0
  0
LINE
  8
0
 62
7
 10
-200.696694284509
 20
217.4546086423006
 30
0
 11
-205.263694284509
 21
217.4546086023453
 31
0
  0
LINE
  8
0
 62
7
 10
-205.263694284509
 20
217.4546086023453
 30
0
 11
-207.9801942845089
 21
217.4546085785794
 31
0
  0
LINE
  8
0
 62
7
 10
-206.6051942206435
 20
210.1546085906089
 30
0
 11
-204.1348947765201
 21
210.1546086122208
 31
0
  0
LINE
  8
0
 62
7
 10
-207.9801942744479
 20
216.3046085785795
 30
0
 11
-207.9801942845089
 21
217.4546085785794
 31
0
  0
LINE
  8
0
 62
7
 10
-198.7301942744479
 20
216.304608659505
 30
0
 11
-207.2301942744479
 21
216.304608585141
 31
0
  0
LINE
  8
0
 62
7
 10
-207.2301942261113
 20
210.779608585141
 30
0
 11
-207.2301942744479
 21
216.304608585141
 31
0
  0
LINE
  8
0
 62
7
 10
-198.7301942261114
 20
210.7796086595049
 30
0
 11
-207.2301942261113
 21
210.779608585141
 31
0
  0
LINE
  8
0
 62
7
 10
-198.7301942261114
 20
210.7796086595049
 30
0
 11
-198.7301942744479
 21
216.304608659505
 31
0
  0
LINE
  8
0
 62
7
 10
-207.2301942744479
 20
216.304608585141
 30
0
 11
-207.9801942744479
 21
216.3046085785795
 31
0
  0
LINE
  8
0
 62
7
 10
-197.980194274448
 20
216.3046086660665
 30
0
 11
-198.7301942744479
 21
216.304608659505
 31
0
  0
LINE
  8
0
 62
7
 10
-197.980194274448
 20
216.3046086660665
 30
0
 11
-197.9801942845089
 21
217.4546086660664
 31
0
  0
LINE
  8
0
 62
7
 10
-197.9801942845089
 20
217.4546086660664
 30
0
 11
-200.696694284509
 21
217.4546086423006
 31
0
  0
LINE
  8
0
 62
7
 10
-199.3551942206429
 20
210.1546086540364
 30
0
 11
-198.7301942261114
 21
210.7796086595049
 31
0
  0
LINE
  8
0
 62
7
 10
-206.6051942206435
 20
210.1546085906089
 30
0
 11
-207.2301942261113
 21
210.779608585141
 31
0
  0
LINE
  8
0
 62
7
 10
-264.3363045912951
 20
217.4546080855385
 30
0
 11
-268.9033045912951
 21
217.4546080455833
 31
0
  0
LINE
  8
0
 62
7
 10
-268.9033045912951
 20
217.4546080455833
 30
0
 11
-271.619804591295
 21
217.4546080218175
 31
0
  0
LINE
  8
0
 62
7
 10
-265.4651040065478
 20
210.154608075663
 30
0
 11
-262.9948045274292
 21
210.1546080972743
 31
0
  0
LINE
  8
0
 62
7
 10
-267.7745050833064
 20
210.1546080554588
 30
0
 11
-265.4651040065478
 21
210.154608075663
 31
0
  0
LINE
  8
0
 62
7
 10
-270.2448045274298
 20
210.154608033847
 30
0
 11
-267.7745050833064
 21
210.1546080554588
 31
0
  0
LINE
  8
0
 62
7
 10
-271.619804581234
 20
216.3046080218176
 30
0
 11
-271.619804591295
 21
217.4546080218175
 31
0
  0
LINE
  8
0
 62
7
 10
-262.369804581234
 20
216.3046081027428
 30
0
 11
-270.869804581234
 21
216.3046080283791
 31
0
  0
LINE
  8
0
 62
7
 10
-270.8698045328976
 20
210.779608028379
 30
0
 11
-270.869804581234
 21
216.3046080283791
 31
0
  0
LINE
  8
0
 62
7
 10
-262.3698045328977
 20
210.7796081027427
 30
0
 11
-270.8698045328976
 21
210.779608028379
 31
0
  0
LINE
  8
0
 62
7
 10
-262.3698045328977
 20
210.7796081027427
 30
0
 11
-262.369804581234
 21
216.3046081027428
 31
0
  0
LINE
  8
0
 62
7
 10
-270.869804581234
 20
216.3046080283791
 30
0
 11
-271.619804581234
 21
216.3046080218176
 31
0
  0
LINE
  8
0
 62
7
 10
-261.6198045812341
 20
216.3046081093044
 30
0
 11
-262.369804581234
 21
216.3046081027428
 31
0
  0
LINE
  8
0
 62
7
 10
-261.6198045812341
 20
216.3046081093044
 30
0
 11
-261.619804591295
 21
217.4546081093043
 31
0
  0
LINE
  8
0
 62
7
 10
-262.9948045274292
 20
210.1546080972743
 30
0
 11
-262.3698045328977
 21
210.7796081027427
 31
0
  0
LINE
  8
0
 62
7
 10
-270.2448045274298
 20
210.154608033847
 30
0
 11
-270.8698045328976
 21
210.779608028379
 31
0
  0
LINE
  8
0
 62
7
 10
-228.966616971742
 20
208.9539988508336
 30
0
 11
-228.7999942366826
 21
208.9539988522913
 31
0
  0
LINE
  8
0
 62
7
 10
-240.456848486175
 20
208.9539987503093
 30
0
 11
-240.0855370386014
 21
208.9539987535577
 31
0
  0
LINE
  8
0
 62
7
 10
-240.6333700799005
 20
208.9539987487648
 30
0
 11
-240.456848486175
 21
208.9539987503093
 31
0
  0
LINE
  8
0
 62
7
 10
-232.9615166055978
 20
208.9539988158835
 30
0
 11
-230.5286915643715
 21
208.9539988371676
 31
0
  0
LINE
  8
0
 62
7
 10
-239.4778309821278
 20
199.6539987588745
 30
0
 11
-239.5499941553198
 21
199.6539987582431
 31
0
  0
LINE
  8
0
 62
7
 10
-238.8701243667609
 20
199.6539987641911
 30
0
 11
-238.8701243431395
 21
196.9539987641911
 31
0
  0
LINE
  8
0
 62
7
 10
-238.8701243667609
 20
199.6539987641911
 30
0
 11
-239.4778309821278
 21
199.6539987588745
 31
0
  0
LINE
  8
0
 62
7
 10
-239.5499941553198
 20
199.6539987582431
 30
0
 11
-240.0855369572387
 21
199.6539987535578
 31
0
  0
LINE
  8
0
 62
7
 10
-240.0855369572387
 20
199.6539987535578
 30
0
 11
-240.0855369336173
 21
196.9539987535578
 31
0
  0
LINE
  8
0
 62
7
 10
-238.8701243431395
 20
196.9539987641911
 30
0
 11
-240.0855369336173
 21
196.9539987535578
 31
0
  0
LINE
  8
0
 62
7
 10
-237.4216410909045
 20
199.6539987768634
 30
0
 11
-238.8701243667609
 21
199.6539987641911
 31
0
  0
LINE
  8
0
 62
7
 10
-237.4216410672831
 20
196.9539987768634
 30
0
 11
-238.8701243431395
 21
196.9539987641911
 31
0
  0
LINE
  8
0
 62
7
 10
-239.5499941666931
 20
200.9539987582431
 30
0
 11
-239.5499941553198
 21
199.6539987582431
 31
0
  0
LINE
  8
0
 62
7
 10
-239.4778309935011
 20
200.9539987588744
 30
0
 11
-239.5499941666931
 21
200.9539987582431
 31
0
  0
LINE
  8
0
 62
7
 10
-239.5499941666931
 20
200.9539987582431
 30
0
 11
-240.085536968612
 21
200.9539987535578
 31
0
  0
LINE
  8
0
 62
7
 10
-239.5499941850653
 20
203.0539987582431
 30
0
 11
-240.0855369869842
 21
203.0539987535578
 31
0
  0
LINE
  8
0
 62
7
 10
-239.4778310118733
 20
203.0539987588745
 30
0
 11
-239.5499941850653
 21
203.0539987582431
 31
0
  0
LINE
  8
0
 62
7
 10
-238.8701243965064
 20
203.0539987641931
 30
0
 11
-239.4778310118733
 21
203.0539987588745
 31
0
  0
LINE
  8
0
 62
7
 10
-237.42164112065
 20
203.0539987768634
 30
0
 11
-238.8701243965064
 21
203.0539987641931
 31
0
  0
LINE
  8
0
 62
7
 10
-239.4778310232466
 20
204.3539987588744
 30
0
 11
-239.5499941964386
 21
204.3539987582431
 31
0
  0
LINE
  8
0
 62
7
 10
-239.5499941964386
 20
204.3539987582431
 30
0
 11
-240.0855369983575
 21
204.3539987535578
 31
0
  0
LINE
  8
0
 62
7
 10
-240.7999942366826
 20
208.9539987473072
 30
0
 11
-240.6333700799005
 21
208.9539987487648
 31
0
  0
LINE
  8
0
 62
7
 10
-240.0855370386014
 20
208.9539987535577
 30
0
 11
-238.8701244481236
 21
208.9539987641911
 31
0
  0
LINE
  8
0
 62
7
 10
-238.8701244481236
 20
208.9539987641911
 30
0
 11
-237.4216411722672
 21
208.9539987768634
 31
0
  0
LINE
  8
0
 62
7
 10
-237.4216411722672
 20
208.9539987768634
 30
0
 11
-236.0925020617409
 21
208.9539987884916
 31
0
  0
LINE
  8
0
 62
7
 10
-236.0925020617409
 20
208.9539987884916
 30
0
 11
-235.9446298232881
 21
208.9539987897852
 31
0
  0
LINE
  8
0
 62
7
 10
-235.9446298232881
 20
208.9539987897852
 30
0
 11
-235.9446298477844
 21
211.7539987897853
 31
0
  0
LINE
  8
0
 62
7
 10
-240.7999942366826
 20
208.9539987473072
 30
0
 11
-240.7999942629286
 21
211.9539987473073
 31
0
  0
LINE
  8
0
 62
7
 10
-237.4216411722672
 20
208.9539987768634
 30
0
 11
-237.4216411320233
 21
204.3539987768634
 31
0
  0
LINE
  8
0
 62
7
 10
-237.4216411320233
 20
204.3539987768634
 30
0
 11
-238.8701244078796
 21
204.3539987641931
 31
0
  0
LINE
  8
0
 62
7
 10
-238.8701244481236
 20
208.9539987641911
 30
0
 11
-238.8701244078796
 21
204.3539987641931
 31
0
  0
LINE
  8
0
 62
7
 10
-238.8701244078796
 20
204.3539987641931
 30
0
 11
-239.4778310232466
 21
204.3539987588744
 31
0
  0
LINE
  8
0
 62
7
 10
-240.0855370386014
 20
208.9539987535577
 30
0
 11
-240.0855369983575
 21
204.3539987535578
 31
0
  0
LINE
  8
0
 62
7
 10
-239.5499941964386
 20
204.3539987582431
 30
0
 11
-239.5499941850653
 21
203.0539987582431
 31
0
  0
LINE
  8
0
 62
7
 10
-238.8701243965064
 20
203.0539987641931
 30
0
 11
-238.8701243781342
 21
200.9539987641931
 31
0
  0
LINE
  8
0
 62
7
 10
-238.8701243781342
 20
200.9539987641931
 30
0
 11
-239.4778309935011
 21
200.9539987588744
 31
0
  0
LINE
  8
0
 62
7
 10
-240.0855369869842
 20
203.0539987535578
 30
0
 11
-240.085536968612
 21
200.9539987535578
 31
0
  0
LINE
  8
0
 62
7
 10
-229.5144511800952
 20
199.6539988460409
 30
0
 11
-230.0499941553198
 21
199.6539988413555
 31
0
  0
LINE
  8
0
 62
7
 10
-230.5286914830088
 20
199.6539988371676
 30
0
 11
-230.5286914593874
 21
196.9539988371676
 31
0
  0
LINE
  8
0
 62
7
 10
-229.5144511564737
 20
196.9539988460429
 30
0
 11
-230.5286914593874
 21
196.9539988371676
 31
0
  0
LINE
  8
0
 62
7
 10
-229.5144511800952
 20
199.6539988460409
 30
0
 11
-229.5144511564737
 21
196.9539988460429
 31
0
  0
LINE
  8
0
 62
7
 10
-230.0499941553198
 20
199.6539988413555
 30
0
 11
-230.5286914830088
 21
199.6539988371676
 31
0
  0
LINE
  8
0
 62
7
 10
-229.5144511914685
 20
200.9539988460429
 30
0
 11
-230.0499941666931
 21
200.9539988413555
 31
0
  0
LINE
  8
0
 62
7
 10
-229.5144512098407
 20
203.0539988460409
 30
0
 11
-230.0499941850653
 21
203.0539988413556
 31
0
  0
LINE
  8
0
 62
7
 10
-230.0499941850653
 20
203.0539988413556
 30
0
 11
-230.5286915127543
 21
203.0539988371696
 31
0
  0
LINE
  8
0
 62
7
 10
-229.5144512098407
 20
203.0539988460409
 30
0
 11
-229.5144511914685
 21
200.9539988460429
 31
0
  0
LINE
  8
0
 62
7
 10
-230.5286915643715
 20
208.9539988371676
 30
0
 11
-230.5286915241276
 21
204.3539988371696
 31
0
  0
LINE
  8
0
 62
7
 10
-229.514451221214
 20
204.3539988460428
 30
0
 11
-230.0499941964386
 21
204.3539988413556
 31
0
  0
LINE
  8
0
 62
7
 10
-230.0499941964386
 20
204.3539988413556
 30
0
 11
-230.0499941850653
 21
203.0539988413556
 31
0
  0
LINE
  8
0
 62
7
 10
-230.0499941666931
 20
200.9539988413555
 30
0
 11
-230.0499941553198
 21
199.6539988413555
 31
0
  0
LINE
  8
0
 62
7
 10
-230.5286915241276
 20
204.3539988371696
 30
0
 11
-233.7301066287379
 21
204.3539988091595
 31
0
  0
LINE
  8
0
 62
7
 10
-230.5286915127543
 20
203.0539988371696
 30
0
 11
-233.7289634028944
 21
203.0539988091695
 31
0
  0
LINE
  8
0
 62
7
 10
-230.5286915127543
 20
203.0539988371696
 30
0
 11
-230.5286914943821
 21
200.9539988371696
 31
0
  0
LINE
  8
0
 62
7
 10
-230.5286914943821
 20
200.9539988371696
 30
0
 11
-233.7301065989924
 21
200.9539988091595
 31
0
  0
LINE
  8
0
 62
7
 10
-233.7289633731489
 20
199.6539988091695
 30
0
 11
-233.7289633495275
 21
196.9539988091695
 31
0
  0
LINE
  8
0
 62
7
 10
-230.5286914593874
 20
196.9539988371676
 30
0
 11
-233.7289633495275
 21
196.9539988091695
 31
0
  0
LINE
  8
0
 62
7
 10
-230.5286914830088
 20
199.6539988371676
 30
0
 11
-233.7289633731489
 21
199.6539988091695
 31
0
  0
LINE
  8
0
 62
7
 10
-233.7289633495275
 20
196.9539988091695
 30
0
 11
-233.9373411627278
 21
196.9539988073464
 31
0
  0
LINE
  8
0
 62
7
 10
-233.7301065989924
 20
200.9539988091595
 30
0
 11
-233.7289633731489
 21
199.6539988091695
 31
0
  0
LINE
  8
0
 62
7
 10
-233.7289634028944
 20
203.0539988091695
 30
0
 11
-233.7301065989924
 21
200.9539988091595
 31
0
  0
LINE
  8
0
 62
7
 10
-233.7301066287379
 20
204.3539988091595
 30
0
 11
-233.7289634028944
 21
203.0539988091695
 31
0
  0
LINE
  8
0
 62
7
 10
-233.7289634545116
 20
208.9539988091694
 30
0
 11
-233.7301066287379
 21
204.3539988091595
 31
0
  0
LINE
  8
0
 62
7
 10
-233.7289634545116
 20
208.9539988091694
 30
0
 11
-233.5128080429034
 21
208.9539988110604
 31
0
  0
LINE
  8
0
 62
7
 10
-230.0499941964386
 20
204.3539988413556
 30
0
 11
-230.5286915241276
 21
204.3539988371696
 31
0
  0
LINE
  8
0
 62
7
 10
-229.5144512614579
 20
208.9539988460408
 30
0
 11
-229.514451221214
 21
204.3539988460428
 31
0
  0
LINE
  8
0
 62
7
 10
-230.0499941666931
 20
200.9539988413555
 30
0
 11
-230.5286914943821
 21
200.9539988371696
 31
0
  0
LINE
  8
0
 62
7
 10
-237.42164112065
 20
203.0539987768634
 30
0
 11
-237.4216411022778
 21
200.9539987768634
 31
0
  0
LINE
  8
0
 62
7
 10
-236.1818329332081
 20
203.0539987877101
 30
0
 11
-237.42164112065
 21
203.0539987768634
 31
0
  0
LINE
  8
0
 62
7
 10
-236.1818329148358
 20
200.9539987877101
 30
0
 11
-237.4216411022778
 21
200.9539987768634
 31
0
  0
LINE
  8
0
 62
7
 10
-236.0925019917515
 20
200.9539987884916
 30
0
 11
-236.1818329148358
 21
200.9539987877101
 31
0
  0
LINE
  8
0
 62
7
 10
-236.1818329148358
 20
200.9539987877101
 30
0
 11
-236.1818329034626
 21
199.6539987877101
 31
0
  0
LINE
  8
0
 62
7
 10
-236.0925020101237
 20
203.0539987884916
 30
0
 11
-236.1818329332081
 21
203.0539987877101
 31
0
  0
LINE
  8
0
 62
7
 10
-236.0925019917515
 20
200.9539987884916
 30
0
 11
-236.0925020101237
 21
203.0539987884916
 31
0
  0
LINE
  8
0
 62
7
 10
-236.092502021497
 20
204.3539987884917
 30
0
 11
-236.1818329445813
 21
204.3539987877101
 31
0
  0
LINE
  8
0
 62
7
 10
-236.1818329445813
 20
204.3539987877101
 30
0
 11
-236.1818329332081
 21
203.0539987877101
 31
0
  0
LINE
  8
0
 62
7
 10
-236.092502021497
 20
204.3539987884917
 30
0
 11
-236.0925020617409
 21
208.9539987884916
 31
0
  0
LINE
  8
0
 62
7
 10
-236.0925019803782
 20
199.6539987884916
 30
0
 11
-236.1818329034626
 21
199.6539987877101
 31
0
  0
LINE
  8
0
 62
7
 10
-236.1818329034626
 20
199.6539987877101
 30
0
 11
-237.4216410909045
 21
199.6539987768634
 31
0
  0
LINE
  8
0
 62
7
 10
-236.0925019567568
 20
196.9539987884916
 30
0
 11
-236.3008797699571
 21
196.9539987866686
 31
0
  0
LINE
  8
0
 62
7
 10
-237.4216410909045
 20
199.6539987768634
 30
0
 11
-237.4216410672831
 21
196.9539987768634
 31
0
  0
LINE
  8
0
 62
7
 10
-236.3008797699571
 20
196.9539987866686
 30
0
 11
-237.4216410672831
 21
196.9539987768634
 31
0
  0
LINE
  8
0
 62
7
 10
-236.0925019567568
 20
196.9539987884916
 30
0
 11
-236.0925019803782
 21
199.6539987884916
 31
0
  0
LINE
  8
0
 62
7
 10
-233.9373411627278
 20
196.9539988073464
 30
0
 11
-236.0925019567568
 21
196.9539987884916
 31
0
  0
LINE
  8
0
 62
7
 10
-233.9373411627278
 20
196.9539988073464
 30
0
 11
-233.9373412922082
 21
211.7539988073465
 31
0
  0
LINE
  8
0
 62
7
 10
-236.1818329445813
 20
204.3539987877101
 30
0
 11
-237.4216411320233
 21
204.3539987768634
 31
0
  0
LINE
  8
0
 62
7
 10
-237.4216411022778
 20
200.9539987768634
 30
0
 11
-238.8701243781342
 21
200.9539987641931
 31
0
  0
LINE
  8
0
 62
7
 10
-228.7999942366826
 20
208.9539988522913
 30
0
 11
-228.7999942629286
 21
211.9539988522914
 31
0
  0
LINE
  8
0
 62
7
 10
-233.5128080429034
 20
208.9539988110604
 30
0
 11
-232.9615166055978
 21
208.9539988158835
 31
0
  0
LINE
  8
0
 62
7
 10
-230.5286915643715
 20
208.9539988371676
 30
0
 11
-229.5144512614579
 21
208.9539988460408
 31
0
  0
LINE
  8
0
 62
7
 10
-229.5144512614579
 20
208.9539988460408
 30
0
 11
-228.966616971742
 21
208.9539988508336
 31
0
  0
LINE
  8
0
 62
7
 10
-233.5128080429034
 20
208.9539988110604
 30
0
 11
-233.5098116553613
 21
211.7539988110868
 31
0
  0
LINE
  8
0
 62
7
 10
-249.1832240358887
 20
222.5539986739651
 30
0
 11
-246.7999994825129
 21
222.5539986948152
 31
0
  0
LINE
  8
0
 62
7
 10
-246.7999994825129
 20
222.5539986948152
 30
0
 11
-245.5471942701549
 21
222.5539987057755
 31
0
  0
LINE
  8
0
 62
7
 10
-222.0180143653786
 20
222.5539989116247
 30
0
 11
-218.3819845996448
 21
222.5539989434352
 31
0
  0
LINE
  8
0
 62
7
 10
-281.7999995962464
 20
235.553998388611
 30
0
 11
-283.7999995962464
 21
235.5539983711137
 31
0
  0
LINE
  8
0
 62
7
 10
-187.7999995962464
 20
235.5539992109875
 30
0
 11
-281.7999995962464
 21
235.553998388611
 31
0
  0
LINE
  8
0
 62
7
 10
-286.7999997699238
 20
255.4057095912779
 30
0
 11
-286.7999997641827
 21
254.750150767577
 31
0
  0
LINE
  8
0
 62
7
 10
-286.7999997641827
 20
254.750150767577
 30
0
 11
-286.7999996767006
 21
244.7501507675742
 31
0
  0
LINE
  8
0
 62
7
 10
-286.7999996067111
 20
236.7501507675742
 30
0
 11
-286.7999996767006
 21
244.7501507675742
 31
0
  0
LINE
  8
0
 62
7
 10
-272.1198046271592
 20
221.5539984733005
 30
0
 11
-266.6198046271592
 21
221.5539985214182
 31
0
  0
LINE
  8
0
 62
7
 10
-266.6198046271592
 20
221.5539985214182
 30
0
 11
-261.1198046271592
 21
221.5539985695359
 31
0
  0
LINE
  8
0
 62
7
 10
-261.1198046271592
 20
221.5539985695359
 30
0
 11
-260.1198046359078
 21
222.5539985782846
 31
0
  0
LINE
  8
0
 62
7
 10
-272.1198046271592
 20
221.5539984733005
 30
0
 11
-273.1198046359078
 21
222.5539984645518
 31
0
  0
LINE
  8
0
 62
7
 10
-289.7999998416454
 20
263.6039983186222
 30
0
 11
-288.8999998416467
 21
263.603998326496
 31
0
  0
LINE
  8
0
 62
7
 10
-286.8999998416466
 20
263.6039983439933
 30
0
 11
-286.7999998416455
 21
263.6039983448682
 31
0
  0
LINE
  8
0
 62
7
 10
-289.7999998937002
 20
269.5539983186221
 30
0
 11
-289.7999998416454
 21
263.6039983186222
 31
0
  0
LINE
  8
0
 62
7
 10
-286.7999999759646
 20
278.9570524872208
 30
0
 11
-286.7999999076003
 21
271.1432516144078
 31
0
  0
LINE
  8
0
 62
7
 10
-289.7999998937002
 20
269.5539983186221
 30
0
 11
-289.7999999374461
 21
274.5539983186221
 31
0
  0
LINE
  8
0
 62
7
 10
-289.7999999894981
 20
280.5039983186222
 30
0
 11
-286.7999999894982
 21
280.5039983448682
 31
0
  0
LINE
  8
0
 62
7
 10
-289.7999999894981
 20
280.5039983186222
 30
0
 11
-289.7999999374461
 21
274.5539983186221
 31
0
  0
LINE
  8
0
 62
7
 10
-286.7999998416455
 20
263.6039983448682
 30
0
 11
-286.7999998641745
 21
266.1789899337441
 31
0
  0
LINE
  8
0
 62
7
 10
-290.7999998503941
 20
264.6039983098735
 30
0
 11
-289.7999998416454
 21
263.6039983186222
 31
0
  0
LINE
  8
0
 62
7
 10
-180.6999998416445
 20
263.6039992731027
 30
0
 11
-179.799999841648
 21
263.6039992809765
 31
0
  0
LINE
  8
0
 62
7
 10
-182.7999998416455
 20
263.6039992547305
 30
0
 11
-182.6999998416445
 21
263.6039992556053
 31
0
  0
LINE
  8
0
 62
7
 10
-182.7999997919242
 20
257.9210942202924
 30
0
 11
-182.799999814962
 21
260.5539992547305
 31
0
  0
LINE
  8
0
 62
7
 10
-182.7999999076003
 20
271.1432525242681
 30
0
 11
-182.7999999759646
 21
278.9570533970841
 31
0
  0
LINE
  8
0
 62
7
 10
-182.7999999759646
 20
278.9570533970841
 30
0
 11
-182.7999999847158
 21
279.9570533970841
 31
0
  0
LINE
  8
0
 62
7
 10
-179.7999998937001
 20
269.5539992809765
 30
0
 11
-179.7999999374435
 21
274.5539992809765
 31
0
  0
LINE
  8
0
 62
7
 10
-179.7999999374435
 20
274.5539992809765
 30
0
 11
-179.7999999895006
 21
280.5039992809765
 31
0
  0
LINE
  8
0
 62
7
 10
-182.7999999894982
 20
280.5039992547305
 30
0
 11
-179.7999999895006
 21
280.5039992809765
 31
0
  0
LINE
  8
0
 62
7
 10
-182.7999999847158
 20
279.9570533970841
 30
0
 11
-182.7999999894982
 21
280.5039992547305
 31
0
  0
LINE
  8
0
 62
7
 10
-182.7999998416455
 20
263.6039992547305
 30
0
 11
-182.7999998641745
 21
266.1789908436073
 31
0
  0
LINE
  8
0
 62
7
 10
-179.799999841648
 20
263.6039992809765
 30
0
 11
-179.7999998937001
 21
269.5539992809765
 31
0
  0
LINE
  8
0
 62
7
 10
-178.7999999807494
 20
279.5039992897252
 30
0
 11
-179.7999999895006
 21
280.5039992809765
 31
0
  0
LINE
  8
0
 62
7
 10
-286.799999814962
 20
260.5539983448672
 30
0
 11
-286.7999998416455
 21
263.6039983448682
 31
0
  0
LINE
  8
0
 62
7
 10
-286.7999999894982
 20
280.5039983448682
 30
0
 11
-286.7999999847158
 21
279.9570524872208
 31
0
  0
LINE
  8
0
 62
7
 10
-286.7999999076003
 20
271.1432516144078
 30
0
 11
-286.7999998937002
 21
269.5539983448672
 31
0
  0
LINE
  8
0
 62
7
 10
-197.4801943203693
 20
221.5539991262982
 30
0
 11
-196.480194329118
 21
222.5539991350469
 31
0
  0
LINE
  8
0
 62
7
 10
-184.7999995874988
 20
234.5539992372335
 30
0
 11
-184.7999995131328
 21
226.0539992372331
 31
0
  0
LINE
  8
0
 62
7
 10
-196.480194329118
 20
222.5539991350469
 30
0
 11
-192.7999994825129
 21
222.5539991672439
 31
0
  0
LINE
  8
0
 62
7
 10
-199.7999994825128
 20
222.5539991060032
 30
0
 11
-198.7999994825129
 21
222.5539991147519
 31
0
  0
LINE
  8
0
 62
7
 10
-198.7999994825129
 20
222.5539991147519
 30
0
 11
-196.480194329118
 21
222.5539991350469
 31
0
  0
LINE
  8
0
 62
7
 10
-218.3819845996448
 20
222.5539989434352
 30
0
 11
-209.480194329118
 21
222.5539990213141
 31
0
  0
LINE
  8
0
 62
7
 10
-209.480194329118
 20
222.5539990213141
 30
0
 11
-199.7999994825128
 21
222.5539991060032
 31
0
  0
LINE
  8
0
 62
7
 10
-192.7999994825129
 20
222.5539991672439
 30
0
 11
-188.7999994825124
 21
222.5539992022387
 31
0
  0
LINE
  8
0
 62
7
 10
-188.7999994825124
 20
222.5539992022387
 30
0
 11
-187.7999994825133
 21
222.5539992109875
 31
0
  0
LINE
  8
0
 62
7
 10
-184.7999995131328
 20
226.0539992372331
 30
0
 11
-184.7999995087594
 21
225.5539992372335
 31
0
  0
LINE
  8
0
 62
7
 10
-184.7999995874988
 20
234.5539992372335
 30
0
 11
-184.7999995962463
 21
235.5539992372335
 31
0
  0
LINE
  8
0
 62
7
 10
-208.4801943203693
 20
221.5539990300628
 30
0
 11
-209.480194329118
 21
222.5539990213141
 31
0
  0
LINE
  8
0
 62
7
 10
-178.7999998503967
 20
264.6039992897252
 30
0
 11
-178.7999998937027
 21
269.5539992897251
 31
0
  0
LINE
  8
0
 62
7
 10
-178.7999998503967
 20
264.6039992897252
 30
0
 11
-179.799999841648
 21
263.6039992809765
 31
0
  0
LINE
  8
0
 62
7
 10
-178.7999999374435
 20
274.5539992897251
 30
0
 11
-178.7999998937027
 21
269.5539992897251
 31
0
  0
LINE
  8
0
 62
7
 10
-178.7999999374435
 20
274.5539992897251
 30
0
 11
-178.7999999807494
 21
279.5039992897252
 31
0
  0
LINE
  8
0
 62
7
 10
-244.7999993897769
 20
211.9539987123126
 30
0
 11
-245.8378502952852
 21
217.4546082473742
 31
0
  0
LINE
  8
0
 62
7
 10
-246.2152088033486
 20
219.4546082440731
 30
0
 11
-246.7999994825129
 21
222.5539986948152
 31
0
  0
LINE
  8
0
 62
7
 10
-244.7999993897769
 20
211.9539987123126
 30
0
 11
-224.7999993897769
 21
211.9539988872861
 31
0
  0
LINE
  8
0
 62
7
 10
-185.7999995962464
 20
235.5539992284848
 30
0
 11
-182.8809331417208
 21
235.5540489422622
 31
0
  0
LINE
  8
0
 62
7
 10
-185.7999995962464
 20
235.5539992284848
 30
0
 11
-187.7999995962464
 21
235.5539992109875
 31
0
  0
LINE
  8
0
 62
7
 10
-286.7190660507728
 20
235.5540480338151
 30
0
 11
-283.7999995962464
 21
235.5539983711137
 31
0
  0
LINE
  8
0
 62
7
 10
-290.7999999374435
 20
274.5539983098735
 30
0
 11
-290.7999998937002
 21
269.5539983098735
 31
0
  0
LINE
  8
0
 62
7
 10
-290.799999980752
 20
279.5039983098735
 30
0
 11
-290.7999999374435
 21
274.5539983098735
 31
0
  0
LINE
  8
0
 62
7
 10
-290.799999980752
 20
279.5039983098735
 30
0
 11
-289.7999999894981
 21
280.5039983186222
 31
0
  0
LINE
  8
0
 62
7
 10
-290.7999998937002
 20
269.5539983098735
 30
0
 11
-290.7999998503941
 21
264.6039983098735
 31
0
  0
LINE
  8
0
 62
7
 10
-224.7999993897769
 20
211.9539988872861
 30
0
 11
-223.7621485805147
 21
217.4546084405079
 31
0
  0
LINE
  8
0
 62
7
 10
-245.5471942701549
 20
222.5539987057755
 30
0
 11
-222.7999994825129
 21
222.5539989047834
 31
0
  0
LINE
  8
0
 62
7
 10
-222.7999994825129
 20
222.5539989047834
 30
0
 11
-222.0180143653786
 21
222.5539989116247
 31
0
  0
LINE
  8
0
 62
7
 10
-223.384790107446
 20
219.4546084438096
 30
0
 11
-222.7999994825129
 21
222.5539989047834
 31
0
  0
LINE
  8
0
 62
7
 10
-284.7999995131328
 20
226.0539983623655
 30
0
 11
-284.7999995087585
 21
225.553998362365
 31
0
  0
LINE
  8
0
 62
7
 10
-284.7999995874988
 20
234.553998362365
 30
0
 11
-284.7999995131328
 21
226.0539983623655
 31
0
  0
LINE
  8
0
 62
7
 10
-284.7999995874988
 20
234.553998362365
 30
0
 11
-284.7999995962463
 21
235.553998362365
 31
0
  0
LINE
  8
0
 62
7
 10
-182.7996324094363
 20
236.7501516774406
 30
0
 11
-182.7999996767006
 21
244.7501516774374
 31
0
  0
LINE
  8
0
 62
7
 10
-182.7999997641827
 20
254.7501516774372
 30
0
 11
-182.7999997699238
 21
255.4057105011412
 31
0
  0
LINE
  8
0
 62
7
 10
-269.7999994825128
 20
222.5539984935952
 30
0
 11
-260.1198046359078
 21
222.5539985782846
 31
0
  0
LINE
  8
0
 62
7
 10
-273.1198046359078
 20
222.5539984645518
 30
0
 11
-270.7999994825129
 21
222.5539984848466
 31
0
  0
LINE
  8
0
 62
7
 10
-281.7999994825133
 20
222.553998388611
 30
0
 11
-280.7999994825124
 21
222.5539983973597
 31
0
  0
LINE
  8
0
 62
7
 10
-280.7999994825124
 20
222.5539983973597
 30
0
 11
-276.7999994825129
 21
222.5539984323545
 31
0
  0
LINE
  8
0
 62
7
 10
-276.7999994825129
 20
222.5539984323545
 30
0
 11
-273.1198046359078
 21
222.5539984645518
 31
0
  0
LINE
  8
0
 62
7
 10
-270.7999994825129
 20
222.5539984848466
 30
0
 11
-269.7999994825128
 21
222.5539984935952
 31
0
  0
LINE
  8
0
 62
7
 10
-260.1198046359078
 20
222.5539985782846
 30
0
 11
-249.1832240358887
 21
222.5539986739651
 31
0
  0
LINE
  8
0
 62
7
 10
-184.9499925548625
 20
329.0039992359209
 30
0
 11
-185.3000004138071
 21
329.0039992328588
 31
0
  0
LINE
  8
0
 62
7
 10
-184.9499925548625
 20
329.0039992359209
 30
0
 11
-184.9499925509255
 21
328.5539992359209
 31
0
  0
LINE
  8
0
 62
7
 10
-185.300000409867
 20
328.5539992328574
 30
0
 11
-184.9499925509255
 21
328.5539992359209
 31
0
  0
LINE
  8
0
 62
7
 10
-238.6500000341155
 20
285.6039987661171
 30
0
 11
-238.6500000301786
 21
285.1539987661171
 31
0
  0
LINE
  8
0
 62
7
 10
-230.9500000341155
 20
285.6039988334817
 30
0
 11
-231.4500000341155
 21
285.6039988291074
 31
0
  0
LINE
  8
0
 62
7
 10
-238.1500000341155
 20
285.6039987704914
 30
0
 11
-238.6500000341155
 21
285.6039987661171
 31
0
  0
LINE
  8
0
 62
7
 10
-231.4500000341155
 20
285.6039988291074
 30
0
 11
-238.1500000341155
 21
285.6039987704914
 31
0
  0
LINE
  8
0
 62
7
 10
-230.9500000341155
 20
285.6039988334817
 30
0
 11
-230.9500000301786
 21
285.1539988334817
 31
0
  0
LINE
  8
0
 62
7
 10
-231.4500000520503
 20
287.6539988291074
 30
0
 11
-231.4500000341155
 21
285.6039988291074
 31
0
  0
LINE
  8
0
 62
7
 10
-238.1500000520503
 20
287.6539987704914
 30
0
 11
-238.1500000341155
 21
285.6039987704914
 31
0
  0
LINE
  8
0
 62
7
 10
-233.4500000695476
 20
289.6539988116101
 30
0
 11
-236.1500000695476
 21
289.6539987879887
 31
0
  0
LINE
  8
0
 62
7
 10
-286.8000004098673
 20
328.5539983448687
 30
0
 11
-284.6499925509256
 21
328.5539983636779
 31
0
  0
LINE
  8
0
 62
7
 10
-286.8000000920814
 20
292.2300380611223
 30
0
 11
-286.8000004098673
 21
328.5539983448687
 31
0
  0
LINE
  8
0
 62
7
 10
-284.3000004098674
 20
328.5539983667403
 30
0
 11
-284.3000005321826
 21
342.5347605343371
 31
0
  0
LINE
  8
0
 62
7
 10
-284.300000088919
 20
291.868591675097
 30
0
 11
-284.3000004098674
 21
328.5539983667403
 31
0
  0
LINE
  8
0
 62
7
 10
-240.8000005472972
 20
344.2623007523031
 30
0
 11
-240.8000005434765
 21
343.8257790339351
 31
0
  0
LINE
  8
0
 62
7
 10
-270.3886371488356
 20
346.5203914691006
 30
0
 11
-269.7999180740315
 21
346.546920206522
 31
0
  0
LINE
  8
0
 62
7
 10
-279.8000005673451
 20
346.5539984061098
 30
0
 11
-270.3886371488356
 21
346.5203914691006
 31
0
  0
LINE
  8
0
 62
7
 10
-269.7999180740315
 20
346.546920206522
 30
0
 11
-269.3000005673464
 21
346.5539984979707
 31
0
  0
LINE
  8
0
 62
7
 10
-279.8000005507445
 20
344.6564893989025
 30
0
 11
-279.8000005673451
 21
346.5539984061098
 31
0
  0
LINE
  8
0
 62
7
 10
-280.8000005438958
 20
342.5347605561364
 30
0
 11
-243.3000005321835
 21
342.53476083897
 31
0
  0
LINE
  8
0
 62
7
 10
-240.800000030179
 20
285.1539987473075
 30
0
 11
-240.8000005434765
 21
343.8257790339351
 31
0
  0
LINE
  8
0
 62
7
 10
-281.7999996884171
 20
246.0898967734759
 30
0
 11
-187.7999996884171
 21
246.0898975958497
 31
0
  0
LINE
  8
0
 62
7
 10
-188.7999997566091
 20
253.8841262211602
 30
0
 11
-229.9266025842023
 21
253.8841258613576
 31
0
  0
LINE
  8
0
 62
7
 10
-239.6733969290109
 20
253.8841257760871
 30
0
 11
-280.7999997566091
 21
253.8841254162845
 31
0
  0
LINE
  8
0
 62
7
 10
-286.0708309381106
 20
240.2468186742772
 30
0
 11
-286.070830914552
 21
237.553998351247
 31
0
  0
LINE
  8
0
 62
7
 10
-183.5291683129269
 20
237.5539992483489
 30
0
 11
-183.5291683364855
 21
240.246819571379
 31
0
  0
LINE
  8
0
 62
7
 10
-286.7999997699238
 20
255.4057095912779
 30
0
 11
-286.7999997919242
 21
257.9210933104323
 31
0
  0
LINE
  8
0
 62
7
 10
-286.7999997919242
 20
257.9210933104323
 30
0
 11
-286.799999814962
 21
260.5539983448672
 31
0
  0
LINE
  8
0
 62
7
 10
-286.7999998937002
 20
269.5539983448672
 30
0
 11
-286.7999998641745
 21
266.1789899337441
 31
0
  0
LINE
  8
0
 62
7
 10
-286.8000000523302
 20
287.6858848223301
 30
0
 11
-286.7999999894982
 21
280.5039983448682
 31
0
  0
LINE
  8
0
 62
7
 10
-182.7999997699238
 20
255.4057105011412
 30
0
 11
-182.7999997919242
 21
257.9210942202924
 31
0
  0
LINE
  8
0
 62
7
 10
-182.799999814962
 20
260.5539992547305
 30
0
 11
-182.7999998416455
 21
263.6039992547305
 31
0
  0
LINE
  8
0
 62
7
 10
-182.7999998641745
 20
266.1789908436073
 30
0
 11
-182.7999998937002
 21
269.5539992547305
 31
0
  0
LINE
  8
0
 62
7
 10
-182.7999998937002
 20
269.5539992547305
 30
0
 11
-182.7999999076003
 21
271.1432525242681
 31
0
  0
LINE
  8
0
 62
7
 10
-182.7999999894982
 20
280.5039992547305
 30
0
 11
-182.8000000523302
 21
287.6858857321934
 31
0
  0
LINE
  8
0
 62
7
 10
-182.8000000920813
 20
292.2300389709828
 30
0
 11
-182.8000000523302
 21
287.6858857321934
 31
0
  0
LINE
  8
0
 62
7
 10
-254.6928378173474
 20
346.5539986257636
 30
0
 11
-254.7999805673473
 21
346.5539986248263
 31
0
  0
LINE
  8
0
 62
7
 10
-254.5142665673474
 20
346.5539986273258
 30
0
 11
-254.6928378173474
 21
346.5539986257636
 31
0
  0
LINE
  8
0
 62
7
 10
-250.7642703173473
 20
346.5539986601334
 30
0
 11
-250.9071273173474
 21
346.5539986588835
 31
0
  0
LINE
  8
0
 62
7
 10
-243.5499918173474
 20
346.5539987232487
 30
0
 11
-243.8749914923473
 21
346.5539987204054
 31
0
  0
LINE
  8
0
 62
7
 10
-243.8749914923473
 20
346.5539987204054
 30
0
 11
-244.2999910673473
 21
346.5539987166872
 31
0
  0
LINE
  8
0
 62
7
 10
-240.0142810673474
 20
346.5539987541815
 30
0
 11
-241.1214228173473
 21
346.5539987444954
 31
0
  0
LINE
  8
0
 62
7
 10
-241.1214228173473
 20
346.5539987444954
 30
0
 11
-241.6810687612496
 21
346.5539987395993
 31
0
  0
LINE
  8
0
 62
7
 10
-236.5499988173473
 20
346.5539987844893
 30
0
 11
-237.6571405673474
 21
346.5539987748033
 31
0
  0
LINE
  8
0
 62
7
 10
-235.9785708173475
 20
346.5539987894886
 30
0
 11
-236.5499988173473
 21
346.5539987844893
 31
0
  0
LINE
  8
0
 62
7
 10
-237.6571405673474
 20
346.5539987748033
 30
0
 11
-240.0142810673474
 21
346.5539987541815
 31
0
  0
LINE
  8
0
 62
7
 10
-241.6810687612496
 20
346.5539987395993
 30
0
 11
-242.4428500673475
 21
346.5539987329347
 31
0
  0
LINE
  8
0
 62
7
 10
-242.4428500673475
 20
346.5539987329347
 30
0
 11
-243.5499918173474
 21
346.5539987232487
 31
0
  0
LINE
  8
0
 62
7
 10
-244.2999910673473
 20
346.5539987166872
 30
0
 11
-245.9785608173474
 21
346.5539987020019
 31
0
  0
LINE
  8
0
 62
7
 10
-245.9785608173474
 20
346.5539987020019
 30
0
 11
-246.1214178173474
 21
346.5539987007521
 31
0
  0
LINE
  8
0
 62
7
 10
-246.1214178173474
 20
346.5539987007521
 30
0
 11
-247.3357023173475
 21
346.5539986901288
 31
0
  0
LINE
  8
0
 62
7
 10
-248.6600274273453
 20
346.5539986785427
 30
0
 11
-248.7247516629629
 21
346.5539986779764
 31
0
  0
LINE
  8
0
 62
7
 10
-247.3357023173475
 20
346.5539986901288
 30
0
 11
-248.6600274273453
 21
346.5539986785427
 31
0
  0
LINE
  8
0
 62
7
 10
-248.7247516629629
 20
346.5539986779764
 30
0
 11
-249.4071288173474
 21
346.5539986720065
 31
0
  0
LINE
  8
0
 62
7
 10
-249.4071288173474
 20
346.5539986720065
 30
0
 11
-250.7642703173473
 21
346.5539986601334
 31
0
  0
LINE
  8
0
 62
7
 10
-250.9071273173474
 20
346.5539986588835
 30
0
 11
-251.1214128173475
 21
346.5539986570088
 31
0
  0
LINE
  8
0
 62
7
 10
-251.1214128173475
 20
346.5539986570088
 30
0
 11
-252.3356973173474
 21
346.5539986463855
 31
0
  0
LINE
  8
0
 62
7
 10
-252.3356973173474
 20
346.5539986463855
 30
0
 11
-254.5142665673474
 21
346.5539986273258
 31
0
  0
LINE
  8
0
 62
7
 10
-254.7999805673473
 20
346.5539986248263
 30
0
 11
-264.8000005673474
 21
346.5539985373396
 31
0
  0
LINE
  8
0
 62
7
 10
-235.5535712423475
 20
346.5539987932067
 30
0
 11
-235.9785708173475
 21
346.5539987894886
 31
0
  0
LINE
  8
0
 62
7
 10
-264.8000005673474
 20
346.5539985373396
 30
0
 11
-269.3000005673464
 21
346.5539984979707
 31
0
  0
LINE
  8
0
 62
7
 10
-231.5500038173474
 20
346.5539988282324
 30
0
 11
-231.6928608173475
 21
346.5539988269828
 31
0
  0
LINE
  8
0
 62
7
 10
-233.3596485112495
 20
346.5539988124004
 30
0
 11
-234.1214298173474
 21
346.5539988057361
 31
0
  0
LINE
  8
0
 62
7
 10
-234.1214298173474
 20
346.5539988057361
 30
0
 11
-235.2285715673474
 21
346.5539987960501
 31
0
  0
LINE
  8
0
 62
7
 10
-235.2285715673474
 20
346.5539987960501
 30
0
 11
-235.5535712423475
 21
346.5539987932067
 31
0
  0
LINE
  8
0
 62
7
 10
-231.6928608173475
 20
346.5539988269828
 30
0
 11
-233.3596485112495
 21
346.5539988124004
 31
0
  0
LINE
  8
0
 62
7
 10
-221.0289888992838
 20
346.5539989202772
 30
0
 11
-222.1571560673473
 21
346.5539989104076
 31
0
  0
LINE
  8
0
 62
7
 10
-218.8714450673475
 20
346.5539989391532
 30
0
 11
-219.5143015673475
 21
346.5539989335287
 31
0
  0
LINE
  8
0
 62
7
 10
-219.5143015673475
 20
346.5539989335287
 30
0
 11
-221.0289888992838
 21
346.5539989202772
 31
0
  0
LINE
  8
0
 62
7
 10
-222.1571560673473
 20
346.5539989104076
 30
0
 11
-223.0857265673474
 21
346.5539989022838
 31
0
  0
LINE
  8
0
 62
7
 10
-218.5143025673474
 20
346.5539989422773
 30
0
 11
-218.8714450673475
 21
346.5539989391532
 31
0
  0
LINE
  8
0
 62
7
 10
-243.3000000301758
 20
285.1539987254358
 30
0
 11
-240.800000030179
 21
285.1539987473075
 31
0
  0
LINE
  8
0
 62
7
 10
-240.800000030179
 20
285.1539987473075
 30
0
 11
-239.6733972025803
 21
285.1539987571637
 31
0
  0
LINE
  8
0
 62
7
 10
-239.6733972025803
 20
285.1539987571637
 30
0
 11
-238.6500000301786
 21
285.1539987661171
 31
0
  0
LINE
  8
0
 62
7
 10
-229.9266028577717
 20
285.153998842435
 30
0
 11
-228.8000000301758
 21
285.1539988522914
 31
0
  0
LINE
  8
0
 62
7
 10
-228.8000000301758
 20
285.1539988522914
 30
0
 11
-226.3000000301758
 21
285.153998874163
 31
0
  0
LINE
  8
0
 62
7
 10
-230.9500000301786
 20
285.1539988334817
 30
0
 11
-229.9266028577717
 21
285.153998842435
 31
0
  0
LINE
  8
0
 62
7
 10
-230.9500000301786
 20
285.1539988334817
 30
0
 11
-238.6500000301786
 21
285.1539987661171
 31
0
  0
LINE
  8
0
 62
7
 10
-286.7999999847158
 20
279.9570524872208
 30
0
 11
-286.7999999759646
 21
278.9570524872208
 31
0
  0
LINE
  8
0
 62
7
 10
-229.9266025842023
 20
253.8841258613576
 30
0
 11
-229.9266028577717
 21
285.153998842435
 31
0
  0
LINE
  8
0
 62
7
 10
-239.6733969290109
 20
253.8841257760871
 30
0
 11
-239.6733972025803
 21
285.1539987571637
 31
0
  0
LINE
  8
0
 62
7
 10
-217.5857320673475
 20
346.5539989504015
 30
0
 11
-218.5143025673474
 21
346.5539989422773
 31
0
  0
LINE
  8
0
 62
7
 10
-224.8000105673474
 20
346.5539988872861
 30
0
 11
-225.4428670673474
 21
346.553998881662
 31
0
  0
LINE
  8
0
 62
7
 10
-215.4428770673474
 20
346.5539989691486
 30
0
 11
-217.3714465673474
 21
346.5539989522762
 31
0
  0
LINE
  8
0
 62
7
 10
-217.3714465673474
 20
346.5539989522762
 30
0
 11
-217.5857320673475
 21
346.5539989504015
 31
0
  0
LINE
  8
0
 62
7
 10
-223.0857265673474
 20
346.5539989022838
 30
0
 11
-223.1571550673475
 21
346.5539989016589
 31
0
  0
LINE
  8
0
 62
7
 10
-200.3000005673464
 20
346.553999101628
 30
0
 11
-204.8000005673474
 21
346.553999062259
 31
0
  0
LINE
  8
0
 62
7
 10
-214.8000205673474
 20
346.5539989747728
 30
0
 11
-215.4428770673474
 21
346.5539989691486
 31
0
  0
LINE
  8
0
 62
7
 10
-204.8000005673474
 20
346.553999062259
 30
0
 11
-214.8000205673474
 21
346.5539989747728
 31
0
  0
LINE
  8
0
 62
7
 10
-229.0142920673474
 20
346.5539988504165
 30
0
 11
-227.4428650673473
 21
346.5539988641644
 31
0
  0
LINE
  8
0
 62
7
 10
-225.4428670673474
 20
346.553998881662
 30
0
 11
-227.4428650673473
 21
346.5539988641644
 31
0
  0
LINE
  8
0
 62
7
 10
-226.3000005321836
 20
342.5347609876969
 30
0
 11
-188.8000005321828
 21
342.5347613157716
 31
0
  0
LINE
  8
0
 62
7
 10
-199.8000005673109
 20
346.5498321499442
 30
0
 11
-199.2105099091085
 21
346.5342094190615
 31
0
  0
LINE
  8
0
 62
7
 10
-189.8000005507444
 20
344.656490186282
 30
0
 11
-189.8000005673451
 21
346.5539991934889
 31
0
  0
LINE
  8
0
 62
7
 10
-200.3000005673464
 20
346.553999101628
 30
0
 11
-199.8000005673109
 21
346.5498321499442
 31
0
  0
LINE
  8
0
 62
7
 10
-199.2105099091085
 20
346.5342094190615
 30
0
 11
-189.8000005673451
 21
346.5539991934889
 31
0
  0
LINE
  8
0
 62
7
 10
-223.1571550673475
 20
346.5539989016589
 30
0
 11
-224.8000105673474
 21
346.5539988872861
 31
0
  0
LINE
  8
0
 62
7
 10
-231.5500038173474
 20
346.5539988282324
 30
0
 11
-229.7642913173475
 21
346.553998843855
 31
0
  0
LINE
  8
0
 62
7
 10
-229.0142920673474
 20
346.5539988504165
 30
0
 11
-229.7642913173475
 21
346.553998843855
 31
0
  0
LINE
  8
0
 62
7
 10
-228.8000005472941
 20
344.262300857287
 30
0
 11
-228.8000005434783
 21
343.8257791388814
 31
0
  0
LINE
  8
0
 62
7
 10
-228.8000005434783
 20
343.8257791388814
 30
0
 11
-228.8000000301758
 21
285.1539988522914
 31
0
  0
LINE
  8
0
 62
7
 10
-185.300000409867
 20
328.5539992328574
 30
0
 11
-185.300000088919
 21
291.8685925412143
 31
0
  0
LINE
  8
0
 62
7
 10
-185.300000088919
 20
291.8685925412143
 30
0
 11
-182.8000000920813
 21
292.2300389709828
 31
0
  0
LINE
  8
0
 62
7
 10
-182.8000000920813
 20
292.2300389709828
 30
0
 11
-182.8000004098672
 21
328.553999254729
 31
0
  0
LINE
  8
0
 62
7
 10
-184.9499925509255
 20
328.5539992359209
 30
0
 11
-182.8000004098672
 21
328.553999254729
 31
0
  0
LINE
  8
0
 62
7
 10
-185.300000088919
 20
291.8685925412143
 30
0
 11
-185.3069668889278
 21
259.7691725276977
 31
0
  0
LINE
  8
0
 62
7
 10
-185.3000005321831
 20
342.5347614004546
 30
0
 11
-185.300000409867
 21
328.5539992328574
 31
0
  0
LINE
  8
0
 62
7
 10
-286.8000000920814
 20
292.2300380611223
 30
0
 11
-286.8000000523302
 21
287.6858848223301
 31
0
  0
LINE
  8
0
 62
7
 10
-286.8000000920814
 20
292.2300380611223
 30
0
 11
-284.300000088919
 21
291.868591675097
 31
0
  0
LINE
  8
0
 62
7
 10
-284.2930327272629
 20
259.7691716617033
 30
0
 11
-284.300000088919
 21
291.868591675097
 31
0
  0
LINE
  8
0
 62
7
 10
-281.7999996137395
 20
237.5539983886111
 30
0
 11
-286.070830914552
 21
237.553998351247
 31
0
  0
LINE
  8
0
 62
7
 10
-187.7999996137395
 20
237.5539992109848
 30
0
 11
-183.5291683129269
 21
237.5539992483489
 31
0
  0
LINE
  8
0
 62
7
 10
-281.7999996137395
 20
237.5539983886111
 30
0
 11
-187.7999996137395
 21
237.5539992109848
 31
0
  0
LINE
  8
0
 62
7
 10
-182.7999996767006
 20
244.7501516774374
 30
0
 11
-182.7999997641827
 21
254.7501516774372
 31
0
  0
LINE
  8
1
 62
2
 10
-284.3000000889161
 20
291.8685916484415
 30
0
 11
-284.2945016206355
 21
291.8685922452024
 31
0
  0
LINE
  8
1
 62
2
 10
-185.3054985571935
 20
291.8685931758114
 30
0
 11
-185.3000000889149
 21
291.8685925791467
 31
0
  0
LINE
  8
0
 62
7
 10
-284.6499925548625
 20
329.003998363678
 30
0
 11
-284.6499925509256
 21
328.5539983636779
 31
0
  0
LINE
  8
0
 62
7
 10
-284.3000004138071
 20
329.0039983667399
 30
0
 11
-284.6499925548625
 21
329.003998363678
 31
0
  0
LINE
  8
0
 62
7
 10
-284.6499925509256
 20
328.5539983636779
 30
0
 11
-284.3000004098674
 21
328.5539983667403
 31
0
  0
LINE
  8
0
 62
7
 10
-182.6999998416445
 20
263.6039992556053
 30
0
 11
-182.6999998936991
 21
269.5539992556055
 31
0
  0
LINE
  8
0
 62
7
 10
-180.6999998416445
 20
263.6039992731027
 30
0
 11
-180.6999998412071
 21
263.5539992731028
 31
0
  0
LINE
  8
0
 62
7
 10
-295.0071062365788
 20
219.4546078172069
 30
0
 11
-295.2999994553921
 21
219.4546078146444
 31
0
  0
LINE
  8
0
 62
7
 10
-295.2999994553921
 20
219.4546078146444
 30
0
 11
-295.2999994378947
 21
217.4546078146447
 31
0
  0
LINE
  8
0
 62
7
 10
-295.0071062190812
 20
217.4546078172065
 30
0
 11
-295.2999994378947
 21
217.4546078146447
 31
0
  0
LINE
  8
0
 62
7
 10
-290.1284265801435
 20
219.4546078598897
 30
0
 11
-295.0071062365788
 21
219.4546078172069
 31
0
  0
LINE
  8
0
 62
7
 10
-295.299999464141
 20
220.4546078146451
 30
0
 11
-295.2999994553921
 21
219.4546078146444
 31
0
  0
LINE
  8
0
 62
7
 10
-288.8999996578597
 20
242.5966390313212
 30
0
 11
-288.8999997151037
 21
249.1397857545681
 31
0
  0
LINE
  8
0
 62
7
 10
-288.0213200014193
 20
240.4753187140076
 30
0
 11
-287.2928928455553
 21
239.7468915581436
 31
0
  0
LINE
  8
0
 62
7
 10
-288.89999972129
 20
249.8468925357546
 30
0
 11
-288.8999997151037
 21
249.1397857545681
 31
0
  0
LINE
  8
0
 62
7
 10
-296.7999996916017
 20
246.4539982572226
 30
0
 11
-288.8999996916065
 21
246.4539983263373
 31
0
  0
LINE
  8
0
 62
7
 10
-304.2999996259866
 20
238.9539981916074
 30
0
 11
-304.2999995472483
 21
229.9539981916076
 31
0
  0
LINE
  8
0
 62
7
 10
-286.9999995699997
 20
232.5539983429599
 30
0
 11
-286.9999995175076
 21
226.55399834296
 31
0
  0
LINE
  8
0
 62
7
 10
-286.9999996267419
 20
239.0397847857057
 30
0
 11
-286.9999995699997
 21
232.5539983429599
 31
0
  0
LINE
  8
0
 62
7
 10
-286.9999995087588
 20
225.55399834296
 30
0
 11
-286.9999995175076
 21
226.55399834296
 31
0
  0
LINE
  8
0
 62
7
 10
-296.2999994816331
 20
222.4539982615971
 30
0
 11
-296.7999994816331
 21
222.4539982572228
 31
0
  0
LINE
  8
0
 62
7
 10
-295.2999994728844
 20
221.4539982703459
 30
0
 11
-295.299999464141
 21
220.4546078146451
 31
0
  0
LINE
  8
0
 62
7
 10
-300.3000004527382
 20
333.4539982266027
 30
0
 11
-300.3000004608326
 21
334.3792105963732
 31
0
  0
LINE
  8
0
 62
7
 10
-300.3000004608326
 20
334.3792105963732
 30
0
 11
-300.3000004964817
 21
338.4539982266027
 31
0
  0
LINE
  8
0
 62
7
 10
-293.3000004608325
 20
334.3791945747194
 30
0
 11
-293.3000004527382
 21
333.4539982878436
 31
0
  0
LINE
  8
0
 62
7
 10
-293.3000004964816
 20
338.4539982878436
 30
0
 11
-293.3000004608325
 21
334.3791945747194
 31
0
  0
LINE
  8
0
 62
7
 10
-296.800000387123
 20
325.9539982572231
 30
0
 11
-286.8000003871208
 21
325.9539983447101
 31
0
  0
LINE
  8
0
 62
7
 10
-288.9000003670681
 20
323.6611051075244
 30
0
 11
-288.900000284706
 21
314.2468915451512
 31
0
  0
LINE
  8
0
 62
7
 10
-288.9000003670681
 20
323.6611051075244
 30
0
 11
-288.9000003696305
 21
323.9539983263378
 31
0
  0
LINE
  8
0
 62
7
 10
-288.900000284706
 20
314.2468915451512
 30
0
 11
-288.9000002785197
 21
313.5397847639647
 31
0
  0
LINE
  8
0
 62
7
 10
-286.9000002847059
 20
314.2468915626486
 30
0
 11
-286.900000367068
 21
323.6611051250217
 31
0
  0
LINE
  8
0
 62
7
 10
-286.900000367068
 20
323.6611051250217
 30
0
 11
-286.9000003696304
 21
323.9539983438352
 31
0
  0
LINE
  8
0
 62
7
 10
-286.9000002847059
 20
314.2468915626486
 30
0
 11
-286.9000002785195
 21
313.5397847814621
 31
0
  0
LINE
  8
0
 62
7
 10
-286.9000003696304
 20
323.9539983438352
 30
0
 11
-288.9000003696305
 21
323.9539983263378
 31
0
  0
LINE
  8
0
 62
7
 10
-286.8000003696234
 20
323.95399834471
 30
0
 11
-286.9000003696304
 21
323.9539983438352
 31
0
  0
LINE
  8
0
 62
7
 10
-279.8000005620959
 20
345.9539984059509
 30
0
 11
-296.800000562097
 21
345.9539982572231
 31
0
  0
LINE
  8
0
 62
7
 10
-304.3000004964816
 20
338.4539981916079
 30
0
 11
-304.3000004527382
 21
333.4539981916079
 31
0
  0
LINE
  8
0
 62
7
 10
-284.9999995699997
 20
232.5539983604573
 30
0
 11
-284.9999995175076
 21
226.5539983604574
 31
0
  0
LINE
  8
0
 62
7
 10
-284.9999995699997
 20
232.5539983604573
 30
0
 11
-284.9999995962459
 21
235.5539983606152
 31
0
  0
LINE
  8
0
 62
7
 10
-284.9999995087589
 20
225.5539983604574
 30
0
 11
-284.9999995175076
 21
226.5539983604574
 31
0
  0
LINE
  8
0
 62
7
 10
-284.9999995175076
 20
226.5539983604574
 30
0
 11
-286.9999995175076
 21
226.55399834296
 31
0
  0
LINE
  8
0
 62
7
 10
-286.8999996916064
 20
246.4539983438347
 30
0
 11
-286.799999691607
 21
246.4539983447095
 31
0
  0
LINE
  8
0
 62
7
 10
-286.8999997151036
 20
249.1397857720655
 30
0
 11
-286.8999996578596
 21
242.5966390488184
 31
0
  0
LINE
  8
0
 62
7
 10
-174.5928926742139
 20
219.4546088706753
 30
0
 11
-174.2999994554005
 21
219.4546088732377
 31
0
  0
LINE
  8
0
 62
7
 10
-184.0071062190849
 20
217.4546087883141
 30
0
 11
-184.2999994378983
 21
217.4546087857517
 31
0
  0
LINE
  8
0
 62
7
 10
-184.0071062190849
 20
217.4546087883141
 30
0
 11
-182.2999994378984
 21
217.4546088032478
 31
0
  0
LINE
  8
0
 62
7
 10
-197.9801942845089
 20
217.4546086660664
 30
0
 11
-184.2999994378983
 21
217.4546087857517
 31
0
  0
LINE
  8
0
 62
7
 10
-182.2999994378984
 20
217.4546088032478
 30
0
 11
-174.5928926567166
 21
217.454608870675
 31
0
  0
LINE
  8
0
 62
7
 10
-174.5928926567166
 20
217.454608870675
 30
0
 11
-174.2999994379031
 21
217.4546088732367
 31
0
  0
LINE
  8
0
 62
7
 10
-174.2999994379031
 20
217.4546088732367
 30
0
 11
-174.2999994554005
 21
219.4546088732377
 31
0
  0
LINE
  8
0
 62
7
 10
-174.2999994641493
 20
220.4546088732377
 30
0
 11
-174.2999994554005
 21
219.4546088732377
 31
0
  0
LINE
  8
0
 62
7
 10
-273.0071062549505
 20
221.5539984653793
 30
0
 11
-272.1198046271592
 21
221.5539984733005
 31
0
  0
LINE
  8
0
 62
7
 10
-273.7142130361372
 20
221.5539984591931
 30
0
 11
-273.0071062549505
 21
221.5539984653793
 31
0
  0
LINE
  8
0
 62
7
 10
-283.9999994737642
 20
221.5539983692064
 30
0
 11
-273.7142130361372
 21
221.5539984591931
 31
0
  0
LINE
  8
0
 62
7
 10
-284.9999995087589
 20
225.5539983604574
 30
0
 11
-284.9999994825128
 21
222.5539983604577
 31
0
  0
LINE
  8
0
 62
7
 10
-286.8999997212899
 20
249.846892553252
 30
0
 11
-286.8999997178525
 21
249.4539983438346
 31
0
  0
LINE
  8
0
 62
7
 10
-286.8999998412091
 20
263.5539983439925
 30
0
 11
-286.8999998416466
 21
263.6039983439933
 31
0
  0
LINE
  8
0
 62
7
 10
-286.8999998416466
 20
263.6039983439933
 30
0
 11
-286.8999998937013
 21
269.5539983439926
 31
0
  0
LINE
  8
0
 62
7
 10
-288.8999998412091
 20
263.5539983264952
 30
0
 11
-288.8999998416467
 21
263.603998326496
 31
0
  0
LINE
  8
0
 62
7
 10
-288.8999998416467
 20
263.603998326496
 30
0
 11
-288.8999998937014
 21
269.5539983264952
 31
0
  0
LINE
  8
0
 62
7
 10
-286.8999998937013
 20
269.5539983439926
 30
0
 11
-286.899999943631
 21
275.2611051250211
 31
0
  0
LINE
  8
0
 62
7
 10
-288.8999999436311
 20
275.2611051075238
 30
0
 11
-288.8999998937014
 21
269.5539983264952
 31
0
  0
LINE
  8
0
 62
7
 10
-286.899999943631
 20
275.2611051250211
 30
0
 11
-286.8999999461937
 21
275.5539983438346
 31
0
  0
LINE
  8
0
 62
7
 10
-288.8999999461938
 20
275.5539983263372
 30
0
 11
-286.8999999461937
 21
275.5539983438346
 31
0
  0
LINE
  8
0
 62
7
 10
-288.8999999461938
 20
275.5539983263372
 30
0
 11
-288.8999999436311
 21
275.2611051075238
 31
0
  0
LINE
  8
0
 62
7
 10
-288.9000002785197
 20
313.5397847639647
 30
0
 11
-288.8999999894996
 21
280.503998326496
 31
0
  0
LINE
  8
0
 62
7
 10
-286.8999999894995
 20
280.5039983439933
 30
0
 11
-286.9000002785195
 21
313.5397847814621
 31
0
  0
LINE
  8
0
 62
7
 10
-286.8999997212899
 20
249.846892553252
 30
0
 11
-286.8999998412091
 21
263.5539983439925
 31
0
  0
LINE
  8
0
 62
7
 10
-288.8999998412091
 20
263.5539983264952
 30
0
 11
-288.89999972129
 21
249.8468925357546
 31
0
  0
LINE
  8
0
 62
7
 10
-286.8999997178525
 20
249.4539983438346
 30
0
 11
-286.8999997151036
 21
249.1397857720655
 31
0
  0
LINE
  8
0
 62
7
 10
-286.799999717853
 20
249.4539983447095
 30
0
 11
-286.8999997178525
 21
249.4539983438346
 31
0
  0
LINE
  8
0
 62
7
 10
-182.699999721288
 20
249.846893464865
 30
0
 11
-182.6999998412071
 21
263.5539992556055
 31
0
  0
LINE
  8
0
 62
7
 10
-180.6999998936991
 20
269.5539992731028
 30
0
 11
-180.6999998416445
 21
263.6039992731027
 31
0
  0
LINE
  8
0
 62
7
 10
-182.6999998412071
 20
263.5539992556055
 30
0
 11
-182.6999998416445
 21
263.6039992556053
 31
0
  0
LINE
  8
0
 62
7
 10
-180.6999999436287
 20
275.2611060541315
 30
0
 11
-180.6999998936991
 21
269.5539992731028
 31
0
  0
LINE
  8
0
 62
7
 10
-180.6999999461912
 20
275.5539992729449
 30
0
 11
-182.6999999461912
 21
275.5539992554476
 31
0
  0
LINE
  8
0
 62
7
 10
-180.6999999461912
 20
275.5539992729449
 30
0
 11
-180.6999999436287
 21
275.2611060541315
 31
0
  0
LINE
  8
0
 62
7
 10
-182.6999999436287
 20
275.2611060366342
 30
0
 11
-182.6999999461912
 21
275.5539992554476
 31
0
  0
LINE
  8
0
 62
7
 10
-180.6999998412071
 20
263.5539992731028
 30
0
 11
-180.699999721288
 21
249.8468934823623
 31
0
  0
LINE
  8
0
 62
7
 10
-182.6999998936991
 20
269.5539992556055
 30
0
 11
-182.6999999436287
 21
275.2611060366342
 31
0
  0
LINE
  8
0
 62
7
 10
-182.6999999894971
 20
280.5039992556053
 30
0
 11
-182.7000002785165
 21
313.539785693075
 31
0
  0
LINE
  8
0
 62
7
 10
-180.7000002785165
 20
313.5397857105724
 30
0
 11
-180.6999999894971
 21
280.5039992731027
 31
0
  0
LINE
  8
0
 62
7
 10
-182.6999997178507
 20
249.4539992554476
 30
0
 11
-182.799999717853
 21
249.4539992545727
 31
0
  0
LINE
  8
0
 62
7
 10
-182.6999997151018
 20
249.1397866836784
 30
0
 11
-182.6999997178507
 21
249.4539992554476
 31
0
  0
LINE
  8
0
 62
7
 10
-182.6999997178507
 20
249.4539992554476
 30
0
 11
-182.699999721288
 21
249.846893464865
 31
0
  0
LINE
  8
0
 62
7
 10
-182.6999996916047
 20
246.4539992554476
 30
0
 11
-182.799999691607
 21
246.4539992545728
 31
0
  0
LINE
  8
0
 62
7
 10
-181.2999995253851
 20
227.4546088119944
 30
0
 11
-181.2999995166364
 21
226.4546088119944
 31
0
  0
LINE
  8
0
 62
7
 10
-184.5999995087389
 20
225.5539992388254
 30
0
 11
-184.5999994825114
 21
222.5539992388257
 31
0
  0
LINE
  8
0
 62
7
 10
-182.5999995174875
 20
226.5539992563227
 30
0
 11
-182.5999995087388
 21
225.5539992563227
 31
0
  0
LINE
  8
0
 62
7
 10
-184.5999995175061
 20
226.5539992388254
 30
0
 11
-182.5999995174875
 21
226.5539992563227
 31
0
  0
LINE
  8
0
 62
7
 10
-184.5999995175061
 20
226.5539992388254
 30
0
 11
-184.5999995087389
 21
225.5539992388254
 31
0
  0
LINE
  8
0
 62
7
 10
-182.5999995087388
 20
225.5539992563227
 30
0
 11
-182.599999478137
 21
222.0539992563228
 31
0
  0
LINE
  8
0
 62
7
 10
-184.5999995175061
 20
226.5539992388254
 30
0
 11
-184.5999995699981
 21
232.5539992388253
 31
0
  0
LINE
  8
0
 62
7
 10
-182.5999995174875
 20
226.5539992563227
 30
0
 11
-182.5999995699981
 21
232.5539992563227
 31
0
  0
LINE
  8
0
 62
7
 10
-184.5999995962441
 20
235.5539992389832
 30
0
 11
-184.5999995699981
 21
232.5539992388253
 31
0
  0
LINE
  8
0
 62
7
 10
-182.5999995699981
 20
232.5539992563227
 30
0
 11
-182.5999996267401
 21
239.0397856888188
 31
0
  0
LINE
  8
0
 62
7
 10
-182.3071064079269
 20
239.7468924787538
 30
0
 11
-181.5786793142984
 21
240.4753195723823
 31
0
  0
LINE
  8
0
 62
7
 10
-182.6999997151018
 20
249.1397866836784
 30
0
 11
-182.6999996578579
 21
242.5966399246907
 31
0
  0
LINE
  8
0
 62
7
 10
-180.6999996578579
 20
242.5966399421881
 30
0
 11
-180.6999997151018
 21
249.1397867011758
 31
0
  0
LINE
  8
0
 62
7
 10
-180.6999997151018
 20
249.1397867011758
 30
0
 11
-180.699999721288
 21
249.8468934823623
 31
0
  0
LINE
  8
0
 62
7
 10
-181.2999995253851
 20
227.4546088119944
 30
0
 11
-179.2999995253851
 21
227.4546088294918
 31
0
  0
LINE
  8
0
 62
7
 10
-172.7999996916095
 20
246.4539993420596
 30
0
 11
-180.6999996916047
 21
246.453999272945
 31
0
  0
LINE
  8
0
 62
7
 10
-181.2999995166364
 20
226.4546088119944
 30
0
 11
-181.2999994641444
 21
220.4546088119968
 31
0
  0
LINE
  8
0
 62
7
 10
-179.2999994641445
 20
220.4546088294938
 30
0
 11
-179.2999995166364
 21
226.4546088294917
 31
0
  0
LINE
  8
0
 62
7
 10
-179.2999995253851
 20
227.4546088294918
 30
0
 11
-179.2999995166364
 21
226.4546088294917
 31
0
  0
LINE
  8
0
 62
7
 10
-179.4715723306495
 20
219.4546088279932
 30
0
 11
-174.5928926742139
 21
219.4546088706753
 31
0
  0
LINE
  8
0
 62
7
 10
-250.2999994562667
 20
219.5539986640366
 30
0
 11
-250.5928926750801
 21
219.5539986614742
 31
0
  0
LINE
  8
0
 62
7
 10
-250.2999994737641
 20
221.5539986640371
 30
0
 11
-250.2999994562667
 21
219.5539986640366
 31
0
  0
LINE
  8
0
 62
7
 10
-250.2999994737641
 20
221.5539986640371
 30
0
 11
-250.5928926925776
 21
221.5539986614742
 31
0
  0
LINE
  8
0
 62
7
 10
-261.1198046271592
 20
221.5539985695359
 30
0
 11
-250.5928926925776
 21
221.5539986614742
 31
0
  0
LINE
  8
0
 62
7
 10
-288.2999995253867
 20
227.4546078758851
 30
0
 11
-290.2999995253867
 21
227.4546078583877
 31
0
  0
LINE
  8
0
 62
7
 10
-290.2999995166566
 20
226.4546078583876
 30
0
 11
-290.2999995253867
 21
227.4546078583877
 31
0
  0
LINE
  8
0
 62
7
 10
-288.2999995166566
 20
226.4546078758851
 30
0
 11
-288.2999995253867
 21
227.4546078758851
 31
0
  0
LINE
  8
0
 62
7
 10
-288.2999995166566
 20
226.4546078758851
 30
0
 11
-288.2999994641459
 21
220.454607875886
 31
0
  0
LINE
  8
0
 62
7
 10
-290.2999995166566
 20
226.4546078583876
 30
0
 11
-290.2999994641457
 21
220.4546078583882
 31
0
  0
LINE
  8
0
 62
7
 10
-174.2999994728926
 20
221.4539993289368
 30
0
 11
-174.2999994641493
 21
220.4546088732377
 31
0
  0
LINE
  8
0
 62
7
 10
-173.2999994816413
 20
222.4539993376855
 30
0
 11
-172.7999994816412
 21
222.4539993420598
 31
0
  0
LINE
  8
0
 62
7
 10
-165.2999996259944
 20
238.9539994076746
 30
0
 11
-165.2999995472563
 21
229.9539994076748
 31
0
  0
LINE
  8
0
 62
7
 10
-195.8857858938922
 20
219.5539991400895
 30
0
 11
-196.5928926750789
 21
219.5539991339032
 31
0
  0
LINE
  8
0
 62
7
 10
-195.8857858938922
 20
219.5539991400895
 30
0
 11
-185.0999994562653
 21
219.5539992344513
 31
0
  0
LINE
  8
0
 62
7
 10
-196.5928926750789
 20
219.5539991339032
 30
0
 11
-219.0071062374518
 21
219.5539989378088
 31
0
  0
LINE
  8
0
 62
7
 10
-208.4801943203693
 20
221.5539990300628
 30
0
 11
-219.0071062549491
 21
221.5539989378088
 31
0
  0
LINE
  8
0
 62
7
 10
-219.0071062549491
 20
221.5539989378088
 30
0
 11
-219.2999994737627
 21
221.5539989352459
 31
0
  0
LINE
  8
0
 62
7
 10
-219.2999994737627
 20
221.5539989352459
 30
0
 11
-219.2999994562653
 21
219.5539989352463
 31
0
  0
LINE
  8
0
 62
7
 10
-219.0071062374518
 20
219.5539989378088
 30
0
 11
-219.2999994562653
 21
219.5539989352463
 31
0
  0
LINE
  8
0
 62
7
 10
-172.8000005621027
 20
345.9539993420601
 30
0
 11
-189.8000005620959
 21
345.9539991933335
 31
0
  0
LINE
  8
0
 62
7
 10
-261.619804591295
 20
217.4546081093043
 30
0
 11
-264.3363045912951
 21
217.4546080855385
 31
0
  0
LINE
  8
0
 62
7
 10
-196.5928926925763
 20
221.5539991339032
 30
0
 11
-197.4801943203693
 21
221.5539991262982
 31
0
  0
LINE
  8
0
 62
7
 10
-195.8857859113896
 20
221.5539991400895
 30
0
 11
-196.5928926925763
 21
221.5539991339032
 31
0
  0
LINE
  8
0
 62
7
 10
-185.5999994737628
 20
221.553999230077
 30
0
 11
-195.8857859113896
 21
221.5539991400895
 31
0
  0
LINE
  8
0
 62
7
 10
-208.4801943203693
 20
221.5539990300628
 30
0
 11
-197.4801943203693
 21
221.5539991262982
 31
0
  0
LINE
  8
0
 62
7
 10
-169.3000004527443
 20
333.4539993726804
 30
0
 11
-169.3000004608385
 21
334.3791945747135
 31
0
  0
LINE
  8
0
 62
7
 10
-169.3000004608385
 20
334.3791945747135
 30
0
 11
-169.3000004964877
 21
338.4539993726804
 31
0
  0
LINE
  8
0
 62
7
 10
-165.3000004964877
 20
338.4539994076752
 30
0
 11
-165.3000004527443
 21
333.4539994076752
 31
0
  0
LINE
  8
0
 62
7
 10
-176.3000004608387
 20
334.3792105963793
 30
0
 11
-176.3000004527443
 21
333.4539993114397
 31
0
  0
LINE
  8
0
 62
7
 10
-176.3000004964877
 20
338.4539993114397
 30
0
 11
-176.3000004608387
 21
334.3792105963793
 31
0
  0
LINE
  8
0
 62
7
 10
-182.7000003696271
 20
323.9539992554481
 30
0
 11
-180.7000003696271
 21
323.9539992729455
 31
0
  0
LINE
  8
0
 62
7
 10
-182.7000003696271
 20
323.9539992554481
 30
0
 11
-182.8000003696234
 21
323.9539992545733
 31
0
  0
LINE
  8
0
 62
7
 10
-182.7000002847027
 20
314.2468924742616
 30
0
 11
-182.7000003670646
 21
323.6611060366347
 31
0
  0
LINE
  8
0
 62
7
 10
-182.7000003696271
 20
323.9539992554481
 30
0
 11
-182.7000003670646
 21
323.6611060366347
 31
0
  0
LINE
  8
0
 62
7
 10
-182.7000002785165
 20
313.539785693075
 30
0
 11
-182.7000002847027
 21
314.2468924742616
 31
0
  0
LINE
  8
0
 62
7
 10
-180.7000003670646
 20
323.6611060541321
 30
0
 11
-180.7000002847027
 21
314.246892491759
 31
0
  0
LINE
  8
0
 62
7
 10
-180.7000003696271
 20
323.9539992729455
 30
0
 11
-180.7000003670646
 21
323.6611060541321
 31
0
  0
LINE
  8
0
 62
7
 10
-180.7000002785165
 20
313.5397857105724
 30
0
 11
-180.7000002847027
 21
314.246892491759
 31
0
  0
LINE
  8
0
 62
7
 10
-172.8000003871292
 20
325.9539993420601
 30
0
 11
-182.8000003871208
 21
325.9539992545733
 31
0
  0
LINE
  8
0
 62
7
 10
-261.619804591295
 20
217.4546081093043
 30
0
 11
-207.9801942845089
 21
217.4546085785794
 31
0
  0
LINE
  8
0
 62
7
 10
-184.0071062365823
 20
219.4546087883145
 30
0
 11
-184.2999994553957
 21
219.454608785752
 31
0
  0
LINE
  8
0
 62
7
 10
-184.0071062365823
 20
219.4546087883145
 30
0
 11
-182.2999994553958
 21
219.4546088032482
 31
0
  0
LINE
  8
0
 62
7
 10
-285.2999994553971
 20
219.4546079021334
 30
0
 11
-285.5928926742107
 21
219.454607899571
 31
0
  0
LINE
  8
0
 62
7
 10
-285.2999994553971
 20
219.4546079021334
 30
0
 11
-184.2999994553957
 21
219.454608785752
 31
0
  0
LINE
  8
0
 62
7
 10
-287.2999994553971
 20
219.4546078846347
 30
0
 11
-285.5928926742107
 21
219.454607899571
 31
0
  0
LINE
  8
0
 62
7
 10
-273.7142130186398
 20
219.5539984591931
 30
0
 11
-273.0071062374531
 21
219.5539984653794
 31
0
  0
LINE
  8
0
 62
7
 10
-284.4999994562667
 20
219.5539983648316
 30
0
 11
-273.7142130186398
 21
219.5539984591931
 31
0
  0
LINE
  8
0
 62
7
 10
-273.0071062374531
 20
219.5539984653794
 30
0
 11
-250.5928926750801
 21
219.5539986614742
 31
0
  0
LINE
  8
0
 62
7
 10
-286.9999995087588
 20
225.55399834296
 30
0
 11
-286.9999994781384
 21
222.05399834296
 31
0
  0
LINE
  8
0
 62
7
 10
-285.2999994378995
 20
217.454607902133
 30
0
 11
-285.592892656713
 21
217.4546078995706
 31
0
  0
LINE
  8
0
 62
7
 10
-285.2999994378995
 20
217.454607902133
 30
0
 11
-271.619804591295
 21
217.4546080218175
 31
0
  0
LINE
  8
0
 62
7
 10
-287.2999994378997
 20
217.4546078846343
 30
0
 11
-285.592892656713
 21
217.4546078995706
 31
0
  0
LINE
  8
0
 62
7
 10
-287.2999994378997
 20
217.4546078846343
 30
0
 11
-295.0071062190812
 21
217.4546078172065
 31
0
  0
LINE
  8
0
 62
7
 10
18.73143300185788
 20
13.65987064432453
 30
0
 11
7.496233302636483
 21
91.31238548853924
 31
0
  0
LINE
  8
1
 62
2
  6
DASHDOT
 10
85.60399910162818
 20
47.85984708083868
 30
0
 11
-67.99600115800379
 21
47.85984708083868
 31
0
  0
LINE
  8
1
 62
2
  6
DASHDOT
 10
-177.2999994641449
 20
47.85984708083868
 30
0
 11
-292.2999994641463
 21
47.85984708083868
 31
0
  0
LINE
  8
1
 62
2
  6
DASHDOT
 10
-234.7999974089181
 20
149.8598706443236
 30
0
 11
-234.7999974089181
 21
-39.14014059536436
 31
0
  0
LINE
  8
1
 62
2
  6
DASHDOT
 10
-234.7999974089181
 20
194.9539987997994
 30
0
 11
-234.7999974089181
 21
348.553998799801
 31
0
  0
LINE
  8
1
 62
2
  6
DASHDOT
 10
-178.2999995822509
 20
233.9539993420595
 30
0
 11
-167.3000004964878
 21
233.9539993420595
 31
0
  0
LINE
  8
1
 62
2
  6
DASHDOT
 10
-172.7999996303691
 20
239.4539993420595
 30
0
 11
-172.7999995341337
 21
228.4539993420595
 31
0
  0
LINE
  8
1
 62
2
  6
DASHDOT
 10
-291.3000004964815
 20
233.9571694747019
 30
0
 11
-302.2999995822431
 21
233.9571694747019
 31
0
  0
LINE
  8
1
 62
2
  6
DASHDOT
 10
-296.7999996303605
 20
239.4539982572226
 30
0
 11
-296.7999996303605
 21
228.4539982572226
 31
0
  0
LINE
  8
1
 62
2
  6
DASHDOT
 10
-296.8000005445994
 20
343.9539982572232
 30
0
 11
-296.8000004046203
 21
327.9539982572231
 31
0
  0
LINE
  8
1
 62
2
  6
DASHDOT
 10
-302.3000004964817
 20
338.4539982878436
 30
0
 11
-291.3000004964815
 21
338.4539982878436
 31
0
  0
LINE
  8
1
 62
2
  6
DASHDOT
 10
-302.3000004527382
 20
333.4539982878436
 30
0
 11
-291.3000004964815
 21
333.4546919258223
 31
0
  0
LINE
  8
1
 62
2
  6
DASHDOT
 10
-172.8000005446054
 20
343.9539993420601
 30
0
 11
-172.8000004046266
 21
327.9539993420601
 31
0
  0
LINE
  8
1
 62
2
  6
DASHDOT
 10
-167.3000004527444
 20
333.4539982878436
 30
0
 11
-178.3000004964876
 21
333.4539982878436
 31
0
  0
LINE
  8
1
 62
2
  6
DASHDOT
 10
-178.3000004964876
 20
338.4539982878436
 30
0
 11
-167.3000004964878
 21
338.4539982878436
 31
0
  0
ARC
  8
0
 62
7
 10
-266.619804530164
 20
79.67967579498443
 30
0
 40
4.249999997266002
 50
269.9999999631435
 51
359.9999995355954
  0
ARC
  8
0
 62
7
 10
-266.6198045301641
 20
79.67967580045229
 30
0
 40
4.249999997266116
 50
359.9999994618813
 51
90.00000003685494
  0
ARC
  8
0
 62
7
 10
-266.6198045328979
 20
79.6796757977184
 30
0
 40
4.249999999999943
 50
90
 51
270
  0
ARC
  8
0
 62
7
 10
-266.6198045543323
 20
79.67967577081618
 30
0
 40
5.000000026902058
 50
90.00000030827553
 51
179.9999991904614
  0
ARC
  8
0
 62
7
 10
-266.6198045543323
 20
79.67967582462049
 30
0
 40
5.000000026902114
 50
179.9999998070134
 51
269.9999996917245
  0
ARC
  8
0
 62
7
 10
-266.6198045812344
 20
79.67967579771835
 30
0
 40
4.999999999999915
 50
270
 51
90
  0
ARC
  8
0
 62
7
 10
-266.6198045301635
 20
16.04006548819507
 30
0
 40
4.249999997265949
 50
269.9999999631435
 51
359.9999995355954
  0
ARC
  8
0
 62
7
 10
-266.6198045301635
 20
16.04006549366301
 30
0
 40
4.249999997265888
 50
359.9999994618801
 51
90.00000003685646
  0
ARC
  8
0
 62
7
 10
-266.6198045328974
 20
16.04006549092907
 30
0
 40
4.24999999999994
 50
90
 51
270
  0
ARC
  8
0
 62
7
 10
-266.6198045543317
 20
16.04006546402678
 30
0
 40
5.000000026902168
 50
90.00000030827488
 51
179.9999991904607
  0
ARC
  8
0
 62
7
 10
-266.6198045543316
 20
16.04006551783118
 30
0
 40
5.000000026902171
 50
179.9999998070137
 51
269.9999996917239
  0
ARC
  8
0
 62
7
 10
-266.6198045812338
 20
16.04006549092901
 30
0
 40
5
 50
270
 51
90
  0
ARC
  8
0
 62
7
 10
-202.9801942233771
 20
16.04006548819581
 30
0
 40
4.249999997265951
 50
269.9999999200759
 51
359.9999995355962
  0
ARC
  8
0
 62
7
 10
-202.9801942233772
 20
16.04006549366375
 30
0
 40
4.249999997266002
 50
359.9999994618809
 51
89.99999999379045
  0
ARC
  8
0
 62
7
 10
-202.9801942261111
 20
16.04006549092981
 30
0
 40
4.24999999999994
 50
89.99999995693359
 51
269.999999956934
  0
ARC
  8
0
 62
7
 10
-202.9801942475455
 20
16.04006546402746
 30
0
 40
5.000000026902178
 50
90.00000026520935
 51
179.99999919046
  0
ARC
  8
0
 62
7
 10
-202.9801942475455
 20
16.04006551783198
 30
0
 40
5.0000000269022
 50
179.9999998070144
 51
269.9999996486581
  0
ARC
  8
0
 62
7
 10
-202.9801942744477
 20
16.04006549092969
 30
0
 40
4.999999999999938
 50
269.9999999569345
 51
89.99999995693287
  0
ARC
  8
0
 62
7
 10
-202.9801942233778
 20
79.67967579498503
 30
0
 40
4.249999997266002
 50
269.9999999200771
 51
359.9999995355954
  0
ARC
  8
0
 62
7
 10
-202.9801942233778
 20
79.67967580045303
 30
0
 40
4.249999997266002
 50
359.9999994618794
 51
89.99999999379045
  0
ARC
  8
0
 62
7
 10
-202.9801942261117
 20
79.67967579771903
 30
0
 40
4.25
 50
89.99999995693359
 51
269.999999956934
  0
ARC
  8
0
 62
7
 10
-202.9801942475461
 20
79.6796757708168
 30
0
 40
5.000000026902143
 50
90.00000026520935
 51
179.9999991904618
  0
ARC
  8
0
 62
7
 10
-202.980194247546
 20
79.67967582462123
 30
0
 40
5.0000000269022
 50
179.9999998070151
 51
269.9999996486564
  0
ARC
  8
0
 62
7
 10
-202.9801942744483
 20
79.67967579771897
 30
0
 40
4.999999999999943
 50
269.9999999569342
 51
89.99999995693287
  0
ARC
  8
0
 62
7
 10
-234.7999942366829
 20
47.85987064432405
 30
0
 40
5.999994745474309
 50
359.7442792043087
 51
0.2557207956913838
  0
ARC
  8
0
 62
7
 10
-234.7999953516172
 20
47.85987223661422
 30
0
 40
5.899998837791829
 50
26.38152000977758
 51
43.61843358981191
  0
ARC
  8
0
 62
7
 10
-234.7999943580781
 20
47.85987064526486
 30
0
 40
5.99999999906138
 50
89.11016932782447
 51
90.00004901828508
  0
ARC
  8
0
 62
7
 10
-234.7999953516176
 20
47.85987223661317
 30
0
 40
5.899997475119415
 50
206.3815504402514
 51
223.6184959601727
  0
ARC
  8
0
 62
7
 10
-234.799993672191
 20
47.85987103958362
 30
0
 40
5.900000078336001
 50
116.381568236101
 51
133.6184457281399
  0
ARC
  8
0
 62
7
 10
-234.799993672191
 20
47.85987103958362
 30
0
 40
5.899996234576495
 50
296.3815022138948
 51
313.6184838218399
  0
ARC
  8
0
 62
7
 10
-234.7999951160756
 20
47.85987263187514
 30
0
 40
6.577350269189624
 50
358.4245570886995
 51
1.57540852421474
  0
ARC
  8
0
 62
7
 10
-234.7999975794285
 20
47.85987012524339
 30
0
 40
5.999999871842218
 50
100.9978432656849
 51
169.9999723742207
  0
ARC
  8
0
 62
7
 10
-234.7999944858041
 20
47.85987257673324
 30
0
 40
6.000001932411278
 50
259.999992154859
 51
269.9999522014238
  0
ARC
  8
0
 62
7
 10
-234.7999974089181
 20
47.85984708083868
 30
0
 40
5.999997812556761
 50
350.0002440752157
 51
359.7445043520606
  0
ARC
  8
0
 62
7
 10
-234.7999993959013
 20
47.85987064432405
 30
0
 40
6.999999902975855
 50
357.6002488651752
 51
2.39975113482382
  0
ARC
  8
0
 62
7
 10
-234.799999446489
 20
47.85987069283618
 30
0
 40
6.999999951487934
 50
2.399750720757332
 51
90.00000038078441
  0
ARC
  8
0
 62
7
 10
-234.7999994930106
 20
47.85987064432408
 30
0
 40
7.00000000000005
 50
90
 51
270
  0
ARC
  8
0
 62
7
 10
-234.799994297589
 20
47.85987003981774
 30
0
 40
6.000000603496106
 50
77.61198520706287
 51
89.11016999517038
  0
ARC
  8
0
 62
7
 10
-234.8000000580329
 20
47.85987134588439
 30
0
 40
6.000000563635216
 50
0.2557138482450612
 51
77.61192880399204
  0
ARC
  8
0
 62
7
 10
-234.7999989797216
 20
47.85986991377024
 30
0
 40
5.999998529544851
 50
169.999968063482
 51
260.0000300008857
  0
ARC
  8
0
 62
7
 10
-234.7999942849138
 20
47.85987114554087
 30
0
 40
5.999999498785433
 50
90.00004971695684
 51
100.9978760069128
  0
ARC
  8
0
 62
7
 10
-234.7999971345888
 20
47.85987262180689
 30
0
 40
6.000001977483309
 50
269.9999774954466
 51
350.0000034273101
  0
ARC
  8
0
 62
7
 10
-234.7999994912609
 20
47.85987064432405
 30
0
 40
6.300000002624273
 50
0.9725877802475881
 51
359.0274122197522
  0
ARC
  8
0
 62
7
 10
-234.7999994921725
 20
47.85987064344994
 30
0
 40
6.99999999912589
 50
269.9999999931401
 51
357.6002489053179
  0
ARC
  8
0
 62
7
 10
-234.7999994912609
 20
47.85987064432405
 30
0
 40
6.81801488548978
 50
2.057668578444013
 51
357.9423314215557
  0
ARC
  8
0
 62
7
 10
-281.7999995957954
 20
140.8598706423889
 30
0
 40
3.000000001934694
 50
89.99999984153178
 51
116.2508334364352
  0
ARC
  8
0
 62
7
 10
-281.7999995855632
 20
140.859870647435
 30
0
 40
3.000000001934721
 50
116.2508336543268
 51
180.0000000594235
  0
ARC
  8
0
 62
7
 10
-283.7999995962467
 20
142.8598706443236
 30
0
 40
3
 50
90
 51
166.6911742671183
  0
ARC
  8
0
 62
7
 10
-283.799999612844
 20
142.8598705020611
 30
0
 40
3.000000016597253
 50
166.6911715501051
 51
179.9999972829868
  0
ARC
  8
0
 62
7
 10
-185.7999996118033
 20
142.8598706879693
 30
0
 40
3.000000005091891
 50
359.9999991664473
 51
13.3088248533206
  0
ARC
  8
0
 62
7
 10
-187.7999995855631
 20
140.8598706412131
 30
0
 40
2.999999998065107
 50
5.942354992954409e-008
 51
63.74916676423578
  0
ARC
  8
0
 62
7
 10
-187.7999995957956
 20
140.8598706462593
 30
0
 40
2.999999998065173
 50
63.74916654633739
 51
89.99999984152743
  0
ARC
  8
0
 62
7
 10
-185.7999996002745
 20
142.8598706392327
 30
0
 40
3.00000000509186
 50
13.30882580980932
 51
89.99999992307448
  0
ARC
  8
0
 62
7
 10
-283.7999996137389
 20
142.8598706443236
 30
0
 40
3.100000000000108
 50
90
 51
122.9958854735795
  0
ARC
  8
0
 62
7
 10
-281.7999996137398
 20
142.8598706443236
 30
0
 40
5
 50
90
 51
148.6677485024054
  0
ARC
  8
0
 62
7
 10
-187.7999996685916
 20
142.8598706154243
 30
0
 40
5.000000061880201
 50
3.311727432872488e-007
 51
31.33225145361253
  0
ARC
  8
0
 62
7
 10
-185.7999996137388
 20
142.8598706443236
 30
0
 40
3.099999999999992
 50
57.00411452642051
 51
90
  0
ARC
  8
0
 62
7
 10
-187.7999996288494
 20
142.8598706174359
 30
0
 40
5.000000026887689
 50
31.33225167073739
 51
89.99999982685667
  0
ARC
  8
0
 62
7
 10
-281.7999996215905
 20
142.8598706163304
 30
0
 40
5.000000007850648
 50
148.6677481816272
 51
179.9999996792216
  0
ARC
  8
0
 62
7
 10
-175.2999994379035
 20
-30.51943338824066
 30
0
 40
0.9999999999998863
 50
0
 51
45.0000000000046
  0
ARC
  8
0
 62
7
 10
-234.7999994326829
 20
47.89479141381582
 30
0
 40
12.5
 50
270.0000000239103
 51
90.00000002391012
  0
ARC
  8
0
 62
7
 10
-234.7999994326829
 20
47.89479141381582
 30
0
 40
12.5
 50
90.00000002391012
 51
270.0000000239103
  0
ARC
  8
0
 62
7
 10
-286.2999994379
 20
-19.69100626349928
 30
0
 40
1.000000000000089
 50
315
 51
0
  0
ARC
  8
0
 62
7
 10
-286.2999994379
 20
-16.10521982588477
 30
0
 40
1
 50
0
 51
90
  0
ARC
  8
0
 62
7
 10
-294.2999994378951
 20
-30.51943338824054
 30
0
 40
1.000000000000046
 50
135.0000000000163
 51
180
  0
ARC
  8
0
 62
7
 10
-183.2999994378987
 20
-16.10521982588477
 30
0
 40
1
 50
90
 51
180
  0
ARC
  8
0
 62
7
 10
-183.2999994378987
 20
-19.69100626349916
 30
0
 40
1
 50
180
 51
225.0000000000049
  0
ARC
  8
0
 62
7
 10
68.1039992022381
 20
-26.49012836507276
 30
0
 40
2
 50
0
 51
90
  0
ARC
  8
0
 62
7
 10
68.1039992022381
 20
-29.19012836507277
 30
0
 40
2
 50
270
 51
0
  0
ARC
  8
0
 62
7
 10
-18.5289057797078
 20
117.6464402114425
 30
0
 40
26.99999999999994
 50
8.22673648948086
 51
60.00000000000043
  0
ARC
  8
0
 62
7
 10
-18.53787406120043
 20
117.6596688443751
 30
0
 40
21.99302763573885
 50
8.223928858907401
 51
60.00881400612286
  0
ARC
  8
0
 62
7
 10
53.60400875816637
 20
128.3598808226965
 30
0
 40
29.99998665854793
 50
24.62430864710918
 51
29.99999226453186
  0
ARC
  8
0
 62
7
 10
53.60401184200381
 20
128.3598737802854
 30
0
 40
29.99998670348894
 50
10.56397626793009
 51
22.54031451858703
  0
ARC
  8
0
 62
7
 10
53.59377573175058
 20
128.4535526521822
 30
0
 40
29.99302206236291
 50
1.907155848018499
 51
10.38446911301907
  0
ARC
  8
0
 62
7
 10
53.60401119114275
 20
128.3598760763314
 30
0
 40
29.99998642447972
 50
22.54030999193589
 51
24.6243188237374
  0
ARC
  8
0
 62
7
 10
6.603996019400199
 20
-12.14012935567624
 30
0
 40
5.949999999999102
 50
90.00003140748463
 51
270.0000314074846
  0
ARC
  8
0
 62
7
 10
16.00705339708378
 20
-2.140129355674482
 30
0
 40
0.9999999999999902
 50
270.0000628148985
 51
8.232742865040521
  0
ARC
  8
0
 62
7
 10
11.60399928972478
 20
-12.14012935567445
 30
0
 40
4.94999999999996
 50
270
 51
90
  0
ARC
  8
0
 62
7
 10
11.60400254255202
 20
-12.14012935567266
 30
0
 40
5.949999999999085
 50
270.0000314074852
 51
90.00003140748484
  0
ARC
  8
0
 62
7
 10
-18.39600679693885
 20
116.8598706443222
 30
0
 40
10.99999999999835
 50
270.0000314074506
 51
90.00003140745072
  0
ARC
  8
0
 62
7
 10
-18.39594672344248
 20
116.8635463137854
 30
0
 40
17.00367566954575
 50
269.9998179084759
 51
88.31513504402643
  0
ARC
  8
0
 62
7
 10
6.603999289724783
 20
-12.14012935567439
 30
0
 40
4.950000000000003
 50
90
 51
270
  0
ARC
  8
0
 62
7
 10
-18.49884209594021
 20
117.6290829355275
 30
0
 40
17.99999999999994
 50
8.232742865031373
 51
60.00000000000028
  0
ARC
  8
0
 62
7
 10
-37.39600090274581
 20
-28.84012935567468
 30
0
 40
3
 50
180
 51
270
  0
ARC
  8
0
 62
7
 10
-18.39600679693885
 20
116.8598706443222
 30
0
 40
10.99999999999835
 50
90.00003140745072
 51
270.0000314074506
  0
ARC
  8
0
 62
7
 10
-18.39601008154506
 20
116.8598706443204
 30
0
 40
16.99999999999745
 50
90.00003140745046
 51
270.0000314074505
  0
ARC
  8
0
 62
7
 10
-18.1460102999302
 20
116.8580330458431
 30
0
 40
17.00367566954579
 50
89.15753612889672
 51
90.84246387334066
  0
ARC
  8
0
 62
7
 10
-28.3960007890129
 20
131.8598706443255
 30
0
 40
12.00000000000002
 50
90.0000628149011
 51
180
  0
ARC
  8
0
 62
7
 10
-32.39600076276722
 20
77.85987064432547
 30
0
 40
3.349999999999943
 50
202.3027580898216
 51
270.0000628149692
  0
ARC
  8
0
 62
7
 10
-32.39599967343816
 20
77.85987064432607
 30
0
 40
1.999999999999703
 50
90.00003140748467
 51
270.000031407485
  0
ARC
  8
0
 62
7
 10
-32.39599967343816
 20
77.85987064432607
 30
0
 40
1.999999999999703
 50
270.000031407485
 51
90.00003140748467
  0
ARC
  8
0
 62
7
 10
-32.39599892641778
 20
77.85987064432648
 30
0
 40
3.349999999999502
 50
270.0000314074849
 51
90.00003140748437
  0
ARC
  8
0
 62
7
 10
-32.39600076276722
 20
77.85987064432547
 30
0
 40
3.349999999999994
 50
90
 51
157.6972419101784
  0
ARC
  8
0
 62
7
 10
-36.49539212411531
 20
96.89478017411609
 30
0
 40
1.000000000000114
 50
0
 51
9.502490105477282
  0
ARC
  8
0
 62
7
 10
-30.39600074367772
 20
35.85985841403282
 30
0
 40
5.999999999999981
 50
228.5902013201219
 51
270
  0
ARC
  8
0
 62
7
 10
-42.4953911267626
 20
-34.14014059536311
 30
0
 40
1
 50
180
 51
270
  0
ARC
  8
0
 62
7
 10
6.603999273102488
 20
-12.14015635501839
 30
0
 40
6.000000000000044
 50
167.4864105387668
 51
270
  0
ARC
  8
0
 62
7
 10
6.603999273102488
 20
-12.14015635501839
 30
0
 40
6
 50
90
 51
167.4864105387668
  0
ARC
  8
0
 62
7
 10
11.60399927294458
 20
3.445645842263808
 30
0
 40
1
 50
0
 51
45.00000000000136
  0
ARC
  8
0
 62
7
 10
11.60399927294458
 20
-5.140156355018377
 30
0
 40
1
 50
270
 51
0
  0
ARC
  8
0
 62
7
 10
-13.81021329882461
 20
28.85985841403281
 30
0
 40
1.00000000000008
 50
45.00000000000194
 51
90
  0
ARC
  8
0
 62
7
 10
-42.4953911267626
 20
-34.14014059536311
 30
0
 40
3.000000000000433
 50
180.0000000000065
 51
269.9999999999917
  0
ARC
  8
0
 62
7
 10
-36.49539212411531
 20
-14.10521982588381
 30
0
 40
1
 50
270
 51
0
  0
ARC
  8
0
 62
7
 10
-17.49600072705542
 20
-19.14014059536044
 30
0
 40
4
 50
0
 51
90.00000000000688
  0
ARC
  8
0
 62
7
 10
61.08748410817108
 20
-35.0566557364622
 30
0
 40
0.08348485890090275
 50
179.999998515765
 51
269.9999996821081
  0
ARC
  8
0
 62
7
 10
-36.49539212411531
 20
96.89478017411609
 30
0
 40
0.9999999999999937
 50
9.502490105477282
 51
90
  0
ARC
  8
0
 62
7
 10
50.58978571057199
 20
-19.14015635501829
 30
0
 40
1.000000000000068
 50
44.99999999999885
 51
90
  0
ARC
  8
0
 62
7
 10
60.00399927294518
 20
-28.55436991739137
 30
0
 40
1
 50
0
 51
45.00000000000144
  0
ARC
  8
0
 62
7
 10
-30.39600074367772
 20
35.85985841403282
 30
0
 40
5.999999999999923
 50
211.7993617049479
 51
228.5902013201219
  0
ARC
  8
0
 62
7
 10
-235.1232653688213
 20
211.8625821321239
 30
0
 40
1.190884651807369
 50
354.7685790424722
 51
4.402565298927882
  0
ARC
  8
0
 62
7
 10
-234.7068152433228
 20
211.7539988006146
 30
0
 40
1.197003587961518
 50
5.012626731011135e-007
 51
9.618313060859277
  0
ARC
  8
0
 62
7
 10
-277.9609558719294
 20
236.7474496998064
 30
0
 40
8.839044147482825
 50
179.9824913437357
 51
187.759474970224
  0
ARC
  8
0
 62
7
 10
-191.6388601555559
 20
236.7501516001092
 30
0
 40
8.839227746119654
 50
352.2230172384573
 51
5.012613517107075e-007
  0
ARC
  8
0
 62
7
 10
-187.7999995087594
 20
225.5539992109875
 30
0
 40
3
 50
270.0000005012638
 51
5.01261660167305e-007
  0
ARC
  8
0
 62
7
 10
-281.7999995087567
 20
225.553998388611
 30
0
 40
3.000000000001819
 50
180.0000005012617
 51
270.0000005012122
  0
ARC
  8
0
 62
7
 10
-236.1500000520503
 20
287.6539987879887
 30
0
 40
2
 50
90.0000005012603
 51
180.0000005012611
  0
ARC
  8
0
 62
7
 10
-233.4500000520503
 20
287.6539988116101
 30
0
 40
2
 50
5.012611173526395e-007
 51
90.0000005012603
  0
ARC
  8
0
 62
7
 10
-269.300000560251
 20
316.553998377567
 30
0
 40
30.00000002341014
 50
110.4873150786356
 51
119.9999999122869
  0
ARC
  8
0
 62
7
 10
-269.3000003048863
 20
316.5539984979703
 30
0
 40
29.99999999999994
 50
100.4753143444911
 51
110.4873156159821
  0
ARC
  8
0
 62
7
 10
-269.393989020094
 20
316.5438081721663
 30
0
 40
29.99308038628329
 50
91.90042469858543
 51
100.2952206003945
  0
ARC
  8
0
 62
7
 10
-268.9190033842448
 20
316.5633380816922
 30
0
 40
29.99308038628352
 50
90.72783846926879
 51
92.80856590335566
  0
ARC
  8
0
 62
7
 10
-275.0713191271814
 20
259.8035643347005
 30
0
 40
9.221777734140201
 50
180.2136854339693
 51
191.778762126515
  0
ARC
  8
0
 62
7
 10
-200.3000003048863
 20
316.5539991016286
 30
0
 40
30.00000000000004
 50
69.51268538653649
 51
79.52468665803281
  0
ARC
  8
0
 62
7
 10
-200.3000003048863
 20
316.5539991016286
 30
0
 40
30
 50
87.91876896436195
 51
89.04502662747875
  0
ARC
  8
0
 62
7
 10
-200.3000003048492
 20
316.5539991016283
 30
0
 40
29.99999999999969
 50
89.04502662754963
 51
90.00000050133269
  0
ARC
  8
0
 62
7
 10
-200.3000003048863
 20
316.5539991016286
 30
0
 40
30.00000000000001
 50
79.52468665803281
 51
87.91876896436195
  0
ARC
  8
0
 62
7
 10
-200.3000000495226
 20
316.5539989812259
 30
0
 40
30.00000002340986
 50
60.00000109023182
 51
69.51268592388082
  0
ARC
  8
0
 62
7
 10
-194.5286804896106
 20
259.8035650393396
 30
0
 40
9.22177773413971
 50
348.2212388760123
 51
359.7863155685537
  0
ARC
  8
0
 62
7
 10
-285.8999996578597
 20
242.5966390575672
 30
0
 40
3
 50
180.0000005012617
 51
224.9999999999996
  0
ARC
  8
0
 62
7
 10
-296.7999996259866
 20
238.9539982572226
 30
0
 40
7.5
 50
90.00000050126283
 51
180.0000005012631
  0
ARC
  8
0
 62
7
 10
-287.9999996267419
 20
239.0397847769571
 30
0
 40
1
 50
5.012578604646456e-007
 51
44.9999999999954
  0
ARC
  8
0
 62
7
 10
-296.7999995472483
 20
229.9539982572228
 30
0
 40
7.5
 50
180.0000005012631
 51
270.0000005012632
  0
ARC
  8
0
 62
7
 10
-296.2999994728844
 20
221.4539982615972
 30
0
 40
1
 50
5.012627457966363e-007
 51
90.00000050126438
  0
ARC
  8
0
 62
7
 10
-296.8000004527382
 20
333.4539982572231
 30
0
 40
7.5
 50
180.0000005012629
 51
270.0000005012628
  0
ARC
  8
0
 62
7
 10
-296.8000004527382
 20
333.4539982572231
 30
0
 40
3.5
 50
180.0000005012621
 51
5.012648395103467e-007
  0
ARC
  8
0
 62
7
 10
-296.8000004964816
 20
338.4539982572231
 30
0
 40
3.5
 50
5.012648395103467e-007
 51
180.0000005012621
  0
ARC
  8
0
 62
7
 10
-296.8000004964816
 20
338.4539982572231
 30
0
 40
7.5
 50
90.00000050126504
 51
180.0000005012629
  0
ARC
  8
0
 62
7
 10
-285.8999996578597
 20
242.5966390575672
 30
0
 40
0.9999999999998863
 50
180.0000005012693
 51
205.8419332643566
  0
ARC
  8
0
 62
7
 10
-283.9999994825128
 20
222.5539983692064
 30
0
 40
1
 50
180.0000005012628
 51
270.0000005012578
  0
ARC
  8
0
 62
7
 10
-185.5999994825114
 20
222.553999230077
 30
0
 40
1
 50
270.0000005012578
 51
5.012627457966363e-007
  0
ARC
  8
0
 62
7
 10
-181.5999996267401
 20
239.0397856975674
 30
0
 40
1.000000000000088
 50
135.0000000000161
 51
180.0000005012579
  0
ARC
  8
0
 62
7
 10
-183.6999996578579
 20
242.596639915942
 30
0
 40
2.999999999999944
 50
314.9999999999969
 51
5.01263288611302e-007
  0
ARC
  8
0
 62
7
 10
-183.6999996578579
 20
242.596639915942
 30
0
 40
1.000000000000021
 50
334.1580677377938
 51
5.012627457966363e-007
  0
ARC
  8
0
 62
7
 10
-182.2999994641445
 20
220.4546088032478
 30
0
 40
3
 50
270.0000005012632
 51
5.01261660167305e-007
  0
ARC
  8
0
 62
7
 10
-182.2999994641445
 20
220.4546088032478
 30
0
 40
0.9999999999996021
 50
270.0000005012627
 51
5.012806586805596e-007
  0
ARC
  8
0
 62
7
 10
-287.2999994641459
 20
220.4546078846343
 30
0
 40
2.999999999999773
 50
180.0000005012638
 51
270.0000005012655
  0
ARC
  8
0
 62
7
 10
-173.2999994728926
 20
221.4539993376855
 30
0
 40
1
 50
90.00000050126275
 51
180.0000005012644
  0
ARC
  8
0
 62
7
 10
-172.7999995472563
 20
229.9539993420598
 30
0
 40
7.5
 50
270.0000005012624
 51
5.012615516043719e-007
  0
ARC
  8
0
 62
7
 10
-172.7999996259944
 20
238.9539993420596
 30
0
 40
7.5
 50
5.012615516043719e-007
 51
90.00000050126242
  0
ARC
  8
0
 62
7
 10
-185.099999478137
 20
222.0539992344509
 30
0
 40
2.499999999999602
 50
270.0000005012624
 51
5.012669797510283e-007
  0
ARC
  8
0
 62
7
 10
-172.8000004964877
 20
338.4539993420601
 30
0
 40
3.5
 50
5.012611173526395e-007
 51
180.000000501263
  0
ARC
  8
0
 62
7
 10
-172.8000004527443
 20
333.4539993420601
 30
0
 40
3.5
 50
180.000000501263
 51
5.012611173526395e-007
  0
ARC
  8
0
 62
7
 10
-172.8000004527443
 20
333.4539993420601
 30
0
 40
7.5
 50
270.0000005012627
 51
5.01262420107837e-007
  0
ARC
  8
0
 62
7
 10
-172.8000004964877
 20
338.4539993420601
 30
0
 40
7.5
 50
5.01262420107837e-007
 51
90.00000050126155
  0
ARC
  8
0
 62
7
 10
-287.2999994641459
 20
220.4546078846343
 30
0
 40
1
 50
180.00000050124
 51
270.0000005012709
  0
ARC
  8
0
 62
7
 10
-284.4999994781384
 20
222.0539983648316
 30
0
 40
2.5
 50
180.0000005012605
 51
270.0000005012624
  0
CIRCLE
  8
0
 62
7
 10
-266.6198045274301
 20
79.67967579771835
 30
0
 40
3.625
  0
CIRCLE
  8
0
 62
7
 10
-266.6198045274295
 20
16.04006549092901
 30
0
 40
3.625
  0
CIRCLE
  8
0
 62
7
 10
-202.9801942206432
 20
16.04006549092975
 30
0
 40
3.625000000000114
  0
CIRCLE
  8
0
 62
7
 10
-202.9801942206438
 20
79.67967579771903
 30
0
 40
3.625
  0
CIRCLE
  8
0
 62
7
 10
-234.7999993959013
 20
47.85987064432405
 30
0
 40
7.699999999999996
  0
CIRCLE
  8
0
 62
7
 10
-234.7999993959013
 20
47.85987064432405
 30
0
 40
10
  0
CIRCLE
  8
0
 62
7
 10
-234.7999993959013
 20
47.85987064432405
 30
0
 40
12
  0
CIRCLE
  8
0
 62
7
 10
-18.3960007715155
 20
116.8598706443255
 30
0
 40
8.5
  0
CIRCLE
  8
0
 62
7
 10
-18.3960007715155
 20
116.8598706443255
 30
0
 40
10.0000000131231
  0
CIRCLE
  8
0
 62
2
 10
-32.39600076276722
 20
77.85987064432547
 30
0
 40
2.5
  0
CIRCLE
  8
0
 62
7
 10
-296.7999995822432
 20
233.9539982572226
 30
0
 40
3.5
  0
CIRCLE
  8
0
 62
7
 10
-172.7999995822509
 20
233.9539993420595
 30
0
 40
3.5
  0
POLYLINE
  8
0
 62
7
 66
1
  0
VERTEX
  8
0
 10
-227.9863809010873
 20
47.61506728160023
 30
0
  0
VERTEX
  8
0
 10
-227.8962328905736
 20
47.59091219439773
 30
0
  0
VERTEX
  8
0
 10
-227.8511790968347
 20
47.57884006645648
 30
0
  0
VERTEX
  8
0
 10
-227.8061384090011
 20
47.56677145023184
 30
0
  0
SEQEND
  8
0
  0
POLYLINE
  8
0
 62
7
 66
1
  0
VERTEX
  8
0
 10
-227.8061384090011
 20
48.15296983841614
 30
0
  0
VERTEX
  8
0
 10
-227.8962328905736
 20
48.12882909425022
 30
0
  0
VERTEX
  8
0
 10
-227.9413000671712
 20
48.11675338038275
 30
0
  0
VERTEX
  8
0
 10
-227.9863809010873
 20
48.10467400704783
 30
0
  0
SEQEND
  8
0
  0
POLYLINE
  8
0
 62
7
 66
1
  0
VERTEX
  8
0
 10
-228.8000592507124
 20
47.88664955107035
 30
0
  0
VERTEX
  8
0
 10
-228.6504250837246
 20
47.92674390492334
 30
0
  0
VERTEX
  8
0
 10
-228.5756521242206
 20
47.94677925886226
 30
0
  0
VERTEX
  8
0
 10
-228.5009071262355
 20
47.96680712053473
 30
0
  0
SEQEND
  8
0
  0
POLYLINE
  8
0
 62
7
 66
1
  0
VERTEX
  8
0
 10
-228.5009071262355
 20
47.75293416811334
 30
0
  0
VERTEX
  8
0
 10
-228.6504250837246
 20
47.79299738372473
 30
0
  0
VERTEX
  8
0
 10
-228.725227102206
 20
47.81304052399325
 30
0
  0
VERTEX
  8
0
 10
-228.8000592507124
 20
47.83309173757775
 30
0
  0
SEQEND
  8
0
  0
POLYLINE
  8
0
 62
7
 66
1
  0
VERTEX
  8
0
 10
-284.7999995096608
 20
133.2175402036408
 30
0
  0
VERTEX
  8
0
 10
-284.7999995092225
 20
132.8342888075835
 30
0
  0
VERTEX
  8
0
 10
-284.7999995089459
 20
132.4784856956199
 30
0
  0
VERTEX
  8
0
 10
-284.7999995088013
 20
132.1527924478374
 30
0
  0
VERTEX
  8
0
 10
-284.7999995087597
 20
131.8598706443236
 30
0
  0
SEQEND
  8
0
  0
POLYLINE
  8
0
 62
7
 66
1
  0
VERTEX
  8
0
 10
-184.7999995096608
 20
133.2175402036491
 30
0
  0
VERTEX
  8
0
 10
-184.7999995092225
 20
132.8342888075896
 30
0
  0
VERTEX
  8
0
 10
-184.7999995089458
 20
132.478485695624
 30
0
  0
VERTEX
  8
0
 10
-184.7999995088013
 20
132.1527924478398
 30
0
  0
VERTEX
  8
0
 10
-184.7999995087597
 20
131.8598706443245
 30
0
  0
SEQEND
  8
0
  0
POLYLINE
  8
0
 62
7
 66
1
  0
VERTEX
  8
0
 10
-284.799999587498
 20
140.8598706443236
 30
0
  0
VERTEX
  8
0
 10
-284.7999995645757
 20
140.4700473849559
 30
0
  0
VERTEX
  8
0
 10
-284.7999995584419
 20
140.224768597182
 30
0
  0
VERTEX
  8
0
 10
-284.7999995479408
 20
139.6417085057698
 30
0
  0
VERTEX
  8
0
 10
-284.7999995397707
 20
139.0180790703915
 30
0
  0
VERTEX
  8
0
 10
-284.7999995339021
 20
138.453201103671
 30
0
  0
VERTEX
  8
0
 10
-284.7999995318217
 20
138.2238316750025
 30
0
  0
VERTEX
  8
0
 10
-284.7999995282555
 20
137.7888791737582
 30
0
  0
VERTEX
  8
0
 10
-284.7999995236549
 20
137.1277598266055
 30
0
  0
VERTEX
  8
0
 10
-284.7999995187121
 20
136.2396319196216
 30
0
  0
VERTEX
  8
0
 10
-284.7999995141192
 20
135.1236537388837
 30
0
  0
VERTEX
  8
0
 10
-284.7999995121702
 20
134.479957760256
 30
0
  0
VERTEX
  8
0
 10
-284.7999995096608
 20
133.2175402036408
 30
0
  0
SEQEND
  8
0
  0
POLYLINE
  8
0
 62
7
 66
1
  0
VERTEX
  8
0
 10
-182.7999997528232
 20
133.2175402036464
 30
0
  0
VERTEX
  8
0
 10
-182.7999997604271
 20
132.6829518908706
 30
0
  0
VERTEX
  8
0
 10
-182.7999997701527
 20
131.8921601820899
 30
0
  0
VERTEX
  8
0
 10
-182.79999978124
 20
130.8193929429699
 30
0
  0
VERTEX
  8
0
 10
-182.799999792929
 20
129.4388780391763
 30
0
  0
VERTEX
  8
0
 10
-182.7999998044597
 20
127.7248433363749
 30
0
  0
VERTEX
  8
0
 10
-182.799999806744
 20
127.3286486184939
 30
0
  0
VERTEX
  8
0
 10
-182.7999998121516
 20
126.287139575706
 30
0
  0
VERTEX
  8
0
 10
-182.7999998180463
 20
124.9249302681955
 30
0
  0
VERTEX
  8
0
 10
-182.7999998236699
 20
123.2557717495369
 30
0
  0
VERTEX
  8
0
 10
-182.7999998282642
 20
121.2934150733044
 30
0
  0
VERTEX
  8
0
 10
-182.7999998299384
 20
120.2065846303399
 30
0
  0
SEQEND
  8
0
  0
POLYLINE
  8
0
 62
7
 66
1
  0
VERTEX
  8
0
 10
-184.799999587498
 20
140.8598706443245
 30
0
  0
VERTEX
  8
0
 10
-184.7999995645756
 20
140.4700473849567
 30
0
  0
VERTEX
  8
0
 10
-184.7999995584418
 20
140.2247685971828
 30
0
  0
VERTEX
  8
0
 10
-184.7999995479408
 20
139.6417085057707
 30
0
  0
VERTEX
  8
0
 10
-184.7999995397707
 20
139.0180790703925
 30
0
  0
VERTEX
  8
0
 10
-184.799999533902
 20
138.453201103672
 30
0
  0
VERTEX
  8
0
 10
-184.7999995318216
 20
138.2238316750034
 30
0
  0
VERTEX
  8
0
 10
-184.7999995282554
 20
137.788879173759
 30
0
  0
VERTEX
  8
0
 10
-184.7999995236548
 20
137.1277598266064
 30
0
  0
VERTEX
  8
0
 10
-184.799999518712
 20
136.2396319196225
 30
0
  0
VERTEX
  8
0
 10
-184.7999995141191
 20
135.1236537388846
 30
0
  0
VERTEX
  8
0
 10
-184.7999995121702
 20
134.4799577602569
 30
0
  0
VERTEX
  8
0
 10
-184.7999995096608
 20
133.2175402036491
 30
0
  0
SEQEND
  8
0
  0
POLYLINE
  8
0
 62
7
 66
1
  0
VERTEX
  8
0
 10
-179.7999998937003
 20
-18.09012935567534
 30
0
  0
VERTEX
  8
0
 10
-179.7999998833691
 20
-17.98401782709808
 30
0
  0
VERTEX
  8
0
 10
-179.7999998774277
 20
-17.82834687507129
 30
0
  0
VERTEX
  8
0
 10
-179.7999998729682
 20
-17.63849025168207
 30
0
  0
VERTEX
  8
0
 10
-179.7999998697786
 20
-17.45148988144397
 30
0
  0
VERTEX
  8
0
 10
-179.7999998676665
 20
-17.30481634749108
 30
0
  0
VERTEX
  8
0
 10
-179.7999998662134
 20
-17.19711135651941
 30
0
  0
VERTEX
  8
0
 10
-179.799999863945
 20
-17.02253078500867
 30
0
  0
VERTEX
  8
0
 10
-179.7999998603944
 20
-16.72921599254551
 30
0
  0
VERTEX
  8
0
 10
-179.7999998565147
 20
-16.33659062142347
 30
0
  0
VERTEX
  8
0
 10
-179.7999998528447
 20
-15.84987586706019
 30
0
  0
VERTEX
  8
0
 10
-179.799999849844
 20
-15.34941654885291
 30
0
  0
VERTEX
  8
0
 10
-179.7999998485689
 20
-15.10521982588477
 30
0
  0
SEQEND
  8
0
  0
POLYLINE
  8
0
 62
7
 66
1
  0
VERTEX
  8
0
 10
-286.7999998299384
 20
120.2065846303388
 30
0
  0
VERTEX
  8
0
 10
-286.7999998261431
 20
122.3103837402696
 30
0
  0
VERTEX
  8
0
 10
-286.7999998209394
 20
124.1278602194129
 30
0
  0
VERTEX
  8
0
 10
-286.7999998150854
 20
125.6452630141942
 30
0
  0
VERTEX
  8
0
 10
-286.7999998093395
 20
126.8488410710394
 30
0
  0
VERTEX
  8
0
 10
-286.7999998044596
 20
127.7248433363737
 30
0
  0
VERTEX
  8
0
 10
-286.7999997987615
 20
128.6251614210455
 30
0
  0
VERTEX
  8
0
 10
-286.7999997870567
 20
130.1692147075501
 30
0
  0
VERTEX
  8
0
 10
-286.7999997755736
 20
131.3926342622148
 30
0
  0
VERTEX
  8
0
 10
-286.7999997650721
 20
132.3211922193737
 30
0
  0
VERTEX
  8
0
 10
-286.7999997563125
 20
132.9806607133614
 30
0
  0
VERTEX
  8
0
 10
-286.7999997528232
 20
133.2175402036453
 30
0
  0
SEQEND
  8
0
  0
POLYLINE
  8
0
 62
7
 66
1
  0
VERTEX
  8
0
 10
-286.7999998194637
 20
-15.14014059536447
 30
0
  0
VERTEX
  8
0
 10
-286.7999998209475
 20
-15.58286035938735
 30
0
  0
VERTEX
  8
0
 10
-286.7999998223847
 20
-15.95554034177549
 30
0
  0
VERTEX
  8
0
 10
-286.7999998236721
 20
-16.25476414226572
 30
0
  0
VERTEX
  8
0
 10
-286.7999998242272
 20
-16.37576234921687
 30
0
  0
VERTEX
  8
0
 10
-286.799999827549
 20
-17.02145905405949
 30
0
  0
VERTEX
  8
0
 10
-286.7999998310527
 20
-17.59202161679944
 30
0
  0
VERTEX
  8
0
 10
-286.7999998346242
 20
-18.09012935567648
 30
0
  0
SEQEND
  8
0
  0
POLYLINE
  8
0
 62
7
 66
1
  0
VERTEX
  8
0
 10
-286.7999998346242
 20
-18.09012935567648
 30
0
  0
VERTEX
  8
0
 10
-286.7999998381771
 20
-18.52502746208918
 30
0
  0
VERTEX
  8
0
 10
-286.7999998413765
 20
-18.87383416561788
 30
0
  0
VERTEX
  8
0
 10
-286.7999998441415
 20
-19.14378402056314
 30
0
  0
VERTEX
  8
0
 10
-286.799999846391
 20
-19.34211158122549
 30
0
  0
VERTEX
  8
0
 10
-286.7999998480437
 20
-19.47605140190547
 30
0
  0
VERTEX
  8
0
 10
-286.7999998488442
 20
-19.53811620368813
 30
0
  0
VERTEX
  8
0
 10
-286.7999998501888
 20
-19.64102495043521
 30
0
  0
VERTEX
  8
0
 10
-286.7999998525252
 20
-19.8149734837445
 30
0
  0
VERTEX
  8
0
 10
-286.7999998556197
 20
-20.03272281726368
 30
0
  0
VERTEX
  8
0
 10
-286.7999998592826
 20
-20.27015406607435
 30
0
  0
VERTEX
  8
0
 10
-286.7999998633234
 20
-20.50314834525806
 30
0
  0
VERTEX
  8
0
 10
-286.7999998697608
 20
-20.78516445010169
 30
0
  0
VERTEX
  8
0
 10
-286.7999998792043
 20
-21.00552490506226
 30
0
  0
VERTEX
  8
0
 10
-286.7999998937004
 20
-21.14012935567649
 30
0
  0
SEQEND
  8
0
  0
POLYLINE
  8
0
 62
7
 66
1
  0
VERTEX
  8
0
 10
-286.8000000086728
 20
-21.60522039664494
 30
0
  0
VERTEX
  8
0
 10
-286.8000000080782
 20
-21.5105569275219
 30
0
  0
VERTEX
  8
0
 10
-286.8000000073872
 20
-21.42399816216825
 30
0
  0
VERTEX
  8
0
 10
-286.8000000070071
 20
-21.38408883473835
 30
0
 42
-3.374159012806178e-007
  0
VERTEX
  8
0
 10
-286.7999998937004
 20
-21.14012935567649
 30
0
  0
SEQEND
  8
0
  0
POLYLINE
  8
0
 62
7
 66
1
  0
VERTEX
  8
0
 10
-290.7999998937005
 20
-7.190129355676447
 30
0
  0
VERTEX
  8
0
 10
-290.799999885728
 20
-7.264155128602154
 30
0
  0
VERTEX
  8
0
 10
-290.7999998772652
 20
-7.519652788323635
 30
0
  0
VERTEX
  8
0
 10
-290.7999998703436
 20
-7.970479342878305
 30
0
  0
VERTEX
  8
0
 10
-290.7999998625795
 20
-8.640152124009726
 30
0
  0
VERTEX
  8
0
 10
-290.799999859148
 20
-9.102917766019957
 30
0
  0
VERTEX
  8
0
 10
-290.799999857022
 20
-9.488675926187698
 30
0
  0
VERTEX
  8
0
 10
-290.7999998558769
 20
-9.727662386391843
 30
0
  0
VERTEX
  8
0
 10
-290.7999998537123
 20
-10.21546014882771
 30
0
  0
VERTEX
  8
0
 10
-290.7999998515876
 20
-10.83822062590247
 30
0
  0
VERTEX
  8
0
 10
-290.799999850649
 20
-11.38615947855345
 30
0
  0
VERTEX
  8
0
 10
-290.7999998504135
 20
-11.81752566035521
 30
0
  0
VERTEX
  8
0
 10
-290.7999998503945
 20
-12.09106365731358
 30
0
  0
VERTEX
  8
0
 10
-290.7999998504329
 20
-12.47631871579345
 30
0
  0
VERTEX
  8
0
 10
-290.7999998507019
 20
-12.93253699306066
 30
0
  0
VERTEX
  8
0
 10
-290.7999998525216
 20
-13.77171056413645
 30
0
  0
VERTEX
  8
0
 10
-290.7999998555399
 20
-14.48038624296597
 30
0
  0
VERTEX
  8
0
 10
-290.7999998594229
 20
-15.22036559063085
 30
0
  0
VERTEX
  8
0
 10
-290.799999864728
 20
-15.85320940898525
 30
0
  0
VERTEX
  8
0
 10
-290.7999998700023
 20
-16.28362124561178
 30
0
  0
VERTEX
  8
0
 10
-290.7999998727428
 20
-16.4861406834425
 30
0
  0
VERTEX
  8
0
 10
-290.7999998772658
 20
-16.7542056290485
 30
0
  0
VERTEX
  8
0
 10
-290.7999998851055
 20
-17.00185349841742
 30
0
  0
VERTEX
  8
0
 10
-290.7999998937004
 20
-17.09012935567648
 30
0
  0
SEQEND
  8
0
  0
POLYLINE
  8
0
 62
7
 66
1
  0
VERTEX
  8
0
 10
-289.799999848569
 20
-15.10521982588477
 30
0
  0
VERTEX
  8
0
 10
-289.799999851266
 20
-15.59912684892167
 30
0
  0
VERTEX
  8
0
 10
-289.799999854591
 20
-16.09718874423796
 30
0
  0
VERTEX
  8
0
 10
-289.7999998586262
 20
-16.56360663958711
 30
0
  0
VERTEX
  8
0
 10
-289.7999998621964
 20
-16.8827862044421
 30
0
  0
VERTEX
  8
0
 10
-289.7999998655537
 20
-17.14666324398371
 30
0
  0
VERTEX
  8
0
 10
-289.7999998668955
 20
-17.24840186323317
 30
0
  0
VERTEX
  8
0
 10
-289.7999998685938
 20
-17.37063639266824
 30
0
  0
VERTEX
  8
0
 10
-289.799999871228
 20
-17.5423179146382
 30
0
  0
VERTEX
  8
0
 10
-289.799999875026
 20
-17.73537665201605
 30
0
  0
VERTEX
  8
0
 10
-289.7999998802001
 20
-17.91277068028825
 30
0
  0
VERTEX
  8
0
 10
-289.799999887466
 20
-18.04248666581286
 30
0
  0
VERTEX
  8
0
 10
-289.7999998937004
 20
-18.09012935567648
 30
0
  0
SEQEND
  8
0
  0
POLYLINE
  8
0
 62
7
 66
1
  0
VERTEX
  8
0
 10
-178.7999998937004
 20
-17.09012935567546
 30
0
  0
VERTEX
  8
0
 10
-178.7999998851055
 20
-17.00185349841622
 30
0
  0
VERTEX
  8
0
 10
-178.7999998772658
 20
-16.75420562904729
 30
0
  0
VERTEX
  8
0
 10
-178.7999998727428
 20
-16.48614068344129
 30
0
  0
VERTEX
  8
0
 10
-178.7999998700023
 20
-16.28362124561063
 30
0
  0
VERTEX
  8
0
 10
-178.7999998647281
 20
-15.85320940898416
 30
0
  0
VERTEX
  8
0
 10
-178.7999998594229
 20
-15.22036559062999
 30
0
  0
VERTEX
  8
0
 10
-178.7999998555398
 20
-14.48038624296485
 30
0
  0
VERTEX
  8
0
 10
-178.7999998525215
 20
-13.77171056413542
 30
0
  0
VERTEX
  8
0
 10
-178.7999998507019
 20
-12.93253699305973
 30
0
  0
VERTEX
  8
0
 10
-178.7999998504329
 20
-12.47631871579249
 30
0
  0
VERTEX
  8
0
 10
-178.7999998503945
 20
-12.09106365731256
 30
0
  0
VERTEX
  8
0
 10
-178.7999998504135
 20
-11.81752566035406
 30
0
  0
VERTEX
  8
0
 10
-178.799999850649
 20
-11.38615947855239
 30
0
  0
VERTEX
  8
0
 10
-178.7999998515876
 20
-10.83822062590156
 30
0
  0
VERTEX
  8
0
 10
-178.7999998537123
 20
-10.21546014882669
 30
0
  0
VERTEX
  8
0
 10
-178.7999998558769
 20
-9.727662386390685
 30
0
  0
VERTEX
  8
0
 10
-178.799999857022
 20
-9.488675926186476
 30
0
  0
VERTEX
  8
0
 10
-178.799999859148
 20
-9.102917766018789
 30
0
  0
VERTEX
  8
0
 10
-178.7999998625795
 20
-8.640152124008651
 30
0
  0
VERTEX
  8
0
 10
-178.7999998703436
 20
-7.970479342877382
 30
0
  0
VERTEX
  8
0
 10
-178.7999998772652
 20
-7.519652788322537
 30
0
  0
VERTEX
  8
0
 10
-178.799999885728
 20
-7.26415512860102
 30
0
  0
VERTEX
  8
0
 10
-178.7999998937005
 20
-7.190129355675367
 30
0
  0
SEQEND
  8
0
  0
POLYLINE
  8
0
 62
7
 66
1
  0
VERTEX
  8
0
 10
-182.8000000012809
 20
-21.14012935567547
 30
0
  0
VERTEX
  8
0
 10
-182.8000000070072
 20
-21.38408883473738
 30
0
  0
VERTEX
  8
0
 10
-182.8000000073872
 20
-21.42399797148154
 30
0
  0
VERTEX
  8
0
 10
-182.8000000080782
 20
-21.51055629534327
 30
0
  0
VERTEX
  8
0
 10
-182.8000000086728
 20
-21.60521925509835
 30
0
  0
SEQEND
  8
0
  0
POLYLINE
  8
0
 62
7
 66
1
  0
VERTEX
  8
0
 10
-182.7999998937004
 20
-18.09012935567546
 30
0
  0
VERTEX
  8
0
 10
-182.7999998684241
 20
-18.52502746208814
 30
0
  0
VERTEX
  8
0
 10
-182.799999854137
 20
-18.87383416561686
 30
0
  0
VERTEX
  8
0
 10
-182.7999998479224
 20
-19.14378402056213
 30
0
  0
VERTEX
  8
0
 10
-182.7999998468636
 20
-19.34211158122449
 30
0
  0
VERTEX
  8
0
 10
-182.7999998480438
 20
-19.47605140190446
 30
0
  0
VERTEX
  8
0
 10
-182.7999998488442
 20
-19.53811620368708
 30
0
  0
VERTEX
  8
0
 10
-182.7999998501887
 20
-19.64102495043412
 30
0
  0
VERTEX
  8
0
 10
-182.7999998525252
 20
-19.81497348374342
 30
0
  0
VERTEX
  8
0
 10
-182.7999998556198
 20
-20.03272281726265
 30
0
  0
VERTEX
  8
0
 10
-182.7999998592825
 20
-20.27015406607336
 30
0
  0
VERTEX
  8
0
 10
-182.7999998633233
 20
-20.50314834525711
 30
0
  0
VERTEX
  8
0
 10
-182.7999998697607
 20
-20.78516445010072
 30
0
  0
VERTEX
  8
0
 10
-182.7999998792043
 20
-21.00552490506127
 30
0
 42
-6.299905168265857e-007
  0
VERTEX
  8
0
 10
-182.8000000012809
 20
-21.14012935567547
 30
0
  0
SEQEND
  8
0
  0
POLYLINE
  8
0
 62
7
 66
1
  0
VERTEX
  8
0
 10
-182.7999998194637
 20
-15.14014059536447
 30
0
  0
VERTEX
  8
0
 10
-182.7999998209474
 20
-15.5828603593869
 30
0
  0
VERTEX
  8
0
 10
-182.7999998223847
 20
-15.95554034177474
 30
0
  0
VERTEX
  8
0
 10
-182.7999998236721
 20
-16.25476414226477
 30
0
  0
VERTEX
  8
0
 10
-182.7999998242272
 20
-16.37576234921585
 30
0
  0
VERTEX
  8
0
 10
-182.7999998297369
 20
-17.02145905405849
 30
0
  0
VERTEX
  8
0
 10
-182.7999998485567
 20
-17.59202161679842
 30
0
  0
VERTEX
  8
0
 10
-182.7999998937004
 20
-18.09012935567546
 30
0
  0
SEQEND
  8
0
  0
POLYLINE
  8
0
 62
7
 66
1
  0
VERTEX
  8
0
 10
-295.2999994641415
 20
-37.14014059536447
 30
0
  0
VERTEX
  8
0
 10
-295.2999994565007
 20
-37.01019950890844
 30
0
  0
VERTEX
  8
0
 10
-295.2999994559441
 20
-36.99014569031981
 30
0
  0
VERTEX
  8
0
 10
-295.2999994544515
 20
-36.92842720880419
 30
0
  0
VERTEX
  8
0
 10
-295.2999994525511
 20
-36.83189664305081
 30
0
  0
VERTEX
  8
0
 10
-295.2999994503609
 20
-36.69335684291566
 30
0
  0
VERTEX
  8
0
 10
-295.2999994479987
 20
-36.50561065825474
 30
0
  0
VERTEX
  8
0
 10
-295.2999994455827
 20
-36.26146093892407
 30
0
  0
VERTEX
  8
0
 10
-295.2999994440003
 20
-36.06365388376936
 30
0
  0
VERTEX
  8
0
 10
-295.2999994413388
 20
-35.62563766006313
 30
0
  0
VERTEX
  8
0
 10
-295.2999994393964
 20
-35.14014059536407
 30
0
  0
SEQEND
  8
0
  0
POLYLINE
  8
0
 62
7
 66
1
  0
VERTEX
  8
0
 10
-174.2999994641497
 20
-37.14014059536447
 30
0
  0
VERTEX
  8
0
 10
-174.2999994565089
 20
-37.01019950890844
 30
0
  0
VERTEX
  8
0
 10
-174.2999994559524
 20
-36.99014569031981
 30
0
  0
VERTEX
  8
0
 10
-174.2999994544597
 20
-36.92842720880419
 30
0
  0
VERTEX
  8
0
 10
-174.2999994525593
 20
-36.83189664305081
 30
0
  0
VERTEX
  8
0
 10
-174.2999994503691
 20
-36.69335684291566
 30
0
  0
VERTEX
  8
0
 10
-174.299999448007
 20
-36.50561065825474
 30
0
  0
VERTEX
  8
0
 10
-174.2999994455909
 20
-36.26146093892407
 30
0
  0
VERTEX
  8
0
 10
-174.2999994440085
 20
-36.06365388376936
 30
0
  0
VERTEX
  8
0
 10
-174.299999441347
 20
-35.62563766006313
 30
0
  0
VERTEX
  8
0
 10
-174.2999994394046
 20
-35.14014059536407
 30
0
  0
SEQEND
  8
0
  0
POLYLINE
  8
0
 62
7
 66
1
  0
VERTEX
  8
0
 10
-174.2999994394046
 20
-35.14014059536407
 30
0
  0
VERTEX
  8
0
 10
-174.2999994390404
 20
-35.01350296734188
 30
0
  0
VERTEX
  8
0
 10
-174.2999994384048
 20
-34.72363272408862
 30
0
  0
VERTEX
  8
0
 10
-174.2999994379035
 20
-34.14014059536447
 30
0
  0
SEQEND
  8
0
  0
POLYLINE
  8
0
 62
7
 66
1
  0
VERTEX
  8
0
 10
-295.2999994393964
 20
-35.14014059536407
 30
0
  0
VERTEX
  8
0
 10
-295.2999994390322
 20
-35.01350296734188
 30
0
  0
VERTEX
  8
0
 10
-295.2999994383966
 20
-34.72363272408862
 30
0
  0
VERTEX
  8
0
 10
-295.2999994378953
 20
-34.14014059536447
 30
0
  0
SEQEND
  8
0
  0
POLYLINE
  8
0
 62
7
 66
1
  0
VERTEX
  8
0
 10
-182.6999997178512
 20
-19.14014059536135
 30
0
  0
VERTEX
  8
0
 10
-182.699999717617
 20
-18.67816306671855
 30
0
  0
VERTEX
  8
0
 10
-182.699999717046
 20
-18.28698752813388
 30
0
  0
VERTEX
  8
0
 10
-182.6999997163354
 20
-17.97565743272457
 30
0
  0
VERTEX
  8
0
 10
-182.6999997154686
 20
-17.68938601232239
 30
0
  0
VERTEX
  8
0
 10
-182.6999997134258
 20
-17.19314725752156
 30
0
  0
VERTEX
  8
0
 10
-182.699999711228
 20
-16.79835559789839
 30
0
  0
VERTEX
  8
0
 10
-182.6999997091836
 20
-16.50466101006039
 30
0
  0
VERTEX
  8
0
 10
-182.6999997076014
 20
-16.31171347061508
 30
0
  0
VERTEX
  8
0
 10
-182.6999997054946
 20
-16.08985228067439
 30
0
  0
VERTEX
  8
0
 10
-182.699999700861
 20
-15.71016604039557
 30
0
  0
VERTEX
  8
0
 10
-182.6999996957491
 20
-15.42149169661743
 30
0
  0
VERTEX
  8
0
 10
-182.6999996930442
 20
-15.31339537730258
 30
0
  0
VERTEX
  8
0
 10
-182.6999996828564
 20
-15.14014059536135
 30
0
  0
SEQEND
  8
0
  0
POLYLINE
  8
0
 62
7
 66
1
  0
VERTEX
  8
0
 10
-180.6999997178512
 20
-19.14014059536135
 30
0
  0
VERTEX
  8
0
 10
-180.699999717617
 20
-18.67816306671855
 30
0
  0
VERTEX
  8
0
 10
-180.699999717046
 20
-18.28698752813388
 30
0
  0
VERTEX
  8
0
 10
-180.6999997163354
 20
-17.97565743272457
 30
0
  0
VERTEX
  8
0
 10
-180.6999997154686
 20
-17.68938601232239
 30
0
  0
VERTEX
  8
0
 10
-180.6999997134258
 20
-17.19314725752156
 30
0
  0
VERTEX
  8
0
 10
-180.699999711228
 20
-16.79835559789839
 30
0
  0
VERTEX
  8
0
 10
-180.6999997091837
 20
-16.50466101006039
 30
0
  0
VERTEX
  8
0
 10
-180.6999997076014
 20
-16.31171347061508
 30
0
  0
VERTEX
  8
0
 10
-180.6999997054946
 20
-16.08985228067439
 30
0
  0
VERTEX
  8
0
 10
-180.699999700861
 20
-15.71016604039557
 30
0
  0
VERTEX
  8
0
 10
-180.6999996957491
 20
-15.42149169661743
 30
0
  0
VERTEX
  8
0
 10
-180.6999996930442
 20
-15.31339537730258
 30
0
 42
-1.232401846515024e-007
  0
VERTEX
  8
0
 10
-180.6999996578583
 20
-15.14014059536169
 30
0
  0
SEQEND
  8
0
  0
POLYLINE
  8
0
 62
7
 66
1
  0
VERTEX
  8
0
 10
-286.8999997178531
 20
-19.14014059536135
 30
0
  0
VERTEX
  8
0
 10
-286.8999997176795
 20
-18.74221546933119
 30
0
  0
VERTEX
  8
0
 10
-286.8999997169749
 20
-18.24965557368042
 30
0
  0
VERTEX
  8
0
 10
-286.8999997163373
 20
-17.97565743272457
 30
0
  0
VERTEX
  8
0
 10
-286.8999997137168
 20
-17.25369560854474
 30
0
  0
VERTEX
  8
0
 10
-286.8999997099168
 20
-16.60357977608325
 30
0
  0
VERTEX
  8
0
 10
-286.8999997076032
 20
-16.31171347061508
 30
0
  0
VERTEX
  8
0
 10
-286.8999997051204
 20
-16.05383911998618
 30
0
  0
VERTEX
  8
0
 10
-286.8999997013061
 20
-15.74107625381406
 30
0
  0
VERTEX
  8
0
 10
-286.8999996961411
 20
-15.43942687867712
 30
0
  0
VERTEX
  8
0
 10
-286.8999996930459
 20
-15.31339537730258
 30
0
  0
VERTEX
  8
0
 10
-286.8999996828582
 20
-15.14014059536135
 30
0
  0
SEQEND
  8
0
  0
POLYLINE
  8
0
 62
7
 66
1
  0
VERTEX
  8
0
 10
-288.8999997178531
 20
-19.14014059536135
 30
0
  0
VERTEX
  8
0
 10
-288.8999997176795
 20
-18.74221546933119
 30
0
  0
VERTEX
  8
0
 10
-288.8999997169749
 20
-18.24965557368042
 30
0
  0
VERTEX
  8
0
 10
-288.8999997163373
 20
-17.97565743272457
 30
0
  0
VERTEX
  8
0
 10
-288.8999997137169
 20
-17.25369560854474
 30
0
  0
VERTEX
  8
0
 10
-288.8999997099168
 20
-16.60357977608325
 30
0
  0
VERTEX
  8
0
 10
-288.8999997076032
 20
-16.31171347061508
 30
0
  0
VERTEX
  8
0
 10
-288.8999997051204
 20
-16.05383911998618
 30
0
  0
VERTEX
  8
0
 10
-288.8999997013061
 20
-15.74107625381406
 30
0
  0
VERTEX
  8
0
 10
-288.899999696141
 20
-15.43942687867712
 30
0
  0
VERTEX
  8
0
 10
-288.8999996930459
 20
-15.31339537730258
 30
0
 42
-1.232393644228251e-007
  0
VERTEX
  8
0
 10
-288.8999996578601
 20
-15.14014059536169
 30
0
  0
SEQEND
  8
0
  0
POLYLINE
  8
0
 62
7
 66
1
  0
VERTEX
  8
0
 10
66.05399921627448
 20
-31.34012935565126
 30
0
  0
VERTEX
  8
0
 10
66.05399921697385
 20
-31.30231057137434
 30
0
  0
VERTEX
  8
0
 10
66.05399921770125
 20
-31.26055325054974
 30
0
  0
VERTEX
  8
0
 10
66.05399921845367
 20
-31.21467263970858
 30
0
  0
VERTEX
  8
0
 10
66.0539992188383
 20
-31.19012836507275
 30
0
  0
SEQEND
  8
0
  0
POLYLINE
  8
0
 62
7
 66
1
  0
VERTEX
  8
0
 10
65.60399925399466
 20
-28.84012935567498
 30
0
  0
VERTEX
  8
0
 10
65.60399925435365
 20
-28.55613973644182
 30
0
  0
VERTEX
  8
0
 10
65.60399925457882
 20
-28.29328287884159
 30
0
  0
VERTEX
  8
0
 10
65.60399925469542
 20
-28.05384925965817
 30
0
  0
VERTEX
  8
0
 10
65.60399925472868
 20
-27.84012935567543
 30
0
  0
SEQEND
  8
0
  0
POLYLINE
  8
0
 62
7
 66
1
  0
VERTEX
  8
0
 10
70.1039992022381
 20
-29.19012836507277
 30
0
  0
VERTEX
  8
0
 10
70.1039992088169
 20
-28.96129981523693
 30
0
  0
VERTEX
  8
0
 10
70.10399920919151
 20
-28.93142541508259
 30
0
  0
VERTEX
  8
0
 10
70.10399921022474
 20
-28.83472262863882
 30
0
  0
VERTEX
  8
0
 10
70.1039992114538
 20
-28.68445552803705
 30
0
  0
VERTEX
  8
0
 10
70.10399921265909
 20
-28.47547331410382
 30
0
  0
VERTEX
  8
0
 10
70.10399921342513
 20
-28.27303488171983
 30
0
  0
VERTEX
  8
0
 10
70.1039992140488
 20
-27.84012836507276
 30
0
  0
VERTEX
  8
0
 10
70.10399921389137
 20
-27.62043250361966
 30
0
  0
VERTEX
  8
0
 10
70.10399921265909
 20
-27.20478341604169
 30
0
  0
VERTEX
  8
0
 10
70.10399921207315
 20
-27.09263099495999
 30
0
  0
VERTEX
  8
0
 10
70.10399921082853
 20
-26.91365018758888
 30
0
  0
VERTEX
  8
0
 10
70.10399920966992
 20
-26.7908090939629
 30
0
  0
VERTEX
  8
0
 10
70.1039992088169
 20
-26.7189569149086
 30
0
  0
VERTEX
  8
0
 10
70.10399920642604
 20
-26.60454263999068
 30
0
  0
VERTEX
  8
0
 10
70.1039992022381
 20
-26.49012836507276
 30
0
  0
SEQEND
  8
0
  0
POLYLINE
  8
0
 62
7
 66
1
  0
VERTEX
  8
0
 10
66.05399923592049
 20
-27.8401283650726
 30
0
  0
VERTEX
  8
0
 10
66.05399923581018
 20
-27.52875036291893
 30
0
  0
VERTEX
  8
0
 10
66.0539992353757
 20
-27.15045434092423
 30
0
  0
VERTEX
  8
0
 10
66.0539992344616
 20
-26.71931332103492
 30
0
  0
VERTEX
  8
0
 10
66.05399923418041
 20
-26.61849673296253
 30
0
  0
VERTEX
  8
0
 10
66.05399923333177
 20
-26.35970829656646
 30
0
  0
VERTEX
  8
0
 10
66.05399923201887
 20
-26.04147149545204
 30
0
  0
VERTEX
  8
0
 10
66.05399923014262
 20
-25.68389670835926
 30
0
  0
VERTEX
  8
0
 10
66.05399922760392
 20
-25.30709431402817
 30
0
  0
VERTEX
  8
0
 10
66.0539992260552
 20
-25.1177672575045
 30
0
  0
VERTEX
  8
0
 10
66.05399922311048
 20
-24.81842725737329
 30
0
  0
VERTEX
  8
0
 10
66.05399922022141
 20
-24.58478424483288
 30
0
  0
VERTEX
  8
0
 10
66.0539992188383
 20
-24.49012836507276
 30
0
  0
SEQEND
  8
0
  0
POLYLINE
  8
0
 62
7
 66
1
  0
VERTEX
  8
0
 10
66.05399920223809
 20
-31.69012836507277
 30
0
  0
VERTEX
  8
0
 10
66.05399921204378
 20
-31.52337063745432
 30
0
  0
VERTEX
  8
0
 10
66.05399921233213
 20
-31.51320579343224
 30
0
  0
VERTEX
  8
0
 10
66.05399921300959
 20
-31.48810525993766
 30
0
  0
VERTEX
  8
0
 10
66.053999213811
 20
-31.45600676363137
 30
0
  0
VERTEX
  8
0
 10
66.0539992147238
 20
-31.41614610185992
 30
0
  0
VERTEX
  8
0
 10
66.05399921573549
 20
-31.36775907196992
 30
0
  0
VERTEX
  8
0
 10
66.05399921627448
 20
-31.34012935565126
 30
0
  0
SEQEND
  8
0
  0
POLYLINE
  8
0
 62
7
 66
1
  0
VERTEX
  8
0
 10
65.6039984498523
 20
-31.34012935567543
 30
0
 42
2.770486520625831e-007
  0
VERTEX
  8
0
 10
65.60399895747948
 20
-30.93431974838556
 30
0
 42
1.398530048557831e-007
  0
VERTEX
  8
0
 10
65.60399918691043
 20
-30.45250903037051
 30
0
 42
5.570185405453629e-008
  0
VERTEX
  8
0
 10
65.60399924923826
 20
-29.89449753483813
 30
0
  0
VERTEX
  8
0
 10
65.60399925245508
 20
-29.58685409963039
 30
0
  0
VERTEX
  8
0
 10
65.60399925359815
 20
-29.07872098770513
 30
0
  0
VERTEX
  8
0
 10
65.60399925399466
 20
-28.84012935567498
 30
0
  0
SEQEND
  8
0
  0
POLYLINE
  8
0
 62
7
 66
1
  0
VERTEX
  8
0
 10
66.0539992188383
 20
-31.19012836507275
 30
0
  0
VERTEX
  8
0
 10
66.05399922165088
 20
-30.98636895372396
 30
0
  0
VERTEX
  8
0
 10
66.05399922458398
 20
-30.7208657449227
 30
0
  0
VERTEX
  8
0
 10
66.0539992260552
 20
-30.56248947264092
 30
0
  0
VERTEX
  8
0
 10
66.05399922896228
 20
-30.18361466671991
 30
0
  0
VERTEX
  8
0
 10
66.05399923115735
 20
-29.81391227866682
 30
0
  0
VERTEX
  8
0
 10
66.05399923273954
 20
-29.47349268722119
 30
0
  0
VERTEX
  8
0
 10
66.05399923380793
 20
-29.18246627112255
 30
0
  0
VERTEX
  8
0
 10
66.0539992344616
 20
-28.96094340911046
 30
0
  0
VERTEX
  8
0
 10
66.0539992349883
 20
-28.73964683830694
 30
0
  0
VERTEX
  8
0
 10
66.05399923564318
 20
-28.33316918962785
 30
0
  0
VERTEX
  8
0
 10
66.05399923589616
 20
-27.98657304980538
 30
0
  0
VERTEX
  8
0
 10
66.05399923592049
 20
-27.8401283650726
 30
0
  0
SEQEND
  8
0
  0
POLYLINE
  8
0
 62
7
 66
1
  0
VERTEX
  8
0
 10
66.0539992188383
 20
-24.49012836507276
 30
0
  0
VERTEX
  8
0
 10
66.05399921749988
 20
-24.40789133540877
 30
0
  0
VERTEX
  8
0
 10
66.05399921624269
 20
-24.33846100840243
 30
0
  0
VERTEX
  8
0
 10
66.05399921508364
 20
-24.28080721567813
 30
0
  0
VERTEX
  8
0
 10
66.05399921403964
 20
-24.23389978886025
 30
0
  0
VERTEX
  8
0
 10
66.05399921312753
 20
-24.19670855957317
 30
0
  0
VERTEX
  8
0
 10
66.05399921236432
 20
-24.1682033594413
 30
0
  0
VERTEX
  8
0
 10
66.05399921204378
 20
-24.15688609269117
 30
0
  0
VERTEX
  8
0
 10
66.05399920223809
 20
-23.99012836507276
 30
0
  0
SEQEND
  8
0
  0
POLYLINE
  8
0
 62
7
 66
1
  0
VERTEX
  8
0
 10
22.20399881383099
 20
143.359870644325
 30
0
  0
VERTEX
  8
0
 10
22.20399881216984
 20
143.4407985867725
 30
0
  0
VERTEX
  8
0
 10
22.20399881046896
 20
143.5115908909474
 30
0
  0
VERTEX
  8
0
 10
22.20399880960468
 20
143.5431129167067
 30
0
  0
VERTEX
  8
0
 10
22.203998799799
 20
143.7098706443251
 30
0
  0
SEQEND
  8
0
  0
POLYLINE
  8
0
 62
7
 66
1
  0
VERTEX
  8
0
 10
22.6539988138311
 20
143.359870644325
 30
0
  0
VERTEX
  8
0
 10
22.65399881216986
 20
143.4407985867725
 30
0
  0
VERTEX
  8
0
 10
22.65399881046897
 20
143.5115908909474
 30
0
  0
VERTEX
  8
0
 10
22.6539988096047
 20
143.5431129167067
 30
0
  0
VERTEX
  8
0
 10
22.65399879979898
 20
143.7098706443251
 30
0
  0
SEQEND
  8
0
  0
POLYLINE
  8
0
 62
7
 66
1
  0
VERTEX
  8
0
 10
65.60399925399466
 20
-28.84012935567498
 30
0
  0
VERTEX
  8
0
 10
65.60399925435365
 20
-28.55613973644182
 30
0
  0
VERTEX
  8
0
 10
65.60399925457882
 20
-28.29328287884159
 30
0
  0
VERTEX
  8
0
 10
65.60399925469542
 20
-28.05384925965817
 30
0
  0
VERTEX
  8
0
 10
65.60399925472868
 20
-27.84012935567543
 30
0
  0
SEQEND
  8
0
  0
POLYLINE
  8
0
 62
7
 66
1
  0
VERTEX
  8
0
 10
22.20399881383099
 20
143.359870644325
 30
0
  0
VERTEX
  8
0
 10
22.20399881216984
 20
143.4407985867725
 30
0
  0
VERTEX
  8
0
 10
22.20399881046896
 20
143.5115908909474
 30
0
  0
VERTEX
  8
0
 10
22.20399880960468
 20
143.5431129167067
 30
0
  0
VERTEX
  8
0
 10
22.203998799799
 20
143.7098706443251
 30
0
  0
SEQEND
  8
0
  0
POLYLINE
  8
0
 62
7
 66
1
  0
VERTEX
  8
0
 10
83.60399910162838
 20
128.3598706443251
 30
0
 42
0.01032081276779388
  0
VERTEX
  8
0
 10
83.58870101686055
 20
129.0944097617712
 30
0
  0
VERTEX
  8
0
 10
83.57018367822977
 20
129.4517205036219
 30
0
  0
SEQEND
  8
0
  0
POLYLINE
  8
0
 62
7
 66
1
  0
VERTEX
  8
0
 10
79.58476134639128
 20
-19.34012935567498
 30
0
 42
0.005878530317224398
  0
VERTEX
  8
0
 10
79.58595830073628
 20
-19.44192613966331
 30
0
  0
VERTEX
  8
0
 10
79.59468009211845
 20
-19.63286304059643
 30
0
 42
0.01935440795777681
  0
VERTEX
  8
0
 10
79.63147109312536
 20
-19.97210108944579
 30
0
 42
0.01643159185697917
  0
VERTEX
  8
0
 10
79.68274858134973
 20
-20.24892497328126
 30
0
 42
0.01287560291272247
  0
VERTEX
  8
0
 10
79.7349404722643
 20
-20.45665489891317
 30
0
  0
VERTEX
  8
0
 10
79.79451697513927
 20
-20.64787756057143
 30
0
 42
0.02914127122205528
  0
VERTEX
  8
0
 10
79.93702237847339
 20
-20.99643108638901
 30
0
  0
VERTEX
  8
0
 10
80.01841678801387
 20
-21.15206483564313
 30
0
 42
0.0166223854607105
  0
VERTEX
  8
0
 10
80.08743664102548
 20
-21.26663358332068
 30
0
 42
0.02641736113818461
  0
VERTEX
  8
0
 10
80.2041987242215
 20
-21.43010469047171
 30
0
 42
0.03905977415200231
  0
VERTEX
  8
0
 10
80.36503813847099
 20
-21.60478878942192
 30
0
 42
0.05945979018928708
  0
VERTEX
  8
0
 10
80.56628998464296
 20
-21.75299651249705
 30
0
  0
VERTEX
  8
0
 10
80.65901337871765
 20
-21.79697783989458
 30
0
 42
0.05985201008921574
  0
VERTEX
  8
0
 10
80.81482091765295
 20
-21.83663712247928
 30
0
  0
VERTEX
  8
0
 10
80.87577949761337
 20
-21.84012935567668
 30
0
  0
SEQEND
  8
0
  0
POLYLINE
  8
0
 62
7
 66
1
  0
VERTEX
  8
0
 10
83.09552335586326
 20
-27.84012935567492
 30
0
 42
0.00539036343731701
  0
VERTEX
  8
0
 10
83.08752898036198
 20
-27.12555184526251
 30
0
 42
0.004635684152670893
  0
VERTEX
  8
0
 10
83.06874220253842
 20
-26.54362819717144
 30
0
 42
0.003750070505755736
  0
VERTEX
  8
0
 10
83.04695754541301
 20
-26.11158122007522
 30
0
  0
VERTEX
  8
0
 10
83.03737680055596
 20
-25.95714361086061
 30
0
 42
0.009955415292206464
  0
VERTEX
  8
0
 10
82.96452564449575
 20
-25.10211967913082
 30
0
 42
0.01096978978264878
  0
VERTEX
  8
0
 10
82.87655193983076
 20
-24.42545834623882
 30
0
 42
0.01173037133270543
  0
VERTEX
  8
0
 10
82.78343386569661
 20
-23.90726618827878
 30
0
 42
0.01160206932276828
  0
VERTEX
  8
0
 10
82.69514960122891
 20
-23.52764978134485
 30
0
  0
VERTEX
  8
0
 10
82.60975176252853
 20
-23.23037931941551
 30
0
 42
0.03506583771955071
  0
VERTEX
  8
0
 10
82.4011921158223
 20
-22.69721734825011
 30
0
 42
0.05510326190819357
  0
VERTEX
  8
0
 10
82.13540428888076
 20
-22.26936241635177
 30
0
  0
VERTEX
  8
0
 10
81.97847122488631
 20
-22.10372575350624
 30
0
 42
0.08120290915266647
  0
VERTEX
  8
0
 10
81.69859347944686
 20
-21.92051972699011
 30
0
 42
0.1096452588723922
  0
VERTEX
  8
0
 10
81.31230120723311
 20
-21.84012935567495
 30
0
  0
SEQEND
  8
0
  0
POLYLINE
  8
0
 62
7
 66
1
  0
VERTEX
  8
0
 10
83.09552335586326
 20
-28.84012935567498
 30
0
 42
0.004988293040328316
  0
VERTEX
  8
0
 10
83.09793550098497
 20
-29.09426377992194
 30
0
 42
0.005920397210388311
  0
VERTEX
  8
0
 10
83.10707124504995
 20
-29.39470335390182
 30
0
  0
VERTEX
  8
0
 10
83.11505076763919
 20
-29.55958167395912
 30
0
 42
0.009610640969873106
  0
VERTEX
  8
0
 10
83.14968656466806
 20
-30.02536019903257
 30
0
 42
0.01014732104461731
  0
VERTEX
  8
0
 10
83.19669641783131
 20
-30.43319843164252
 30
0
  0
VERTEX
  8
0
 10
83.22350366935601
 20
-30.61277754205517
 30
0
 42
0.01117663658445488
  0
VERTEX
  8
0
 10
83.27194603014982
 20
-30.87583578063033
 30
0
 42
0.01559886374979171
  0
VERTEX
  8
0
 10
83.32277105172196
 20
-31.08604086857269
 30
0
 42
0.02704812888497328
  0
VERTEX
  8
0
 10
83.37360412687619
 20
-31.23692969909615
 30
0
  0
VERTEX
  8
0
 10
83.38664336743973
 20
-31.26588759787557
 30
0
 42
0.05412316188737771
  0
VERTEX
  8
0
 10
83.41796015203255
 20
-31.3174719274306
 30
0
 42
0.1864945703853954
  0
VERTEX
  8
0
 10
83.45362224109837
 20
-31.34012935567529
 30
0
  0
SEQEND
  8
0
  0
POLYLINE
  8
0
 62
7
 66
1
  0
VERTEX
  8
0
 10
83.60399910162826
 20
18.9678302179361
 30
0
 42
0.02486266451014563
  0
VERTEX
  8
0
 10
83.02794053628347
 20
27.93967410268567
 30
0
  0
VERTEX
  8
0
 10
82.66865022517612
 20
31.53306818956546
 30
0
 42
-0.008518817341556535
  0
VERTEX
  8
0
 10
82.00527747332451
 20
39.21973086345699
 30
0
 42
-0.01725461026057481
  0
VERTEX
  8
0
 10
81.70649019400989
 20
47.85850624882205
 30
0
  0
VERTEX
  8
0
 10
81.78840836507503
 20
52.31887686358456
 30
0
 42
-0.01270432289714541
  0
VERTEX
  8
0
 10
82.31309984335829
 20
60.43964264576654
 30
0
 42
-0.002473655533028422
  0
VERTEX
  8
0
 10
83.02789242438396
 20
67.77957707437571
 30
0
  0
VERTEX
  8
0
 10
83.43615615072422
 20
72.47791797535564
 30
0
  0
VERTEX
  8
0
 10
83.60399910162826
 20
76.75191107071396
 30
0
  0
SEQEND
  8
0
  0
POLYLINE
  8
0
 62
7
 66
1
  0
VERTEX
  8
0
 10
83.60399910162826
 20
76.75191107071396
 30
0
  0
VERTEX
  8
0
 10
83.60399913530385
 20
71.40412105679805
 30
0
  0
VERTEX
  8
0
 10
83.60399914716422
 20
69.03803561202716
 30
0
  0
VERTEX
  8
0
 10
83.60399916046693
 20
65.9049572578942
 30
0
  0
VERTEX
  8
0
 10
83.60399917571705
 20
61.22872167845343
 30
0
  0
VERTEX
  8
0
 10
83.60399918827181
 20
55.16260182387399
 30
0
  0
VERTEX
  8
0
 10
83.60399919348848
 20
47.85987064432504
 30
0
  0
VERTEX
  8
0
 10
83.60399919208759
 20
44.06350819831474
 30
0
  0
VERTEX
  8
0
 10
83.60399918262152
 20
37.35992356247912
 30
0
  0
VERTEX
  8
0
 10
83.60399916813871
 20
31.96958672669783
 30
0
  0
VERTEX
  8
0
 10
83.60399915328195
 20
28.04577064114007
 30
0
  0
VERTEX
  8
0
 10
83.60399914716422
 20
26.68170567662291
 30
0
  0
VERTEX
  8
0
 10
83.60399912024023
 20
21.71739143816521
 30
0
  0
VERTEX
  8
0
 10
83.60399910162826
 20
18.9678302179361
 30
0
  0
SEQEND
  8
0
  0
POLYLINE
  8
0
 62
7
 66
1
  0
VERTEX
  8
0
 10
79.58476134639128
 20
139.8598706622867
 30
0
 42
-0.008614060461128885
  0
VERTEX
  8
0
 10
79.60682790403851
 20
140.8861421546231
 30
0
  0
VERTEX
  8
0
 10
79.62392473010027
 20
141.3746692359776
 30
0
 42
0.008212361743546262
  0
VERTEX
  8
0
 10
79.644125727285
 20
142.3331764537657
 30
0
  0
VERTEX
  8
0
 10
79.64386317766039
 20
142.4253783606749
 30
0
 42
0.005176734334203918
  0
VERTEX
  8
0
 10
79.64024774239663
 20
142.6600611378699
 30
0
 42
0.008004185190588863
  0
VERTEX
  8
0
 10
79.62925409557791
 20
142.9318276969231
 30
0
 42
0.01311137309420398
  0
VERTEX
  8
0
 10
79.60697292096151
 20
143.2047322346614
 30
0
  0
VERTEX
  8
0
 10
79.59706572643802
 20
143.2824730437991
 30
0
  0
VERTEX
  8
0
 10
79.58476134280281
 20
143.3598706443251
 30
0
  0
SEQEND
  8
0
  0
POLYLINE
  8
0
 62
7
 66
1
  0
VERTEX
  8
0
 10
-25.3960007546944
 20
145.9598706443246
 30
0
  0
VERTEX
  8
0
 10
-25.3960007529666
 20
145.6920802379194
 30
0
  0
VERTEX
  8
0
 10
-25.39600075216021
 20
145.553077123808
 30
0
  0
VERTEX
  8
0
 10
-25.39600075165151
 20
145.4598706443246
 30
0
  0
SEQEND
  8
0
  0
POLYLINE
  8
0
 62
7
 66
1
  0
VERTEX
  8
0
 10
22.20399879979908
 20
145.8598706443246
 30
0
  0
VERTEX
  8
0
 10
22.20399882375818
 20
145.1984097703404
 30
0
  0
VERTEX
  8
0
 10
22.20399882628059
 20
145.0325204842871
 30
0
  0
VERTEX
  8
0
 10
22.20399882821942
 20
144.6517590981495
 30
0
  0
VERTEX
  8
0
 10
22.20399882128501
 20
144.2093933824883
 30
0
  0
VERTEX
  8
0
 10
22.203998799799
 20
143.7098706443251
 30
0
  0
SEQEND
  8
0
  0
POLYLINE
  8
0
 62
7
 66
1
  0
VERTEX
  8
0
 10
-25.39600078901552
 20
147.8598706443246
 30
0
  0
VERTEX
  8
0
 10
-25.39600078119699
 20
147.7977288261063
 30
0
  0
VERTEX
  8
0
 10
-25.39600077694979
 20
147.7023873913274
 30
0
  0
VERTEX
  8
0
 10
-25.39600077355074
 20
147.561156926831
 30
0
  0
VERTEX
  8
0
 10
-25.39600077030675
 20
147.3884506638235
 30
0
  0
VERTEX
  8
0
 10
-25.39600076785216
 20
147.2358795351004
 30
0
  0
VERTEX
  8
0
 10
-25.3960007659778
 20
147.1142920541422
 30
0
  0
VERTEX
  8
0
 10
-25.39600076443071
 20
147.0065667602615
 30
0
  0
VERTEX
  8
0
 10
-25.39600076241915
 20
146.8455969522723
 30
0
  0
VERTEX
  8
0
 10
-25.39600076031813
 20
146.6485800823975
 30
0
  0
VERTEX
  8
0
 10
-25.39600075813074
 20
146.4096553708068
 30
0
  0
VERTEX
  8
0
 10
-25.39600075586004
 20
146.1229620376699
 30
0
  0
VERTEX
  8
0
 10
-25.3960007546944
 20
145.9598706443246
 30
0
  0
SEQEND
  8
0
  0
POLYLINE
  8
0
 62
7
 66
1
  0
VERTEX
  8
0
 10
-8.199848322563099
 20
142.8598706443247
 30
0
  0
VERTEX
  8
0
 10
-9.065873726567503
 20
143.359870644325
 30
0
  0
SEQEND
  8
0
  0
POLYLINE
  8
0
 62
7
 66
1
  0
VERTEX
  8
0
 10
-9.065873726567503
 20
143.359870644325
 30
0
  0
VERTEX
  8
0
 10
-9.689741282786514
 20
143.7200607455968
 30
0
  0
VERTEX
  8
0
 10
-9.802670986905087
 20
143.7852607405164
 30
0
  0
VERTEX
  8
0
 10
-10.12598977727235
 20
143.9719289285348
 30
0
  0
VERTEX
  8
0
 10
-10.56265053705599
 20
144.2240351262151
 30
0
  0
VERTEX
  8
0
 10
-11.09272861814745
 20
144.5300758280647
 30
0
  0
VERTEX
  8
0
 10
-11.69629937243823
 20
144.8785475285912
 30
0
  0
VERTEX
  8
0
 10
-12.35343815181976
 20
145.2579467223021
 30
0
  0
VERTEX
  8
0
 10
-13.04422030818352
 20
145.656769903705
 30
0
  0
VERTEX
  8
0
 10
-13.39600120019981
 20
145.8598706443246
 30
0
  0
SEQEND
  8
0
  0
POLYLINE
  8
0
 62
7
 66
1
  0
VERTEX
  8
0
 10
-17.4960014040347
 20
142.4535044152546
 30
0
  0
VERTEX
  8
0
 10
-17.69254242317192
 20
142.566977425067
 30
0
  0
VERTEX
  8
0
 10
-17.71129930577436
 20
142.5778067162312
 30
0
  0
VERTEX
  8
0
 10
-17.75613491584462
 20
142.6036925676347
 30
0
  0
VERTEX
  8
0
 10
-17.80859965704936
 20
142.6339830999137
 30
0
  0
VERTEX
  8
0
 10
-17.86613353496536
 20
142.667200299599
 30
0
  0
VERTEX
  8
0
 10
-17.89600140193281
 20
142.6844445205097
 30
0
  0
SEQEND
  8
0
  0
POLYLINE
  8
0
 62
7
 66
1
  0
VERTEX
  8
0
 10
-16.46779754780062
 20
141.8598706430622
 30
0
  0
VERTEX
  8
0
 10
-16.56822480024491
 20
141.9178523442863
 30
0
  0
VERTEX
  8
0
 10
-16.6945089013654
 20
141.9907625040277
 30
0
  0
VERTEX
  8
0
 10
-16.7657761338298
 20
142.0319086598436
 30
0
  0
VERTEX
  8
0
 10
-16.82204364194447
 20
142.0643947207693
 30
0
  0
VERTEX
  8
0
 10
-16.90589796037174
 20
142.1128080340288
 30
0
  0
VERTEX
  8
0
 10
-17.01254178312082
 20
142.174378873708
 30
0
  0
VERTEX
  8
0
 10
-17.1371778042009
 20
142.2463375138927
 30
0
  0
VERTEX
  8
0
 10
-17.27500871762121
 20
142.3259142286688
 30
0
  0
VERTEX
  8
0
 10
-17.42123721739093
 20
142.4103392921222
 30
0
  0
VERTEX
  8
0
 10
-17.4960014040347
 20
142.4535044152546
 30
0
  0
SEQEND
  8
0
  0
POLYLINE
  8
0
 62
7
 66
1
  0
VERTEX
  8
0
 10
-22.29792518603341
 20
145.2258964187731
 30
0
  0
VERTEX
  8
0
 10
-22.36870387347739
 20
145.2667605127529
 30
0
  0
VERTEX
  8
0
 10
-22.42851410441913
 20
145.3012919654513
 30
0
  0
VERTEX
  8
0
 10
-22.48037925593107
 20
145.3312363244241
 30
0
  0
VERTEX
  8
0
 10
-22.52732270508567
 20
145.3583391372264
 30
0
  0
VERTEX
  8
0
 10
-22.5866651148689
 20
145.3926004932795
 30
0
  0
VERTEX
  8
0
 10
-22.66253299399097
 20
145.4364028349386
 30
0
  0
VERTEX
  8
0
 10
-22.70318042862132
 20
145.4598706443246
 30
0
  0
SEQEND
  8
0
  0
POLYLINE
  8
0
 62
7
 66
1
  0
VERTEX
  8
0
 10
-18.19984832256301
 20
142.8598706443256
 30
0
  0
VERTEX
  8
0
 10
-18.35776662474024
 20
142.9510448185906
 30
0
  0
VERTEX
  8
0
 10
-18.53505679053226
 20
143.0534033435108
 30
0
  0
VERTEX
  8
0
 10
-18.7301230654758
 20
143.1660249098117
 30
0
  0
VERTEX
  8
0
 10
-18.83382357060961
 20
143.2258964243317
 30
0
  0
SEQEND
  8
0
  0
POLYLINE
  8
0
 62
7
 66
1
  0
VERTEX
  8
0
 10
-18.83382357060961
 20
143.2258964243317
 30
0
  0
VERTEX
  8
0
 10
-19.093784098697
 20
143.3759847050889
 30
0
  0
VERTEX
  8
0
 10
-19.53920745892268
 20
143.6331500017325
 30
0
  0
VERTEX
  8
0
 10
-20.39118602466385
 20
144.1250400551054
 30
0
  0
VERTEX
  8
0
 10
-21.1757242905818
 20
144.577993432805
 30
0
  0
VERTEX
  8
0
 10
-21.874082944425
 20
144.9811909878852
 30
0
  0
VERTEX
  8
0
 10
-22.07700661959035
 20
145.0983490257405
 30
0
  0
VERTEX
  8
0
 10
-22.29792518603341
 20
145.2258964187731
 30
0
  0
SEQEND
  8
0
  0
POLYLINE
  8
0
 62
7
 66
1
  0
VERTEX
  8
0
 10
-17.89600140193281
 20
142.6844445205097
 30
0
  0
VERTEX
  8
0
 10
-17.95359214340619
 20
142.7176945503456
 30
0
  0
VERTEX
  8
0
 10
-18.00283631595702
 20
142.7461256863774
 30
0
  0
VERTEX
  8
0
 10
-18.0448357230087
 20
142.7703740551006
 30
0
  0
VERTEX
  8
0
 10
-18.08069216798464
 20
142.7910757830107
 30
0
  0
VERTEX
  8
0
 10
-18.10562777780045
 20
142.8054723638767
 30
0
  0
VERTEX
  8
0
 10
-18.12360179324587
 20
142.8158496672379
 30
0
  0
VERTEX
  8
0
 10
-18.14366697718808
 20
142.8274343096856
 30
0
  0
VERTEX
  8
0
 10
-18.16826769762712
 20
142.841637549341
 30
0
  0
VERTEX
  8
0
 10
-18.19984832256301
 20
142.8598706443256
 30
0
  0
SEQEND
  8
0
  0
POLYLINE
  8
0
 62
7
 66
1
  0
VERTEX
  8
0
 10
-13.39600120019981
 20
145.8598706443246
 30
0
 42
7.721222062682957e-008
  0
VERTEX
  8
0
 10
-13.72332762613179
 20
146.0488528456668
 30
0
  0
VERTEX
  8
0
 10
-13.97275489916956
 20
146.1928598018608
 30
0
  0
VERTEX
  8
0
 10
-14.14927734220483
 20
146.2947750834464
 30
0
  0
VERTEX
  8
0
 10
-14.30484933446303
 20
146.3845946146056
 30
0
  0
VERTEX
  8
0
 10
-14.54952861391325
 20
146.525860261739
 30
0
  0
VERTEX
  8
0
 10
-14.82394874849352
 20
146.6842967994477
 30
0
  0
VERTEX
  8
0
 10
-15.27376842139048
 20
146.9440003069857
 30
0
  0
VERTEX
  8
0
 10
-15.63588799754196
 20
147.1530701400692
 30
0
  0
VERTEX
  8
0
 10
-15.90789097286212
 20
147.3101111297173
 30
0
  0
VERTEX
  8
0
 10
-16.14446414519085
 20
147.4466967129856
 30
0
  0
VERTEX
  8
0
 10
-16.3259536221689
 20
147.5514797099924
 30
0
  0
VERTEX
  8
0
 10
-16.52987700516802
 20
147.669214928357
 30
0
  0
VERTEX
  8
0
 10
-16.69023265271877
 20
147.7617963028503
 30
0
  0
VERTEX
  8
0
 10
-16.81132758318019
 20
147.8317104908394
 30
0
  0
VERTEX
  8
0
 10
-16.86010240415072
 20
147.8598706443246
 30
0
  0
SEQEND
  8
0
  0
POLYLINE
  8
0
 62
7
 66
1
  0
VERTEX
  8
0
 10
65.6039984498523
 20
-31.34012935567543
 30
0
 42
2.770486520625831e-007
  0
VERTEX
  8
0
 10
65.60399895747948
 20
-30.93431974838556
 30
0
 42
1.398530048557831e-007
  0
VERTEX
  8
0
 10
65.60399918691043
 20
-30.45250903037051
 30
0
 42
5.570185405453629e-008
  0
VERTEX
  8
0
 10
65.60399924923826
 20
-29.89449753483813
 30
0
  0
VERTEX
  8
0
 10
65.60399925245508
 20
-29.58685409963039
 30
0
  0
VERTEX
  8
0
 10
65.60399925359815
 20
-29.07872098770513
 30
0
  0
VERTEX
  8
0
 10
65.60399925399466
 20
-28.84012935567498
 30
0
  0
SEQEND
  8
0
  0
POLYLINE
  8
0
 62
7
 66
1
  0
VERTEX
  8
0
 10
-52.79539137767742
 20
83.30467579772
 30
0
  0
VERTEX
  8
0
 10
-52.79539137258539
 20
83.26083182023426
 30
0
  0
VERTEX
  8
0
 10
-52.79539136960653
 20
83.20760994538287
 30
0
  0
VERTEX
  8
0
 10
-52.79539136408872
 20
82.97549583776433
 30
0
  0
VERTEX
  8
0
 10
-52.79539136000552
 20
82.68973222740058
 30
0
  0
VERTEX
  8
0
 10
-52.79539135619718
 20
82.37867266531606
 30
0
  0
VERTEX
  8
0
 10
-52.795391352617
 20
81.94440417651828
 30
0
  0
VERTEX
  8
0
 10
-52.79539134992743
 20
81.43547682095627
 30
0
  0
VERTEX
  8
0
 10
-52.7953913467486
 20
80.61412251133726
 30
0
  0
VERTEX
  8
0
 10
-52.79539134613879
 20
80.2310110638186
 30
0
  0
VERTEX
  8
0
 10
-52.79539134597736
 20
79.92810379504405
 30
0
  0
VERTEX
  8
0
 10
-52.79539134596342
 20
79.74464434200991
 30
0
  0
VERTEX
  8
0
 10
-52.79539134601072
 20
79.4177004394779
 30
0
  0
VERTEX
  8
0
 10
-52.79539134634189
 20
78.99683823501393
 30
0
  0
VERTEX
  8
0
 10
-52.79539134716577
 20
78.60086791244507
 30
0
  0
VERTEX
  8
0
 10
-52.79539134825404
 20
78.29425962300057
 30
0
  0
VERTEX
  8
0
 10
-52.79539134907241
 20
78.10741322484184
 30
0
  0
VERTEX
  8
0
 10
-52.79539135008493
 20
77.89203055007543
 30
0
  0
VERTEX
  8
0
 10
-52.79539135201575
 20
77.52801680123268
 30
0
  0
VERTEX
  8
0
 10
-52.7953913546763
 20
77.14540240622667
 30
0
  0
VERTEX
  8
0
 10
-52.79539135737142
 20
76.87876051994201
 30
0
  0
VERTEX
  8
0
 10
-52.79539135913874
 20
76.73619215521943
 30
0
  0
VERTEX
  8
0
 10
-52.79539136121409
 20
76.57892557010965
 30
0
  0
VERTEX
  8
0
 10
-52.79539136524554
 20
76.3207906909568
 30
0
  0
VERTEX
  8
0
 10
-52.79539137116525
 20
76.12318709956135
 30
0
  0
VERTEX
  8
0
 10
-52.79539137767742
 20
76.05467579771995
 30
0
  0
SEQEND
  8
0
  0
POLYLINE
  8
0
 62
7
 66
1
  0
VERTEX
  8
0
 10
-52.17039137767742
 20
75.42967579772007
 30
0
  0
VERTEX
  8
0
 10
-52.17039136685301
 20
75.61375899270828
 30
0
  0
VERTEX
  8
0
 10
-52.17039136356561
 20
75.74761086069667
 30
0
  0
VERTEX
  8
0
 10
-52.17039135807897
 20
76.06799293929849
 30
0
  0
VERTEX
  8
0
 10
-52.17039135402595
 20
76.4002798281584
 30
0
  0
VERTEX
  8
0
 10
-52.1703913513858
 20
76.6744719513859
 30
0
  0
VERTEX
  8
0
 10
-52.17039134893334
 20
76.98378324457842
 30
0
  0
VERTEX
  8
0
 10
-52.1703913448964
 20
77.67398242015348
 30
0
  0
VERTEX
  8
0
 10
-52.17039134210592
 20
78.44241240184751
 30
0
  0
VERTEX
  8
0
 10
-52.17039134142709
 20
78.73424751085233
 30
0
  0
VERTEX
  8
0
 10
-52.17039134067879
 20
79.2580834373863
 30
0
  0
VERTEX
  8
0
 10
-52.1703913404954
 20
79.67967576053812
 30
0
  0
SEQEND
  8
0
  0
POLYLINE
  8
0
 62
7
 66
1
  0
VERTEX
  8
0
 10
-52.1703913404954
 20
79.67967576053812
 30
0
  0
VERTEX
  8
0
 10
-52.17039134210592
 20
80.91693915802112
 30
0
  0
VERTEX
  8
0
 10
-52.17039134333866
 20
81.30964354083639
 30
0
  0
VERTEX
  8
0
 10
-52.17039134676575
 20
82.04153911569436
 30
0
  0
VERTEX
  8
0
 10
-52.1703913513858
 20
82.68487961776258
 30
0
  0
VERTEX
  8
0
 10
-52.17039135347869
 20
82.90643511373638
 30
0
  0
VERTEX
  8
0
 10
-52.17039135761325
 20
83.2577887222414
 30
0
  0
VERTEX
  8
0
 10
-52.17039136142448
 20
83.50233638538695
 30
0
  0
VERTEX
  8
0
 10
-52.1703913646064
 20
83.65872278224998
 30
0
  0
VERTEX
  8
0
 10
-52.17039136685301
 20
83.74559259190735
 30
0
  0
VERTEX
  8
0
 10
-52.17039137088221
 20
83.83763419481366
 30
0
  0
VERTEX
  8
0
 10
-52.17039137767742
 20
83.92967579772
 30
0
  0
SEQEND
  8
0
  0
POLYLINE
  8
0
 62
7
 66
1
  0
VERTEX
  8
0
 10
-52.79539137767742
 20
83.30467579772
 30
0
  0
VERTEX
  8
0
 10
-52.79539137258539
 20
83.26083182023426
 30
0
  0
VERTEX
  8
0
 10
-52.79539136960653
 20
83.20760994538287
 30
0
  0
VERTEX
  8
0
 10
-52.79539136408872
 20
82.97549583776433
 30
0
  0
VERTEX
  8
0
 10
-52.79539136000552
 20
82.68973222740058
 30
0
  0
VERTEX
  8
0
 10
-52.79539135619718
 20
82.37867266531606
 30
0
  0
VERTEX
  8
0
 10
-52.795391352617
 20
81.94440417651828
 30
0
  0
VERTEX
  8
0
 10
-52.79539134992743
 20
81.43547682095627
 30
0
  0
VERTEX
  8
0
 10
-52.7953913467486
 20
80.61412251133726
 30
0
  0
VERTEX
  8
0
 10
-52.79539134613879
 20
80.2310110638186
 30
0
  0
VERTEX
  8
0
 10
-52.79539134597736
 20
79.92810379504405
 30
0
  0
VERTEX
  8
0
 10
-52.79539134596342
 20
79.74464434200991
 30
0
  0
VERTEX
  8
0
 10
-52.79539134601072
 20
79.4177004394779
 30
0
  0
VERTEX
  8
0
 10
-52.79539134634189
 20
78.99683823501393
 30
0
  0
VERTEX
  8
0
 10
-52.79539134716577
 20
78.60086791244507
 30
0
  0
VERTEX
  8
0
 10
-52.79539134825404
 20
78.29425962300057
 30
0
  0
VERTEX
  8
0
 10
-52.79539134907241
 20
78.10741322484184
 30
0
  0
VERTEX
  8
0
 10
-52.79539135008493
 20
77.89203055007543
 30
0
  0
VERTEX
  8
0
 10
-52.79539135201575
 20
77.52801680123268
 30
0
  0
VERTEX
  8
0
 10
-52.7953913546763
 20
77.14540240622667
 30
0
  0
VERTEX
  8
0
 10
-52.79539135737142
 20
76.87876051994201
 30
0
  0
VERTEX
  8
0
 10
-52.79539135913874
 20
76.73619215521943
 30
0
  0
VERTEX
  8
0
 10
-52.79539136121409
 20
76.57892557010965
 30
0
  0
VERTEX
  8
0
 10
-52.79539136524554
 20
76.3207906909568
 30
0
  0
VERTEX
  8
0
 10
-52.79539137116525
 20
76.12318709956135
 30
0
  0
VERTEX
  8
0
 10
-52.79539137767742
 20
76.05467579771995
 30
0
  0
SEQEND
  8
0
  0
POLYLINE
  8
0
 62
7
 66
1
  0
VERTEX
  8
0
 10
-52.17039137767742
 20
75.42967579772007
 30
0
  0
VERTEX
  8
0
 10
-52.17039136685301
 20
75.61375899270828
 30
0
  0
VERTEX
  8
0
 10
-52.17039136356561
 20
75.74761086069667
 30
0
  0
VERTEX
  8
0
 10
-52.17039135807897
 20
76.06799293929849
 30
0
  0
VERTEX
  8
0
 10
-52.17039135402595
 20
76.4002798281584
 30
0
  0
VERTEX
  8
0
 10
-52.1703913513858
 20
76.6744719513859
 30
0
  0
VERTEX
  8
0
 10
-52.17039134893334
 20
76.98378324457842
 30
0
  0
VERTEX
  8
0
 10
-52.1703913448964
 20
77.67398242015348
 30
0
  0
VERTEX
  8
0
 10
-52.17039134210592
 20
78.44241240184751
 30
0
  0
VERTEX
  8
0
 10
-52.17039134142709
 20
78.73424751085233
 30
0
  0
VERTEX
  8
0
 10
-52.17039134067879
 20
79.2580834373863
 30
0
  0
VERTEX
  8
0
 10
-52.1703913404954
 20
79.67967576053812
 30
0
  0
SEQEND
  8
0
  0
POLYLINE
  8
0
 62
7
 66
1
  0
VERTEX
  8
0
 10
-52.1703913404954
 20
79.67967576053812
 30
0
  0
VERTEX
  8
0
 10
-52.17039134210592
 20
80.91693915802112
 30
0
  0
VERTEX
  8
0
 10
-52.17039134333866
 20
81.30964354083639
 30
0
  0
VERTEX
  8
0
 10
-52.17039134676575
 20
82.04153911569436
 30
0
  0
VERTEX
  8
0
 10
-52.1703913513858
 20
82.68487961776258
 30
0
  0
VERTEX
  8
0
 10
-52.17039135347869
 20
82.90643511373638
 30
0
  0
VERTEX
  8
0
 10
-52.17039135761325
 20
83.2577887222414
 30
0
  0
VERTEX
  8
0
 10
-52.17039136142448
 20
83.50233638538695
 30
0
  0
VERTEX
  8
0
 10
-52.1703913646064
 20
83.65872278224998
 30
0
  0
VERTEX
  8
0
 10
-52.17039136685301
 20
83.74559259190735
 30
0
  0
VERTEX
  8
0
 10
-52.17039137088221
 20
83.83763419481366
 30
0
  0
VERTEX
  8
0
 10
-52.17039137767742
 20
83.92967579772
 30
0
  0
SEQEND
  8
0
  0
POLYLINE
  8
0
 62
7
 66
1
  0
VERTEX
  8
0
 10
-46.6453913776773
 20
74.67967579772
 30
0
  0
VERTEX
  8
0
 10
-46.64539137326212
 20
74.70880377142834
 30
0
  0
VERTEX
  8
0
 10
-46.64539137147467
 20
74.72911663761356
 30
0
  0
VERTEX
  8
0
 10
-46.64539136910978
 20
74.77420713453107
 30
0
  0
VERTEX
  8
0
 10
-46.64539136716623
 20
74.83599891273127
 30
0
  0
VERTEX
  8
0
 10
-46.6453913660414
 20
74.91546908006404
 30
0
  0
VERTEX
  8
0
 10
-46.64539136613267
 20
75.01359474437935
 30
0
  0
VERTEX
  8
0
 10
-46.64539136783749
 20
75.13135301352715
 30
0
  0
VERTEX
  8
0
 10
-46.64539137155324
 20
75.26972099535739
 30
0
  0
VERTEX
  8
0
 10
-46.6453913776773
 20
75.42967579772
 30
0
  0
SEQEND
  8
0
  0
POLYLINE
  8
0
 62
7
 66
1
  0
VERTEX
  8
0
 10
-46.6453913776773
 20
75.42967579772
 30
0
  0
VERTEX
  8
0
 10
-46.6453913533112
 20
75.52718894526012
 30
0
  0
VERTEX
  8
0
 10
-46.64539134998398
 20
75.80919477309585
 30
0
  0
VERTEX
  8
0
 10
-46.64539134474264
 20
76.38902676600134
 30
0
  0
VERTEX
  8
0
 10
-46.64539134118752
 20
76.92199403143692
 30
0
  0
VERTEX
  8
0
 10
-46.64539133908102
 20
77.32654635686417
 30
0
  0
VERTEX
  8
0
 10
-46.64539133624439
 20
78.07614743583052
 30
0
  0
VERTEX
  8
0
 10
-46.64539133393382
 20
79.67967579771994
 30
0
  0
VERTEX
  8
0
 10
-46.64539133413511
 20
80.1591518214783
 30
0
  0
VERTEX
  8
0
 10
-46.64539133545665
 20
80.9874945636368
 30
0
  0
VERTEX
  8
0
 10
-46.64539133736191
 20
81.62051594914024
 30
0
  0
VERTEX
  8
0
 10
-46.64539133908102
 20
82.03280523857571
 30
0
  0
VERTEX
  8
0
 10
-46.64539134125187
 20
82.44829873981576
 30
0
  0
VERTEX
  8
0
 10
-46.64539134586273
 20
83.11130733096186
 30
0
  0
VERTEX
  8
0
 10
-46.64539135015392
 20
83.56623798848679
 30
0
  0
VERTEX
  8
0
 10
-46.6453913533112
 20
83.83216265017975
 30
0
  0
VERTEX
  8
0
 10
-46.64539135681534
 20
83.87911101040983
 30
0
  0
VERTEX
  8
0
 10
-46.6453913776773
 20
83.92967579772
 30
0
  0
SEQEND
  8
0
  0
POLYLINE
  8
0
 62
7
 66
1
  0
VERTEX
  8
0
 10
-46.6453913776773
 20
83.92967579772
 30
0
  0
VERTEX
  8
0
 10
-46.64539137081007
 20
84.04264993974671
 30
0
  0
VERTEX
  8
0
 10
-46.6453913665637
 20
84.15731266076362
 30
0
  0
VERTEX
  8
0
 10
-46.64539136453308
 20
84.26959918477226
 30
0
  0
VERTEX
  8
0
 10
-46.64539136431311
 20
84.37544473577404
 30
0
  0
VERTEX
  8
0
 10
-46.64539136549873
 20
84.47078453777051
 30
0
  0
VERTEX
  8
0
 10
-46.64539136768475
 20
84.55155381476314
 30
0
  0
VERTEX
  8
0
 10
-46.64539137046616
 20
84.61368779075346
 30
0
  0
VERTEX
  8
0
 10
-46.6453913741567
 20
84.65662442277616
 30
0
  0
VERTEX
  8
0
 10
-46.6453913776773
 20
84.6796757977199
 30
0
  0
SEQEND
  8
0
  0
POLYLINE
  8
0
 62
7
 66
1
  0
VERTEX
  8
0
 10
-45.49539137767741
 20
74.67967579772
 30
0
  0
VERTEX
  8
0
 10
-45.49539136962425
 20
74.7544522997068
 30
0
  0
VERTEX
  8
0
 10
-45.4953913610753
 20
75.01256828766792
 30
0
  0
VERTEX
  8
0
 10
-45.49539135408459
 20
75.46790536565605
 30
0
  0
VERTEX
  8
0
 10
-45.49539134624205
 20
76.14434674734461
 30
0
  0
VERTEX
  8
0
 10
-45.49539134276741
 20
76.613600643472
 30
0
  0
VERTEX
  8
0
 10
-45.49539134056111
 20
77.0158615944503
 30
0
  0
VERTEX
  8
0
 10
-45.49539133929868
 20
77.279920829991
 30
0
  0
VERTEX
  8
0
 10
-45.49539133722941
 20
77.74187226262592
 30
0
  0
VERTEX
  8
0
 10
-45.49539133494631
 20
78.43382840104157
 30
0
  0
VERTEX
  8
0
 10
-45.49539133397273
 20
79.21924624254088
 30
0
  0
VERTEX
  8
0
 10
-45.49539133397168
 20
80.04021907900778
 30
0
  0
VERTEX
  8
0
 10
-45.4953913349536
 20
80.9420730496548
 30
0
  0
VERTEX
  8
0
 10
-45.49539133633737
 20
81.39807433438033
 30
0
  0
VERTEX
  8
0
 10
-45.49539133776636
 20
81.74752302776548
 30
0
  0
VERTEX
  8
0
 10
-45.49539133873356
 20
81.95832500725665
 30
0
  0
VERTEX
  8
0
 10
-45.49539134081059
 20
82.38231679107726
 30
0
  0
VERTEX
  8
0
 10
-45.49539134400396
 20
82.91889570171816
 30
0
  0
VERTEX
  8
0
 10
-45.49539134781734
 20
83.37443674091782
 30
0
  0
VERTEX
  8
0
 10
-45.49539135115623
 20
83.66562204985236
 30
0
  0
VERTEX
  8
0
 10
-45.49539135277268
 20
83.79086771981808
 30
0
  0
VERTEX
  8
0
 10
-45.49539135712179
 20
84.10165238079605
 30
0
  0
VERTEX
  8
0
 10
-45.49539136375065
 20
84.45138952125251
 30
0
  0
VERTEX
  8
0
 10
-45.49539136935611
 20
84.60467784570398
 30
0
  0
VERTEX
  8
0
 10
-45.49539137325627
 20
84.65082543584255
 30
0
  0
VERTEX
  8
0
 10
-45.49539137767741
 20
84.6796757977199
 30
0
  0
SEQEND
  8
0
  0
POLYLINE
  8
0
 62
7
 66
1
  0
VERTEX
  8
0
 10
-52.79539137767742
 20
19.66506549093073
 30
0
  0
VERTEX
  8
0
 10
-52.79539137116458
 20
19.59653863569095
 30
0
  0
VERTEX
  8
0
 10
-52.79539136539719
 20
19.41065151546113
 30
0
  0
VERTEX
  8
0
 10
-52.79539136059118
 20
19.09501842597338
 30
0
  0
VERTEX
  8
0
 10
-52.7953913548973
 20
18.6039862587719
 30
0
  0
VERTEX
  8
0
 10
-52.79539135237511
 20
18.26438217496451
 30
0
  0
VERTEX
  8
0
 10
-52.79539135081687
 20
17.9817805274291
 30
0
  0
VERTEX
  8
0
 10
-52.79539134997829
 20
17.80676833916279
 30
0
  0
VERTEX
  8
0
 10
-52.79539134839313
 20
17.44955355773279
 30
0
  0
VERTEX
  8
0
 10
-52.79539134683725
 20
16.99350904768305
 30
0
  0
VERTEX
  8
0
 10
-52.79539134614987
 20
16.59377536242174
 30
0
  0
VERTEX
  8
0
 10
-52.79539134597736
 20
16.28849348825537
 30
0
  0
VERTEX
  8
0
 10
-52.79539134596342
 20
16.10503403522067
 30
0
  0
VERTEX
  8
0
 10
-52.79539134601072
 20
15.7780901326885
 30
0
  0
VERTEX
  8
0
 10
-52.79539134634189
 20
15.35722792822455
 30
0
  0
VERTEX
  8
0
 10
-52.79539134716577
 20
14.96125754333491
 30
0
  0
VERTEX
  8
0
 10
-52.79539134825404
 20
14.65464763354919
 30
0
  0
VERTEX
  8
0
 10
-52.79539134907245
 20
14.4677961166937
 30
0
  0
VERTEX
  8
0
 10
-52.79539135008492
 20
14.2524268494887
 30
0
  0
VERTEX
  8
0
 10
-52.79539135201537
 20
13.88847001793886
 30
0
  0
VERTEX
  8
0
 10
-52.79539135467525
 20
13.50591572989468
 30
0
  0
VERTEX
  8
0
 10
-52.79539135734232
 20
13.24139406812858
 30
0
  0
VERTEX
  8
0
 10
-52.79539135899044
 20
13.10795235224209
 30
0
  0
VERTEX
  8
0
 10
-52.79539136089904
 20
12.96325687705112
 30
0
  0
VERTEX
  8
0
 10
-52.79539136469607
 20
12.71758329305484
 30
0
  0
VERTEX
  8
0
 10
-52.79539136958216
 20
12.51420343307436
 30
0
  0
VERTEX
  8
0
 10
-52.7953913725871
 20
12.458884043613
 30
0
  0
VERTEX
  8
0
 10
-52.79539137767742
 20
12.41506549093069
 30
0
  0
SEQEND
  8
0
  0
POLYLINE
  8
0
 62
7
 66
1
  0
VERTEX
  8
0
 10
-52.17039137767742
 20
11.79006549093081
 30
0
  0
VERTEX
  8
0
 10
-52.17039136685301
 20
11.97414868591903
 30
0
  0
VERTEX
  8
0
 10
-52.17039136356561
 20
12.10800055390739
 30
0
  0
VERTEX
  8
0
 10
-52.17039135807896
 20
12.42838263250915
 30
0
  0
VERTEX
  8
0
 10
-52.17039135402594
 20
12.76066952136901
 30
0
  0
VERTEX
  8
0
 10
-52.1703913513858
 20
13.03486164459664
 30
0
  0
VERTEX
  8
0
 10
-52.17039134893333
 20
13.34417293778916
 30
0
  0
VERTEX
  8
0
 10
-52.1703913448964
 20
14.03437211336419
 30
0
  0
VERTEX
  8
0
 10
-52.17039134210592
 20
14.80280209505825
 30
0
  0
VERTEX
  8
0
 10
-52.17039134142708
 20
15.09463720406315
 30
0
  0
VERTEX
  8
0
 10
-52.17039134067881
 20
15.61847313059723
 30
0
  0
VERTEX
  8
0
 10
-52.1703913404954
 20
16.04006545374886
 30
0
  0
SEQEND
  8
0
  0
POLYLINE
  8
0
 62
7
 66
1
  0
VERTEX
  8
0
 10
-52.1703913404954
 20
16.04006545374886
 30
0
  0
VERTEX
  8
0
 10
-52.17039134210592
 20
17.27732885123186
 30
0
  0
VERTEX
  8
0
 10
-52.17039134333869
 20
17.67003323404727
 30
0
  0
VERTEX
  8
0
 10
-52.17039134676577
 20
18.40192880890527
 30
0
  0
VERTEX
  8
0
 10
-52.1703913513858
 20
19.04526931097332
 30
0
  0
VERTEX
  8
0
 10
-52.17039135347869
 20
19.26682480694701
 30
0
  0
VERTEX
  8
0
 10
-52.17039135761325
 20
19.61817841545188
 30
0
  0
VERTEX
  8
0
 10
-52.17039136142448
 20
19.86272607859743
 30
0
  0
VERTEX
  8
0
 10
-52.1703913646064
 20
20.01911247546055
 30
0
  0
VERTEX
  8
0
 10
-52.17039136685301
 20
20.10598228511809
 30
0
  0
VERTEX
  8
0
 10
-52.17039137088221
 20
20.19802388802441
 30
0
  0
VERTEX
  8
0
 10
-52.17039137767742
 20
20.29006549093073
 30
0
  0
SEQEND
  8
0
  0
POLYLINE
  8
0
 62
7
 66
1
  0
VERTEX
  8
0
 10
-52.79539137767742
 20
19.66506549093073
 30
0
  0
VERTEX
  8
0
 10
-52.79539137116458
 20
19.59653863569095
 30
0
  0
VERTEX
  8
0
 10
-52.79539136539719
 20
19.41065151546113
 30
0
  0
VERTEX
  8
0
 10
-52.79539136059118
 20
19.09501842597338
 30
0
  0
VERTEX
  8
0
 10
-52.7953913548973
 20
18.6039862587719
 30
0
  0
VERTEX
  8
0
 10
-52.79539135237511
 20
18.26438217496451
 30
0
  0
VERTEX
  8
0
 10
-52.79539135081687
 20
17.9817805274291
 30
0
  0
VERTEX
  8
0
 10
-52.79539134997829
 20
17.80676833916279
 30
0
  0
VERTEX
  8
0
 10
-52.79539134839313
 20
17.44955355773279
 30
0
  0
VERTEX
  8
0
 10
-52.79539134683725
 20
16.99350904768305
 30
0
  0
VERTEX
  8
0
 10
-52.79539134614987
 20
16.59377536242174
 30
0
  0
VERTEX
  8
0
 10
-52.79539134597736
 20
16.28849348825537
 30
0
  0
VERTEX
  8
0
 10
-52.79539134596342
 20
16.10503403522067
 30
0
  0
VERTEX
  8
0
 10
-52.79539134601072
 20
15.7780901326885
 30
0
  0
VERTEX
  8
0
 10
-52.79539134634189
 20
15.35722792822455
 30
0
  0
VERTEX
  8
0
 10
-52.79539134716577
 20
14.96125754333491
 30
0
  0
VERTEX
  8
0
 10
-52.79539134825404
 20
14.65464763354919
 30
0
  0
VERTEX
  8
0
 10
-52.79539134907245
 20
14.4677961166937
 30
0
  0
VERTEX
  8
0
 10
-52.79539135008492
 20
14.2524268494887
 30
0
  0
VERTEX
  8
0
 10
-52.79539135201537
 20
13.88847001793886
 30
0
  0
VERTEX
  8
0
 10
-52.79539135467525
 20
13.50591572989468
 30
0
  0
VERTEX
  8
0
 10
-52.79539135734232
 20
13.24139406812858
 30
0
  0
VERTEX
  8
0
 10
-52.79539135899044
 20
13.10795235224209
 30
0
  0
VERTEX
  8
0
 10
-52.79539136089904
 20
12.96325687705112
 30
0
  0
VERTEX
  8
0
 10
-52.79539136469607
 20
12.71758329305484
 30
0
  0
VERTEX
  8
0
 10
-52.79539136958216
 20
12.51420343307436
 30
0
  0
VERTEX
  8
0
 10
-52.7953913725871
 20
12.458884043613
 30
0
  0
VERTEX
  8
0
 10
-52.79539137767742
 20
12.41506549093069
 30
0
  0
SEQEND
  8
0
  0
POLYLINE
  8
0
 62
7
 66
1
  0
VERTEX
  8
0
 10
-52.17039137767742
 20
11.79006549093081
 30
0
  0
VERTEX
  8
0
 10
-52.17039136685301
 20
11.97414868591903
 30
0
  0
VERTEX
  8
0
 10
-52.17039136356561
 20
12.10800055390739
 30
0
  0
VERTEX
  8
0
 10
-52.17039135807896
 20
12.42838263250915
 30
0
  0
VERTEX
  8
0
 10
-52.17039135402594
 20
12.76066952136901
 30
0
  0
VERTEX
  8
0
 10
-52.1703913513858
 20
13.03486164459664
 30
0
  0
VERTEX
  8
0
 10
-52.17039134893333
 20
13.34417293778916
 30
0
  0
VERTEX
  8
0
 10
-52.1703913448964
 20
14.03437211336419
 30
0
  0
VERTEX
  8
0
 10
-52.17039134210592
 20
14.80280209505825
 30
0
  0
VERTEX
  8
0
 10
-52.17039134142708
 20
15.09463720406315
 30
0
  0
VERTEX
  8
0
 10
-52.17039134067881
 20
15.61847313059723
 30
0
  0
VERTEX
  8
0
 10
-52.1703913404954
 20
16.04006545374886
 30
0
  0
SEQEND
  8
0
  0
POLYLINE
  8
0
 62
7
 66
1
  0
VERTEX
  8
0
 10
-52.1703913404954
 20
16.04006545374886
 30
0
  0
VERTEX
  8
0
 10
-52.17039134210592
 20
17.27732885123186
 30
0
  0
VERTEX
  8
0
 10
-52.17039134333869
 20
17.67003323404727
 30
0
  0
VERTEX
  8
0
 10
-52.17039134676577
 20
18.40192880890527
 30
0
  0
VERTEX
  8
0
 10
-52.1703913513858
 20
19.04526931097332
 30
0
  0
VERTEX
  8
0
 10
-52.17039135347869
 20
19.26682480694701
 30
0
  0
VERTEX
  8
0
 10
-52.17039135761325
 20
19.61817841545188
 30
0
  0
VERTEX
  8
0
 10
-52.17039136142448
 20
19.86272607859743
 30
0
  0
VERTEX
  8
0
 10
-52.1703913646064
 20
20.01911247546055
 30
0
  0
VERTEX
  8
0
 10
-52.17039136685301
 20
20.10598228511809
 30
0
  0
VERTEX
  8
0
 10
-52.17039137088221
 20
20.19802388802441
 30
0
  0
VERTEX
  8
0
 10
-52.17039137767742
 20
20.29006549093073
 30
0
  0
SEQEND
  8
0
  0
POLYLINE
  8
0
 62
7
 66
1
  0
VERTEX
  8
0
 10
-46.6453913776773
 20
11.04006549093074
 30
0
  0
VERTEX
  8
0
 10
-46.64539137326236
 20
11.06919027337226
 30
0
  0
VERTEX
  8
0
 10
-46.64539137147543
 20
11.08949469514266
 30
0
  0
VERTEX
  8
0
 10
-46.64539136911092
 20
11.13457251113944
 30
0
  0
VERTEX
  8
0
 10
-46.64539136716755
 20
11.1963504142518
 30
0
  0
VERTEX
  8
0
 10
-46.64539136604275
 20
11.27580909746213
 30
0
  0
VERTEX
  8
0
 10
-46.64539136613391
 20
11.37392925375281
 30
0
  0
VERTEX
  8
0
 10
-46.64539136783846
 20
11.49169157610621
 30
0
  0
VERTEX
  8
0
 10
-46.64539137155379
 20
11.63007675750473
 30
0
  0
VERTEX
  8
0
 10
-46.6453913776773
 20
11.79006549093073
 30
0
  0
SEQEND
  8
0
  0
POLYLINE
  8
0
 62
7
 66
1
  0
VERTEX
  8
0
 10
-46.6453913776773
 20
20.29006549093073
 30
0
  0
VERTEX
  8
0
 10
-46.64539137430287
 20
20.43217409543758
 30
0
  0
VERTEX
  8
0
 10
-46.64539137181784
 20
20.55387146431723
 30
0
  0
VERTEX
  8
0
 10
-46.64539137011901
 20
20.6568187681433
 30
0
  0
VERTEX
  8
0
 10
-46.64539136910323
 20
20.74267717748942
 30
0
  0
VERTEX
  8
0
 10
-46.64539136866733
 20
20.81310786292921
 30
0
  0
VERTEX
  8
0
 10
-46.64539136870813
 20
20.86977199503629
 30
0
  0
VERTEX
  8
0
 10
-46.64539136912246
 20
20.91433074438427
 30
0
  0
VERTEX
  8
0
 10
-46.64539136980714
 20
20.94844528154679
 30
0
  0
VERTEX
  8
0
 10
-46.64539137065902
 20
20.97377677709747
 30
0
  0
VERTEX
  8
0
 10
-46.64539137157492
 20
20.99198640160992
 30
0
  0
VERTEX
  8
0
 10
-46.64539137245165
 20
21.00473532565777
 30
0
  0
VERTEX
  8
0
 10
-46.64539137301176
 20
21.011378749051
 30
0
  0
VERTEX
  8
0
 10
-46.64539137414049
 20
21.01916925615861
 30
0
  0
VERTEX
  8
0
 10
-46.6453913776773
 20
21.04006549093063
 30
0
  0
SEQEND
  8
0
  0
POLYLINE
  8
0
 62
7
 66
1
  0
VERTEX
  8
0
 10
-46.6453913776773
 20
11.79006549093073
 30
0
  0
VERTEX
  8
0
 10
-46.6453913533112
 20
11.88757863847087
 30
0
  0
VERTEX
  8
0
 10
-46.64539134998397
 20
12.16958446630668
 30
0
  0
VERTEX
  8
0
 10
-46.64539134474264
 20
12.7494164592123
 30
0
  0
VERTEX
  8
0
 10
-46.64539134118752
 20
13.28238372464788
 30
0
  0
VERTEX
  8
0
 10
-46.64539133908102
 20
13.68693605007492
 30
0
  0
VERTEX
  8
0
 10
-46.64539133624434
 20
14.43655827221217
 30
0
  0
VERTEX
  8
0
 10
-46.64539133393382
 20
16.04006549093068
 30
0
  0
VERTEX
  8
0
 10
-46.64539133413511
 20
16.51954151468902
 30
0
  0
VERTEX
  8
0
 10
-46.64539133545664
 20
17.3478842568475
 30
0
  0
VERTEX
  8
0
 10
-46.64539133736192
 20
17.98090564235095
 30
0
  0
VERTEX
  8
0
 10
-46.64539133908102
 20
18.39319493178645
 30
0
  0
VERTEX
  8
0
 10
-46.64539134125187
 20
18.80868843302652
 30
0
  0
VERTEX
  8
0
 10
-46.64539134586273
 20
19.4716970241726
 30
0
  0
VERTEX
  8
0
 10
-46.64539135015392
 20
19.92662768169754
 30
0
  0
VERTEX
  8
0
 10
-46.6453913533112
 20
20.19255234339049
 30
0
  0
VERTEX
  8
0
 10
-46.64539135685396
 20
20.24234437649594
 30
0
  0
VERTEX
  8
0
 10
-46.6453913776773
 20
20.29006549093073
 30
0
  0
SEQEND
  8
0
  0
POLYLINE
  8
0
 62
7
 66
1
  0
VERTEX
  8
0
 10
-45.49539137767741
 20
11.04006549093073
 30
0
  0
VERTEX
  8
0
 10
-45.4953913696236
 20
11.11485363742527
 30
0
  0
VERTEX
  8
0
 10
-45.49539136107214
 20
11.37311701289876
 30
0
  0
VERTEX
  8
0
 10
-45.49539135408468
 20
11.82828910822547
 30
0
  0
VERTEX
  8
0
 10
-45.49539134624217
 20
12.50472649720725
 30
0
  0
VERTEX
  8
0
 10
-45.49539134276743
 20
12.97398909376468
 30
0
  0
VERTEX
  8
0
 10
-45.49539134056111
 20
13.37625128766156
 30
0
  0
VERTEX
  8
0
 10
-45.49539133929869
 20
13.64031052320171
 30
0
  0
VERTEX
  8
0
 10
-45.49539133722941
 20
14.10226195583675
 30
0
  0
VERTEX
  8
0
 10
-45.49539133494631
 20
14.79421809425259
 30
0
  0
VERTEX
  8
0
 10
-45.49539133397273
 20
15.57963593575178
 30
0
  0
VERTEX
  8
0
 10
-45.49539133397168
 20
16.40060877221846
 30
0
  0
VERTEX
  8
0
 10
-45.49539133495361
 20
17.30246274286543
 30
0
  0
VERTEX
  8
0
 10
-45.49539133633736
 20
17.75846402759095
 30
0
  0
VERTEX
  8
0
 10
-45.49539133776636
 20
18.10791272097613
 30
0
  0
VERTEX
  8
0
 10
-45.49539133873356
 20
18.31871470046739
 30
0
  0
VERTEX
  8
0
 10
-45.49539134081059
 20
18.74270648428802
 30
0
  0
VERTEX
  8
0
 10
-45.49539134400396
 20
19.27928539492893
 30
0
  0
VERTEX
  8
0
 10
-45.49539134878119
 20
19.82499063227379
 30
0
  0
VERTEX
  8
0
 10
-45.49539135236402
 20
20.11976369230406
 30
0
  0
VERTEX
  8
0
 10
-45.49539135457807
 20
20.28871150369339
 30
0
  0
VERTEX
  8
0
 10
-45.49539135834057
 20
20.55041569506914
 30
0
  0
VERTEX
  8
0
 10
-45.49539136455059
 20
20.83828331550878
 30
0
  0
VERTEX
  8
0
 10
-45.49539137243836
 20
21.00002958772714
 30
0
  0
VERTEX
  8
0
 10
-45.49539137767741
 20
21.04006549093063
 30
0
  0
SEQEND
  8
0
  0
POLYLINE
  8
0
 62
7
 66
1
  0
VERTEX
  8
0
 10
-53.99600119190147
 20
42.02649670255747
 30
0
  0
VERTEX
  8
0
 10
-53.99600120020111
 20
41.85987064432318
 30
0
  0
SEQEND
  8
0
  0
POLYLINE
  8
0
 62
7
 66
1
  0
VERTEX
  8
0
 10
-53.99600115610735
 20
51.05504469173906
 30
0
  0
VERTEX
  8
0
 10
-53.99600115513918
 20
50.83713976663329
 30
0
  0
VERTEX
  8
0
 10
-53.99600115431463
 20
50.60391781896703
 30
0
  0
VERTEX
  8
0
 10
-53.99600115395961
 20
50.48151463159079
 30
0
  0
SEQEND
  8
0
  0
POLYLINE
  8
0
 62
7
 66
1
  0
VERTEX
  8
0
 10
-53.99600114779874
 20
47.50631725372946
 30
0
  0
VERTEX
  8
0
 10
-53.99600114801552
 20
47.21249835218364
 30
0
  0
VERTEX
  8
0
 10
-53.9960011481692
 20
47.06658651280888
 30
0
  0
VERTEX
  8
0
 10
-53.9960011487108
 20
46.69236835337316
 30
0
  0
VERTEX
  8
0
 10
-53.99600114969294
 20
46.22576812261956
 30
0
  0
VERTEX
  8
0
 10
-53.99600115126953
 20
45.68775850406455
 30
0
  0
VERTEX
  8
0
 10
-53.99600115359441
 20
45.09931218122458
 30
0
  0
VERTEX
  8
0
 10
-53.99600115682151
 20
44.48140183761613
 30
0
  0
VERTEX
  8
0
 10
-53.99600115767539
 20
44.34230575575472
 30
0
  0
VERTEX
  8
0
 10
-53.99600116003995
 20
43.99616665251357
 30
0
  0
VERTEX
  8
0
 10
-53.99600116333602
 20
43.58857260029277
 30
0
  0
SEQEND
  8
0
  0
POLYLINE
  8
0
 62
7
 66
1
  0
VERTEX
  8
0
 10
-53.99600114780014
 20
48.21342403491633
 30
0
  0
VERTEX
  8
0
 10
-53.99600114771991
 20
47.98710260908428
 30
0
  0
VERTEX
  8
0
 10
-53.99600114771216
 20
47.77945043305837
 30
0
  0
VERTEX
  8
0
 10
-53.99600114775967
 20
47.59199447430076
 30
0
  0
VERTEX
  8
0
 10
-53.99600114779874
 20
47.50631725372946
 30
0
  0
SEQEND
  8
0
  0
POLYLINE
  8
0
 62
7
 66
1
  0
VERTEX
  8
0
 10
-59.89600115395952
 20
50.48151463159086
 30
0
  0
VERTEX
  8
0
 10
-59.8960011555273
 20
50.81542082532251
 30
0
  0
VERTEX
  8
0
 10
-59.89600115712585
 20
51.11070652566872
 30
0
  0
VERTEX
  8
0
 10
-59.89600115791872
 20
51.24397059195746
 30
0
  0
VERTEX
  8
0
 10
-59.89600116109667
 20
51.71102789336199
 30
0
  0
VERTEX
  8
0
 10
-59.89600116283272
 20
51.93000114687961
 30
0
  0
SEQEND
  8
0
  0
POLYLINE
  8
0
 62
7
 66
1
  0
VERTEX
  8
0
 10
-61.99600115395951
 20
50.48151463159088
 30
0
  0
VERTEX
  8
0
 10
-61.99600115552729
 20
50.81542082532349
 30
0
  0
VERTEX
  8
0
 10
-61.99600115712585
 20
51.11070652566939
 30
0
  0
VERTEX
  8
0
 10
-61.99600115791871
 20
51.24397059195748
 30
0
  0
VERTEX
  8
0
 10
-61.99600115992809
 20
51.55032192713861
 30
0
  0
VERTEX
  8
0
 10
-61.99600116189041
 20
51.81387758640649
 30
0
  0
VERTEX
  8
0
 10
-61.99600116283281
 20
51.93000114687963
 30
0
  0
SEQEND
  8
0
  0
POLYLINE
  8
0
 62
7
 66
1
  0
VERTEX
  8
0
 10
-65.99600115395951
 20
50.48151463159091
 30
0
  0
VERTEX
  8
0
 10
-65.99600115462381
 20
50.63062065604632
 30
0
  0
VERTEX
  8
0
 10
-65.99600115523055
 20
50.7592314993424
 30
0
  0
VERTEX
  8
0
 10
-65.99600115579138
 20
50.87109622769363
 30
0
  0
VERTEX
  8
0
 10
-65.9960011563179
 20
50.96996390731448
 30
0
  0
VERTEX
  8
0
 10
-65.99600115682175
 20
51.05958360441942
 30
0
  0
VERTEX
  8
0
 10
-65.99600115732378
 20
51.14524709632789
 30
0
  0
VERTEX
  8
0
 10
-65.99600115780389
 20
51.22495265830396
 30
0
  0
VERTEX
  8
0
 10
-65.99600115820161
 20
51.28980465058999
 30
0
  0
SEQEND
  8
0
  0
POLYLINE
  8
0
 62
7
 66
1
  0
VERTEX
  8
0
 10
-65.99600115820161
 20
51.28980465058999
 30
0
  0
VERTEX
  8
0
 10
-65.99600115908669
 20
51.42662608689557
 30
0
  0
VERTEX
  8
0
 10
-65.99600115994723
 20
51.55287343545501
 30
0
  0
VERTEX
  8
0
 10
-65.99600116080281
 20
51.67168439031636
 30
0
  0
VERTEX
  8
0
 10
-65.99600116123482
 20
51.72928174950022
 30
0
  0
SEQEND
  8
0
  0
POLYLINE
  8
0
 62
7
 66
1
  0
VERTEX
  8
0
 10
-65.99600116123482
 20
51.72928174950022
 30
0
  0
VERTEX
  8
0
 10
-65.99600116229163
 20
51.86408536663708
 30
0
  0
VERTEX
  8
0
 10
-65.99600116283281
 20
51.93000114687965
 30
0
  0
SEQEND
  8
0
  0
POLYLINE
  8
0
 62
7
 66
1
  0
VERTEX
  8
0
 10
-63.29600115395951
 20
50.48151463159088
 30
0
  0
VERTEX
  8
0
 10
-63.29600115552728
 20
50.81542082532472
 30
0
  0
VERTEX
  8
0
 10
-63.29600115712585
 20
51.11070652567022
 30
0
  0
VERTEX
  8
0
 10
-63.29600115791871
 20
51.24397059195749
 30
0
  0
VERTEX
  8
0
 10
-63.29600116110071
 20
51.71155763090902
 30
0
  0
VERTEX
  8
0
 10
-63.29600116283281
 20
51.93000114687963
 30
0
  0
SEQEND
  8
0
  0
POLYLINE
  8
0
 62
7
 66
1
  0
VERTEX
  8
0
 10
-58.59600115395951
 20
50.48151463159084
 30
0
  0
VERTEX
  8
0
 10
-58.59600115552729
 20
50.81542082532344
 30
0
  0
VERTEX
  8
0
 10
-58.59600115712584
 20
51.11070652566934
 30
0
  0
VERTEX
  8
0
 10
-58.59600115791871
 20
51.24397059195744
 30
0
  0
VERTEX
  8
0
 10
-58.59600116109666
 20
51.71102789336437
 30
0
  0
VERTEX
  8
0
 10
-58.59600116283271
 20
51.9300011468796
 30
0
  0
SEQEND
  8
0
  0
POLYLINE
  8
0
 62
7
 66
1
  0
VERTEX
  8
0
 10
-59.89600117726521
 20
42.57432836227229
 30
0
  0
VERTEX
  8
0
 10
-59.89600117499459
 20
42.71120420416235
 30
0
  0
VERTEX
  8
0
 10
-59.89600117276915
 20
42.86204484781872
 30
0
  0
VERTEX
  8
0
 10
-59.89600117059472
 20
43.02687666832359
 30
0
  0
VERTEX
  8
0
 10
-59.89600117009453
 20
43.06741721995974
 30
0
  0
VERTEX
  8
0
 10
-59.89600116958391
 20
43.10987064432346
 30
0
  0
SEQEND
  8
0
  0
POLYLINE
  8
0
 62
7
 66
1
  0
VERTEX
  8
0
 10
-59.89600116958391
 20
43.10987064432346
 30
0
  0
VERTEX
  8
0
 10
-59.89600116821507
 20
43.22922328849397
 30
0
  0
VERTEX
  8
0
 10
-59.89600116679396
 20
43.36223381467938
 30
0
  0
VERTEX
  8
0
 10
-59.89600116533362
 20
43.50945740804879
 30
0
  0
VERTEX
  8
0
 10
-59.89600116459282
 20
43.58857260029284
 30
0
  0
SEQEND
  8
0
  0
POLYLINE
  8
0
 62
7
 66
1
  0
VERTEX
  8
0
 10
-61.99600116958391
 20
43.10987064432349
 30
0
  0
VERTEX
  8
0
 10
-61.99600116751872
 20
43.29319088791628
 30
0
  0
VERTEX
  8
0
 10
-61.99600116554468
 20
43.48747648973704
 30
0
  0
VERTEX
  8
0
 10
-61.99600116459281
 20
43.58857260029286
 30
0
  0
SEQEND
  8
0
  0
POLYLINE
  8
0
 62
7
 66
1
  0
VERTEX
  8
0
 10
-63.29600117726521
 20
42.57432836227232
 30
0
  0
VERTEX
  8
0
 10
-63.29600117500241
 20
42.710704887507
 30
0
  0
VERTEX
  8
0
 10
-63.29600117277673
 20
42.8615023518773
 30
0
  0
VERTEX
  8
0
 10
-63.29600117059471
 20
43.02687666832362
 30
0
  0
VERTEX
  8
0
 10
-63.29600117009426
 20
43.06743919858221
 30
0
  0
VERTEX
  8
0
 10
-63.29600116958392
 20
43.10987064432351
 30
0
  0
SEQEND
  8
0
  0
POLYLINE
  8
0
 62
7
 66
1
  0
VERTEX
  8
0
 10
-63.29600116958392
 20
43.10987064432351
 30
0
  0
VERTEX
  8
0
 10
-63.29600116821224
 20
43.22947489084187
 30
0
  0
VERTEX
  8
0
 10
-63.29600116679077
 20
43.36253794019335
 30
0
  0
VERTEX
  8
0
 10
-63.29600116533213
 20
43.50961057215404
 30
0
  0
VERTEX
  8
0
 10
-63.29600116459281
 20
43.58857260029287
 30
0
  0
SEQEND
  8
0
  0
POLYLINE
  8
0
 62
7
 66
1
  0
VERTEX
  8
0
 10
-65.99600117726511
 20
42.57432836227233
 30
0
  0
VERTEX
  8
0
 10
-65.99600117455405
 20
42.73970571604122
 30
0
  0
VERTEX
  8
0
 10
-65.99600117189831
 20
42.9258941250858
 30
0
  0
VERTEX
  8
0
 10
-65.99600117059471
 20
43.02687666832365
 30
0
  0
VERTEX
  8
0
 10
-65.99600116869156
 20
43.18673285640701
 30
0
  0
VERTEX
  8
0
 10
-65.99600116667881
 20
43.37343643706878
 30
0
  0
VERTEX
  8
0
 10
-65.99600116459281
 20
43.58857260029289
 30
0
  0
SEQEND
  8
0
  0
POLYLINE
  8
0
 62
7
 66
1
  0
VERTEX
  8
0
 10
-61.99600117726521
 20
42.57432836227231
 30
0
  0
VERTEX
  8
0
 10
-61.99600117363337
 20
42.80141291207547
 30
0
  0
VERTEX
  8
0
 10
-61.99600117059471
 20
43.02687666832361
 30
0
  0
VERTEX
  8
0
 10
-61.99600117008684
 20
43.06804743842395
 30
0
  0
VERTEX
  8
0
 10
-61.99600116958391
 20
43.10987064432349
 30
0
  0
SEQEND
  8
0
  0
POLYLINE
  8
0
 62
7
 66
1
  0
VERTEX
  8
0
 10
-50.99600112952012
 20
53.75307819444456
 30
0
 42
-0.005649843866792749
  0
VERTEX
  8
0
 10
-51.12810381036521
 20
53.7500689124664
 30
0
  0
VERTEX
  8
0
 10
-51.196001210215
 20
53.74967619067834
 30
0
  0
SEQEND
  8
0
  0
POLYLINE
  8
0
 62
7
 66
1
  0
VERTEX
  8
0
 10
-53.99600119083101
 20
52.49429542671424
 30
0
  0
VERTEX
  8
0
 10
-53.99600116711338
 20
52.43345719298659
 30
0
  0
VERTEX
  8
0
 10
-53.99600116562959
 20
52.37533192195202
 30
0
  0
VERTEX
  8
0
 10
-53.9960011651326
 20
52.32438980160843
 30
0
  0
VERTEX
  8
0
 10
-53.99600116462587
 20
52.26667083906752
 30
0
  0
VERTEX
  8
0
 10
-53.99600116412596
 20
52.2002737633267
 30
0
  0
VERTEX
  8
0
 10
-53.99600116364945
 20
52.12329730338347
 30
0
  0
VERTEX
  8
0
 10
-53.99600116321287
 20
52.03384018823525
 30
0
  0
VERTEX
  8
0
 10
-53.99600116283281
 20
51.93000114687954
 30
0
  0
SEQEND
  8
0
  0
POLYLINE
  8
0
 62
7
 66
1
  0
VERTEX
  8
0
 10
-53.99600116283281
 20
51.93000114687954
 30
0
  0
VERTEX
  8
0
 10
-53.99600116090939
 20
51.74672501569652
 30
0
  0
VERTEX
  8
0
 10
-53.99600115913248
 20
51.54001708691305
 30
0
  0
VERTEX
  8
0
 10
-53.99600115752437
 20
51.30956207432769
 30
0
  0
VERTEX
  8
0
 10
-53.99600115610735
 20
51.05504469173906
 30
0
  0
SEQEND
  8
0
  0
POLYLINE
  8
0
 62
7
 66
1
  0
VERTEX
  8
0
 10
-53.9960012115088
 20
52.91105105311492
 30
0
  0
VERTEX
  8
0
 10
-53.99600117991462
 20
52.75271099198244
 30
0
  0
VERTEX
  8
0
 10
-53.99600118042
 20
52.58318538862486
 30
0
  0
VERTEX
  8
0
 10
-53.99600119083101
 20
52.49429542671424
 30
0
  0
SEQEND
  8
0
  0
POLYLINE
  8
0
 62
7
 66
1
  0
VERTEX
  8
0
 10
-53.99600116333602
 20
43.58857260029277
 30
0
  0
VERTEX
  8
0
 10
-53.99600116615125
 20
43.29340197572675
 30
0
  0
VERTEX
  8
0
 10
-53.99600116945177
 20
42.99700125903784
 30
0
  0
VERTEX
  8
0
 10
-53.99600117325875
 20
42.71044912496806
 30
0
  0
VERTEX
  8
0
 10
-53.9960011753588
 20
42.57432836227222
 30
0
  0
SEQEND
  8
0
  0
POLYLINE
  8
0
 62
7
 66
1
  0
VERTEX
  8
0
 10
-53.99600115395961
 20
50.48151463159079
 30
0
  0
VERTEX
  8
0
 10
-53.9960011514905
 20
50.0959437608133
 30
0
  0
VERTEX
  8
0
 10
-53.99600115052078
 20
49.79732872698485
 30
0
  0
VERTEX
  8
0
 10
-53.99600114908422
 20
49.22443552648771
 30
0
  0
VERTEX
  8
0
 10
-53.99600114821759
 20
48.69290277762831
 30
0
  0
VERTEX
  8
0
 10
-53.99600114780014
 20
48.21342403491633
 30
0
  0
SEQEND
  8
0
  0
POLYLINE
  8
0
 62
7
 66
1
  0
VERTEX
  8
0
 10
-53.9960011753588
 20
42.57432836227222
 30
0
  0
VERTEX
  8
0
 10
-53.99600117590585
 20
42.54180168374295
 30
0
  0
VERTEX
  8
0
 10
-53.99600117670509
 20
42.49710228743523
 30
0
  0
VERTEX
  8
0
 10
-53.99600117772136
 20
42.44509926046047
 30
0
  0
VERTEX
  8
0
 10
-53.99600117905209
 20
42.38505306980945
 30
0
  0
VERTEX
  8
0
 10
-53.99600118081663
 20
42.31786832646139
 30
0
  0
VERTEX
  8
0
 10
-53.99600118306622
 20
42.24609378538389
 30
0
  0
VERTEX
  8
0
 10
-53.99600118596685
 20
42.16666958142398
 30
0
  0
VERTEX
  8
0
 10
-53.99600118968445
 20
42.07653584942869
 30
0
  0
VERTEX
  8
0
 10
-53.99600119190147
 20
42.02649670255747
 30
0
  0
SEQEND
  8
0
  0
POLYLINE
  8
0
 62
7
 66
1
  0
VERTEX
  8
0
 10
-51.19600118893982
 20
53.72017368277984
 30
0
 42
0.004409296032908356
  0
VERTEX
  8
0
 10
-51.09898072808431
 20
53.72101592291354
 30
0
 42
0.004677499772712835
  0
VERTEX
  8
0
 10
-50.99600112933371
 20
53.72375433535847
 30
0
  0
SEQEND
  8
0
  0
POLYLINE
  8
0
 62
7
 66
1
  0
VERTEX
  8
0
 10
-58.59600117726521
 20
42.57432836227228
 30
0
  0
VERTEX
  8
0
 10
-58.59600117499458
 20
42.71120420416132
 30
0
  0
VERTEX
  8
0
 10
-58.59600117276914
 20
42.8620448478176
 30
0
  0
VERTEX
  8
0
 10
-58.59600117059472
 20
43.02687666832358
 30
0
  0
VERTEX
  8
0
 10
-58.59600117009452
 20
43.06741721995974
 30
0
  0
VERTEX
  8
0
 10
-58.59600116958391
 20
43.10987064432345
 30
0
  0
SEQEND
  8
0
  0
POLYLINE
  8
0
 62
7
 66
1
  0
VERTEX
  8
0
 10
-58.59600116958391
 20
43.10987064432345
 30
0
  0
VERTEX
  8
0
 10
-58.59600116821508
 20
43.22922328849396
 30
0
  0
VERTEX
  8
0
 10
-58.59600116679395
 20
43.36223381467936
 30
0
  0
VERTEX
  8
0
 10
-58.59600116533362
 20
43.50945740804878
 30
0
  0
VERTEX
  8
0
 10
-58.59600116459281
 20
43.58857260029283
 30
0
  0
SEQEND
  8
0
  0
POLYLINE
  8
0
 62
7
 66
1
  0
VERTEX
  8
0
 10
-27.3960007715155
 20
145.8598706443255
 30
0
  0
VERTEX
  8
0
 10
-27.39600076566685
 20
145.7867521374271
 30
0
  0
VERTEX
  8
0
 10
-27.39600076356423
 20
145.7358454112041
 30
0
  0
VERTEX
  8
0
 10
-27.39600076143351
 20
145.6537471780208
 30
0
  0
VERTEX
  8
0
 10
-27.39600075909429
 20
145.518293903376
 30
0
  0
VERTEX
  8
0
 10
-27.39600075706095
 20
145.3686332403258
 30
0
  0
VERTEX
  8
0
 10
-27.39600075548521
 20
145.2352274765017
 30
0
  0
VERTEX
  8
0
 10
-27.3960007545601
 20
145.1518947532634
 30
0
  0
VERTEX
  8
0
 10
-27.39600075399162
 20
145.0996076806762
 30
0
  0
VERTEX
  8
0
 10
-27.39600075290357
 20
144.9925496264338
 30
0
  0
VERTEX
  8
0
 10
-27.39600075161448
 20
144.8448294008875
 30
0
  0
VERTEX
  8
0
 10
-27.39600075046128
 20
144.6802484157978
 30
0
  0
VERTEX
  8
0
 10
-27.39600074953241
 20
144.5177271088908
 30
0
  0
VERTEX
  8
0
 10
-27.39600074872443
 20
144.355099413997
 30
0
  0
VERTEX
  8
0
 10
-27.39600074806479
 20
144.2074951962136
 30
0
  0
VERTEX
  8
0
 10
-27.39600074758092
 20
144.0900443206377
 30
0
  0
VERTEX
  8
0
 10
-27.3960007473003
 20
144.0178766523664
 30
0
  0
VERTEX
  8
0
 10
-27.39600074721052
 20
143.9936591319798
 30
0
  0
VERTEX
  8
0
 10
-27.39600074695986
 20
143.9196328543529
 30
0
  0
VERTEX
  8
0
 10
-27.39600074677051
 20
143.8598706443255
 30
0
  0
SEQEND
  8
0
  0
POLYLINE
  8
0
 62
7
 66
1
  0
VERTEX
  8
0
 10
-27.39600074677051
 20
143.8598706443255
 30
0
  0
VERTEX
  8
0
 10
-27.39600074597431
 20
143.5504695675671
 30
0
  0
SEQEND
  8
0
  0
POLYLINE
  8
0
 62
7
 66
1
  0
VERTEX
  8
0
 10
-50.99600120020102
 20
57.85987064432501
 30
0
  0
VERTEX
  8
0
 10
-50.99600118486054
 20
57.71916848711108
 30
0
  0
VERTEX
  8
0
 10
-50.99600116656761
 20
57.16123062317057
 30
0
  0
VERTEX
  8
0
 10
-50.99600115487059
 20
56.41966258154628
 30
0
  0
VERTEX
  8
0
 10
-50.99600114902571
 20
55.97720841802663
 30
0
  0
VERTEX
  8
0
 10
-50.99600114417721
 20
55.58596373427132
 30
0
  0
VERTEX
  8
0
 10
-50.99600113674882
 20
54.85085483498506
 30
0
  0
VERTEX
  8
0
 10
-50.99600112940991
 20
53.7953964398512
 30
0
  0
VERTEX
  8
0
 10
-50.99600112408386
 20
52.791274113122
 30
0
  0
VERTEX
  8
0
 10
-50.99600112129129
 20
52.19723499182211
 30
0
  0
VERTEX
  8
0
 10
-50.99600111903399
 20
51.68267973123829
 30
0
  0
VERTEX
  8
0
 10
-50.99600111603161
 20
50.85759359981979
 30
0
  0
VERTEX
  8
0
 10
-50.99600111331861
 20
49.48072798470103
 30
0
  0
VERTEX
  8
0
 10
-50.99600111271431
 20
47.73720446937804
 30
0
  0
VERTEX
  8
0
 10
-50.99600111333538
 20
46.17002641925528
 30
0
  0
VERTEX
  8
0
 10
-50.99600111685564
 20
44.59712139550707
 30
0
  0
VERTEX
  8
0
 10
-50.99600112264631
 20
43.23125267686848
 30
0
  0
VERTEX
  8
0
 10
-50.99600113106023
 20
41.62366078753931
 30
0
  0
VERTEX
  8
0
 10
-50.9960011405302
 20
40.46003230126339
 30
0
  0
VERTEX
  8
0
 10
-50.99600114716062
 20
39.88782672071299
 30
0
  0
VERTEX
  8
0
 10
-50.99600115039149
 20
39.63749689339456
 30
0
  0
VERTEX
  8
0
 10
-50.99600115908997
 20
39.0159191713969
 30
0
  0
VERTEX
  8
0
 10
-50.99600117234938
 20
38.31638104911012
 30
0
  0
VERTEX
  8
0
 10
-50.99600118356059
 20
38.00982898307911
 30
0
  0
VERTEX
  8
0
 10
-50.9960011913591
 20
37.91756702032297
 30
0
  0
VERTEX
  8
0
 10
-50.99600120020102
 20
37.85987064432501
 30
0
  0
SEQEND
  8
0
  0
POLYLINE
  8
0
 62
7
 66
1
  0
VERTEX
  8
0
 10
-17.4960014040347
 20
142.4535044152546
 30
0
  0
VERTEX
  8
0
 10
-17.69254242317192
 20
142.566977425067
 30
0
  0
VERTEX
  8
0
 10
-17.71129930577436
 20
142.5778067162312
 30
0
  0
VERTEX
  8
0
 10
-17.75613491584462
 20
142.6036925676347
 30
0
  0
VERTEX
  8
0
 10
-17.80859965704936
 20
142.6339830999137
 30
0
  0
VERTEX
  8
0
 10
-17.86613353496536
 20
142.667200299599
 30
0
  0
VERTEX
  8
0
 10
-17.89600140193281
 20
142.6844445205097
 30
0
  0
SEQEND
  8
0
  0
POLYLINE
  8
0
 62
7
 66
1
  0
VERTEX
  8
0
 10
-16.46779754780062
 20
141.8598706430622
 30
0
  0
VERTEX
  8
0
 10
-16.56822480024491
 20
141.9178523442863
 30
0
  0
VERTEX
  8
0
 10
-16.6945089013654
 20
141.9907625040277
 30
0
  0
VERTEX
  8
0
 10
-16.7657761338298
 20
142.0319086598436
 30
0
  0
VERTEX
  8
0
 10
-16.82204364194447
 20
142.0643947207693
 30
0
  0
VERTEX
  8
0
 10
-16.90589796037174
 20
142.1128080340288
 30
0
  0
VERTEX
  8
0
 10
-17.01254178312082
 20
142.174378873708
 30
0
  0
VERTEX
  8
0
 10
-17.1371778042009
 20
142.2463375138927
 30
0
  0
VERTEX
  8
0
 10
-17.27500871762121
 20
142.3259142286688
 30
0
  0
VERTEX
  8
0
 10
-17.42123721739093
 20
142.4103392921222
 30
0
  0
VERTEX
  8
0
 10
-17.4960014040347
 20
142.4535044152546
 30
0
  0
SEQEND
  8
0
  0
POLYLINE
  8
0
 62
7
 66
1
  0
VERTEX
  8
0
 10
-22.29792518603341
 20
145.2258964187731
 30
0
  0
VERTEX
  8
0
 10
-22.36914110103061
 20
145.2670129461966
 30
0
  0
VERTEX
  8
0
 10
-22.43011720821486
 20
145.3022175178525
 30
0
  0
VERTEX
  8
0
 10
-22.48365817503291
 20
145.3331294092358
 30
0
  0
VERTEX
  8
0
 10
-22.53256866893149
 20
145.3613678958415
 30
0
  0
VERTEX
  8
0
 10
-22.590333361303
 20
145.3947183562677
 30
0
  0
VERTEX
  8
0
 10
-22.65546105637721
 20
145.4323198482403
 30
0
  0
VERTEX
  8
0
 10
-22.68515428635072
 20
145.4494632424141
 30
0
  0
SEQEND
  8
0
  0
POLYLINE
  8
0
 62
7
 66
1
  0
VERTEX
  8
0
 10
-18.19984832256301
 20
142.8598706443256
 30
0
  0
VERTEX
  8
0
 10
-18.35776662474024
 20
142.9510448185906
 30
0
  0
VERTEX
  8
0
 10
-18.53505679053226
 20
143.0534033435108
 30
0
  0
VERTEX
  8
0
 10
-18.7301230654758
 20
143.1660249098117
 30
0
  0
VERTEX
  8
0
 10
-18.83382357060961
 20
143.2258964243317
 30
0
  0
SEQEND
  8
0
  0
POLYLINE
  8
0
 62
7
 66
1
  0
VERTEX
  8
0
 10
-18.83382357060961
 20
143.2258964243317
 30
0
  0
VERTEX
  8
0
 10
-19.093784098697
 20
143.3759847050889
 30
0
  0
VERTEX
  8
0
 10
-19.53920745892268
 20
143.6331500017325
 30
0
  0
VERTEX
  8
0
 10
-20.39118602466385
 20
144.1250400551054
 30
0
  0
VERTEX
  8
0
 10
-21.1757242905818
 20
144.577993432805
 30
0
  0
VERTEX
  8
0
 10
-21.874082944425
 20
144.9811909878852
 30
0
  0
VERTEX
  8
0
 10
-22.07700661959035
 20
145.0983490257405
 30
0
  0
VERTEX
  8
0
 10
-22.29792518603341
 20
145.2258964187731
 30
0
  0
SEQEND
  8
0
  0
POLYLINE
  8
0
 62
7
 66
1
  0
VERTEX
  8
0
 10
-17.89600140193281
 20
142.6844445205097
 30
0
  0
VERTEX
  8
0
 10
-17.95359214340619
 20
142.7176945503456
 30
0
  0
VERTEX
  8
0
 10
-18.00283631595702
 20
142.7461256863774
 30
0
  0
VERTEX
  8
0
 10
-18.0448357230087
 20
142.7703740551006
 30
0
  0
VERTEX
  8
0
 10
-18.08069216798464
 20
142.7910757830107
 30
0
  0
VERTEX
  8
0
 10
-18.10562777780045
 20
142.8054723638767
 30
0
  0
VERTEX
  8
0
 10
-18.12360179324587
 20
142.8158496672379
 30
0
  0
VERTEX
  8
0
 10
-18.14366697718808
 20
142.8274343096856
 30
0
  0
VERTEX
  8
0
 10
-18.16826769762712
 20
142.841637549341
 30
0
  0
VERTEX
  8
0
 10
-18.19984832256301
 20
142.8598706443256
 30
0
  0
SEQEND
  8
0
  0
POLYLINE
  8
0
 62
7
 66
1
  0
VERTEX
  8
0
 10
-40.39600090274581
 20
-28.84012935567468
 30
0
  0
VERTEX
  8
0
 10
-40.3960008965596
 20
-28.54723613686123
 30
0
  0
VERTEX
  8
0
 10
-40.39600089597789
 20
-28.47381071008163
 30
0
  0
VERTEX
  8
0
 10
-40.39600089502697
 20
-28.31083978609495
 30
0
  0
VERTEX
  8
0
 10
-40.39600089437479
 20
-28.13076838111544
 30
0
  0
VERTEX
  8
0
 10
-40.39600089403984
 20
-27.9388680306357
 30
0
  0
VERTEX
  8
0
 10
-40.3960008939971
 20
-27.84012935567466
 30
0
  0
SEQEND
  8
0
  0
POLYLINE
  8
0
 62
7
 66
1
  0
VERTEX
  8
0
 10
-40.39600089139123
 20
-15.14014059536311
 30
0
  0
VERTEX
  8
0
 10
-40.39600089210242
 20
-15.38452540237884
 30
0
  0
VERTEX
  8
0
 10
-40.39600089257984
 20
-15.57769307967871
 30
0
  0
VERTEX
  8
0
 10
-40.39600089328963
 20
-15.94451815712547
 30
0
  0
VERTEX
  8
0
 10
-40.39600089372255
 20
-16.28081269683424
 30
0
  0
VERTEX
  8
0
 10
-40.39600089393844
 20
-16.58115649696423
 30
0
  0
VERTEX
  8
0
 10
-40.3960008939971
 20
-16.84012935567466
 30
0
  0
SEQEND
  8
0
  0
POLYLINE
  8
0
 62
7
 66
1
  0
VERTEX
  8
0
 10
-27.39600074597431
 20
143.5504695675671
 30
0
  0
VERTEX
  8
0
 10
-27.11714054605247
 20
143.3894695562449
 30
0
  0
VERTEX
  8
0
 10
-26.80198100338112
 20
143.2075121095818
 30
0
  0
VERTEX
  8
0
 10
-26.63677534991995
 20
143.1121305811328
 30
0
  0
VERTEX
  8
0
 10
-26.3352012116323
 20
142.9380166712603
 30
0
  0
VERTEX
  8
0
 10
-26.19984832256301
 20
142.8598706443256
 30
0
  0
SEQEND
  8
0
  0
POLYLINE
  8
0
 62
7
 66
1
  0
VERTEX
  8
0
 10
-43.49539121168721
 20
-20.39811304468475
 30
0
  0
VERTEX
  8
0
 10
-43.49539121210158
 20
-20.34735757972098
 30
0
  0
VERTEX
  8
0
 10
-43.49539121259268
 20
-20.2765983935953
 30
0
  0
VERTEX
  8
0
 10
-43.49539121310517
 20
-20.18549069580899
 30
0
  0
VERTEX
  8
0
 10
-43.4953912135837
 20
-20.07368969586328
 30
0
  0
VERTEX
  8
0
 10
-43.49539121387321
 20
-19.98117849400058
 30
0
  0
VERTEX
  8
0
 10
-43.4953912142074
 20
-19.78913537001711
 30
0
  0
VERTEX
  8
0
 10
-43.49539121424962
 20
-19.6910062634982
 30
0
  0
SEQEND
  8
0
  0
POLYLINE
  8
0
 62
7
 66
1
  0
VERTEX
  8
0
 10
-43.49539120550082
 20
-15.10521982588381
 30
0
  0
VERTEX
  8
0
 10
-43.49539121168712
 20
-15.39811304469725
 30
0
  0
VERTEX
  8
0
 10
-43.49539121226876
 20
-15.47152752523122
 30
0
  0
VERTEX
  8
0
 10
-43.49539121321963
 20
-15.63448444062592
 30
0
  0
VERTEX
  8
0
 10
-43.49539121387183
 20
-15.81455434700846
 30
0
  0
VERTEX
  8
0
 10
-43.49539121420685
 20
-16.00646810664138
 30
0
  0
VERTEX
  8
0
 10
-43.49539121424962
 20
-16.10521982588378
 30
0
  0
SEQEND
  8
0
  0
POLYLINE
  8
0
 62
7
 66
1
  0
VERTEX
  8
0
 10
-43.49539112932501
 20
-29.81232660705302
 30
0
  0
VERTEX
  8
0
 10
-43.49539112890442
 20
-29.86391182514714
 30
0
  0
VERTEX
  8
0
 10
-43.49539112841281
 20
-29.93491519441122
 30
0
  0
VERTEX
  8
0
 10
-43.49539112790322
 20
-30.02573010720159
 30
0
  0
VERTEX
  8
0
 10
-43.4953911274286
 20
-30.13674995587456
 30
0
  0
VERTEX
  8
0
 10
-43.49539112705918
 20
-30.26128833380745
 30
0
  0
VERTEX
  8
0
 10
-43.4953911267626
 20
-30.51943338823966
 30
0
  0
SEQEND
  8
0
  0
POLYLINE
  8
0
 62
7
 66
1
  0
VERTEX
  8
0
 10
-45.49539121168752
 20
-20.39811304468474
 30
0
  0
VERTEX
  8
0
 10
-45.49539121210188
 20
-20.34735757972151
 30
0
  0
VERTEX
  8
0
 10
-45.49539121259301
 20
-20.276598393596
 30
0
  0
VERTEX
  8
0
 10
-45.49539121310551
 20
-20.18549069580948
 30
0
  0
VERTEX
  8
0
 10
-45.49539121358401
 20
-20.07368969586327
 30
0
  0
VERTEX
  8
0
 10
-45.49539121387358
 20
-19.98117849400117
 30
0
  0
VERTEX
  8
0
 10
-45.4953912142078
 20
-19.78913537001771
 30
0
  0
VERTEX
  8
0
 10
-45.49539121425002
 20
-19.69100626349818
 30
0
  0
SEQEND
  8
0
  0
POLYLINE
  8
0
 62
7
 66
1
  0
VERTEX
  8
0
 10
-45.49539120550131
 20
-15.10521982588381
 30
0
  0
VERTEX
  8
0
 10
-45.49539121168752
 20
-15.39811304469725
 30
0
  0
VERTEX
  8
0
 10
-45.49539121226917
 20
-15.47152752523126
 30
0
  0
VERTEX
  8
0
 10
-45.49539121322003
 20
-15.63448444062603
 30
0
  0
VERTEX
  8
0
 10
-45.49539121387224
 20
-15.81455434700857
 30
0
  0
VERTEX
  8
0
 10
-45.49539121420725
 20
-16.00646810664144
 30
0
  0
VERTEX
  8
0
 10
-45.49539121425002
 20
-16.10521982588379
 30
0
  0
SEQEND
  8
0
  0
POLYLINE
  8
0
 62
7
 66
1
  0
VERTEX
  8
0
 10
-45.49539112932541
 20
-29.81232660705314
 30
0
  0
VERTEX
  8
0
 10
-45.49539112890476
 20
-29.86391182514616
 30
0
  0
VERTEX
  8
0
 10
-45.49539112841313
 20
-29.93491519440989
 30
0
  0
VERTEX
  8
0
 10
-45.49539112790356
 20
-30.02573010720062
 30
0
  0
VERTEX
  8
0
 10
-45.495391127429
 20
-30.13674995587459
 30
0
  0
VERTEX
  8
0
 10
-45.49539112705955
 20
-30.26128833380929
 30
0
  0
VERTEX
  8
0
 10
-45.49539112676303
 20
-30.51943338823966
 30
0
  0
SEQEND
  8
0
  0
POLYLINE
  8
0
 62
7
 66
1
  0
VERTEX
  8
0
 10
-13.49600072705542
 20
-34.14014059536336
 30
0
  0
VERTEX
  8
0
 10
-13.49600072756242
 20
-34.7269648703311
 30
0
  0
VERTEX
  8
0
 10
-13.4960007281922
 20
-35.01350294641649
 30
0
  0
VERTEX
  8
0
 10
-13.49600072855631
 20
-35.14014059536309
 30
0
  0
SEQEND
  8
0
  0
POLYLINE
  8
0
 62
7
 66
1
  0
VERTEX
  8
0
 10
-13.49600072855631
 20
-35.14014059536309
 30
0
  0
VERTEX
  8
0
 10
-13.49600072978322
 20
-35.47192824291003
 30
0
  0
VERTEX
  8
0
 10
-13.49600073115308
 20
-35.74978709891307
 30
0
  0
VERTEX
  8
0
 10
-13.4960007325281
 20
-35.97388416395206
 30
0
  0
VERTEX
  8
0
 10
-13.49600073377053
 20
-36.14438643860687
 30
0
  0
VERTEX
  8
0
 10
-13.49600073474261
 20
-36.26146092345739
 30
0
  0
VERTEX
  8
0
 10
-13.49600073535015
 20
-36.32874113174256
 30
0
  0
VERTEX
  8
0
 10
-13.49600073701423
 20
-36.49265771114351
 30
0
  0
VERTEX
  8
0
 10
-13.49600073928274
 20
-36.67635868825831
 30
0
  0
VERTEX
  8
0
 10
-13.49600074216257
 20
-36.85661547981464
 30
0
  0
VERTEX
  8
0
 10
-13.49600074566061
 20
-37.01019950254016
 30
0
  0
VERTEX
  8
0
 10
-13.49600074850477
 20
-37.07517004895176
 30
0
  0
VERTEX
  8
0
 10
-13.49600075330142
 20
-37.14014059536338
 30
0
  0
SEQEND
  8
0
  0
POLYLINE
  8
0
 62
7
 66
1
  0
VERTEX
  8
0
 10
-45.49539137767741
 20
11.04006549093073
 30
0
  0
VERTEX
  8
0
 10
-45.4953913696236
 20
11.11485363742527
 30
0
  0
VERTEX
  8
0
 10
-45.49539136107214
 20
11.37311701289876
 30
0
  0
VERTEX
  8
0
 10
-45.49539135408468
 20
11.82828910822547
 30
0
  0
VERTEX
  8
0
 10
-45.49539134624217
 20
12.50472649720725
 30
0
  0
VERTEX
  8
0
 10
-45.49539134276743
 20
12.97398909376468
 30
0
  0
VERTEX
  8
0
 10
-45.49539134056111
 20
13.37625128766156
 30
0
  0
VERTEX
  8
0
 10
-45.49539133929869
 20
13.64031052320171
 30
0
  0
VERTEX
  8
0
 10
-45.49539133722941
 20
14.10226195583675
 30
0
  0
VERTEX
  8
0
 10
-45.49539133494631
 20
14.79421809425259
 30
0
  0
VERTEX
  8
0
 10
-45.49539133397273
 20
15.57963593575178
 30
0
  0
VERTEX
  8
0
 10
-45.49539133397168
 20
16.40060877221846
 30
0
  0
VERTEX
  8
0
 10
-45.49539133495361
 20
17.30246274286543
 30
0
  0
VERTEX
  8
0
 10
-45.49539133633736
 20
17.75846402759095
 30
0
  0
VERTEX
  8
0
 10
-45.49539133776636
 20
18.10791272097613
 30
0
  0
VERTEX
  8
0
 10
-45.49539133873356
 20
18.31871470046739
 30
0
  0
VERTEX
  8
0
 10
-45.49539134081059
 20
18.74270648428802
 30
0
  0
VERTEX
  8
0
 10
-45.49539134400396
 20
19.27928539492893
 30
0
  0
VERTEX
  8
0
 10
-45.49539134878119
 20
19.82499063227379
 30
0
  0
VERTEX
  8
0
 10
-45.49539135236402
 20
20.11976369230406
 30
0
  0
VERTEX
  8
0
 10
-45.49539135457807
 20
20.28871150369339
 30
0
  0
VERTEX
  8
0
 10
-45.49539135834057
 20
20.55041569506914
 30
0
  0
VERTEX
  8
0
 10
-45.49539136455059
 20
20.83828331550878
 30
0
  0
VERTEX
  8
0
 10
-45.49539137243836
 20
21.00002958772714
 30
0
  0
VERTEX
  8
0
 10
-45.49539137767741
 20
21.04006549093063
 30
0
  0
SEQEND
  8
0
  0
POLYLINE
  8
0
 62
7
 66
1
  0
VERTEX
  8
0
 10
-45.49539137767741
 20
74.67967579772
 30
0
  0
VERTEX
  8
0
 10
-45.49539136962425
 20
74.7544522997068
 30
0
  0
VERTEX
  8
0
 10
-45.4953913610753
 20
75.01256828766792
 30
0
  0
VERTEX
  8
0
 10
-45.49539135408459
 20
75.46790536565605
 30
0
  0
VERTEX
  8
0
 10
-45.49539134624205
 20
76.14434674734461
 30
0
  0
VERTEX
  8
0
 10
-45.49539134276741
 20
76.613600643472
 30
0
  0
VERTEX
  8
0
 10
-45.49539134056111
 20
77.0158615944503
 30
0
  0
VERTEX
  8
0
 10
-45.49539133929868
 20
77.279920829991
 30
0
  0
VERTEX
  8
0
 10
-45.49539133722941
 20
77.74187226262592
 30
0
  0
VERTEX
  8
0
 10
-45.49539133494631
 20
78.43382840104157
 30
0
  0
VERTEX
  8
0
 10
-45.49539133397273
 20
79.21924624254088
 30
0
  0
VERTEX
  8
0
 10
-45.49539133397168
 20
80.04021907900778
 30
0
  0
VERTEX
  8
0
 10
-45.4953913349536
 20
80.9420730496548
 30
0
  0
VERTEX
  8
0
 10
-45.49539133633737
 20
81.39807433438033
 30
0
  0
VERTEX
  8
0
 10
-45.49539133776636
 20
81.74752302776548
 30
0
  0
VERTEX
  8
0
 10
-45.49539133873356
 20
81.95832500725665
 30
0
  0
VERTEX
  8
0
 10
-45.49539134081059
 20
82.38231679107726
 30
0
  0
VERTEX
  8
0
 10
-45.49539134400396
 20
82.91889570171816
 30
0
  0
VERTEX
  8
0
 10
-45.49539134781734
 20
83.37443674091782
 30
0
  0
VERTEX
  8
0
 10
-45.49539135115623
 20
83.66562204985236
 30
0
  0
VERTEX
  8
0
 10
-45.49539135277268
 20
83.79086771981808
 30
0
  0
VERTEX
  8
0
 10
-45.49539135712179
 20
84.10165238079605
 30
0
  0
VERTEX
  8
0
 10
-45.49539136375065
 20
84.45138952125251
 30
0
  0
VERTEX
  8
0
 10
-45.49539136935611
 20
84.60467784570398
 30
0
  0
VERTEX
  8
0
 10
-45.49539137325627
 20
84.65082543584255
 30
0
  0
VERTEX
  8
0
 10
-45.49539137767741
 20
84.6796757977199
 30
0
  0
SEQEND
  8
0
  0
POLYLINE
  8
0
 62
7
 66
1
  0
VERTEX
  8
0
 10
61.00399924927018
 20
-35.05665573429954
 30
0
  0
VERTEX
  8
0
 10
61.0039992626632
 20
-35.31899138468782
 30
0
  0
VERTEX
  8
0
 10
61.00399926775297
 20
-35.62240552837536
 30
0
  0
VERTEX
  8
0
 10
61.00399926757377
 20
-35.94881059614323
 30
0
  0
VERTEX
  8
0
 10
61.00399926645648
 20
-36.11498236117635
 30
0
  0
VERTEX
  8
0
 10
61.00399926419397
 20
-36.37648421870577
 30
0
  0
VERTEX
  8
0
 10
61.00399926195141
 20
-36.58158792695755
 30
0
  0
VERTEX
  8
0
 10
61.00399925984937
 20
-36.73653527228218
 30
0
  0
VERTEX
  8
0
 10
61.00399925800846
 20
-36.84756804103011
 30
0
  0
VERTEX
  8
0
 10
61.00399925654926
 20
-36.92092801955177
 30
0
  0
VERTEX
  8
0
 10
61.0039992560005
 20
-36.94543127071228
 30
0
  0
VERTEX
  8
0
 10
61.00399925314503
 20
-37.04825815637097
 30
0
  0
VERTEX
  8
0
 10
61.00399925019858
 20
-37.11335434482689
 30
0
  0
SEQEND
  8
0
  0
POLYLINE
  8
0
 62
7
 66
1
  0
VERTEX
  8
0
 10
61.00399927294518
 20
-34.14014059536319
 30
0
  0
VERTEX
  8
0
 10
61.00399927287287
 20
-34.36270959094988
 30
0
  0
VERTEX
  8
0
 10
61.0039992726825
 20
-34.56353645690259
 30
0
  0
VERTEX
  8
0
 10
61.00399927241396
 20
-34.74068986444937
 30
0
  0
VERTEX
  8
0
 10
61.0039992722628
 20
-34.81978548107927
 30
0
  0
VERTEX
  8
0
 10
61.00399927065006
 20
-34.90205162593669
 30
0
  0
VERTEX
  8
0
 10
61.00399926036182
 20
-35.00130355184258
 30
0
  0
VERTEX
  8
0
 10
61.00399924927018
 20
-35.05665573429954
 30
0
  0
SEQEND
  8
0
  0
POLYLINE
  8
0
 62
7
 66
1
  0
VERTEX
  8
0
 10
-235.9269933866005
 20
211.9539987899396
 30
0
 42
0.01749716236327468
  0
VERTEX
  8
0
 10
-235.9382318868886
 20
211.8747399455928
 30
0
 42
0.01764203468696862
  0
VERTEX
  8
0
 10
-235.943913537333
 20
211.7944541776002
 30
0
  0
VERTEX
  8
0
 10
-235.9446298477844
 20
211.7539987897853
 30
0
  0
SEQEND
  8
0
  0
POLYLINE
  8
0
 62
7
 66
1
  0
VERTEX
  8
0
 10
-286.7615639052708
 20
243.9169387647602
 30
0
 42
-0.011702050276921
  0
VERTEX
  8
0
 10
-286.7902659016297
 20
244.3289393829911
 30
0
 42
-0.01164640833131322
  0
VERTEX
  8
0
 10
-286.7999996767006
 20
244.7501507675742
 30
0
  0
SEQEND
  8
0
  0
POLYLINE
  8
0
 62
7
 66
1
  0
VERTEX
  8
0
 10
-270.3886371488356
 20
346.5203914691006
 30
0
 42
-0.004211089569455457
  0
VERTEX
  8
0
 10
-270.0891106006142
 20
346.5363509570246
 30
0
 42
-0.004063981811585539
  0
VERTEX
  8
0
 10
-269.7999180740315
 20
346.546920206522
 30
0
  0
SEQEND
  8
0
  0
POLYLINE
  8
0
 62
7
 66
1
  0
VERTEX
  8
0
 10
-269.7999180740315
 20
346.546920206522
 30
0
 42
-0.003575666879446332
  0
VERTEX
  8
0
 10
-269.5454217965746
 20
346.5522937301347
 30
0
 42
-0.00344163492344585
  0
VERTEX
  8
0
 10
-269.3000005673464
 20
346.5539984979707
 30
0
  0
SEQEND
  8
0
  0
POLYLINE
  8
0
 62
7
 66
1
  0
VERTEX
  8
0
 10
-243.3000005321835
 20
342.53476083897
 30
0
 42
0.005878455531472474
  0
VERTEX
  8
0
 10
-243.1982037482057
 20
342.5359577942235
 30
0
  0
VERTEX
  8
0
 10
-243.0988924796358
 20
342.5394250235427
 30
0
 42
0.01584191886480109
  0
VERTEX
  8
0
 10
-242.8462574296685
 20
342.558683021058
 30
0
 42
0.0196739052033852
  0
VERTEX
  8
0
 10
-242.5355432463683
 20
342.6035264050085
 30
0
 42
0.023886511846541
  0
VERTEX
  8
0
 10
-242.1834749902592
 20
342.6849399769134
 30
0
  0
VERTEX
  8
0
 10
-242.0962010591927
 20
342.7106712968656
 30
0
 42
0.01782153042352436
  0
VERTEX
  8
0
 10
-241.87802999602
 20
342.7859774347498
 30
0
 42
0.02366374033094701
  0
VERTEX
  8
0
 10
-241.6222945125043
 20
342.8974619773719
 30
0
  0
VERTEX
  8
0
 10
-241.4880650560093
 20
342.9684163032467
 30
0
 42
0.03425828552512951
  0
VERTEX
  8
0
 10
-241.2313038797835
 20
343.1375638949302
 30
0
 42
0.04245755465678696
  0
VERTEX
  8
0
 10
-241.0290474921539
 20
343.3219516590709
 30
0
 42
0.05559010108880048
  0
VERTEX
  8
0
 10
-240.8871333839485
 20
343.5162895144786
 30
0
  0
VERTEX
  8
0
 10
-240.8431520573723
 20
343.6090129105901
 30
0
 42
0.05985200919478104
  0
VERTEX
  8
0
 10
-240.803492776144
 20
343.7648204527588
 30
0
  0
VERTEX
  8
0
 10
-240.8000005434765
 20
343.8257790339351
 30
0
  0
SEQEND
  8
0
  0
POLYLINE
  8
0
 62
7
 66
1
  0
VERTEX
  8
0
 10
-284.3000005321826
 20
342.5347605343371
 30
0
 42
-0.01544871959296452
  0
VERTEX
  8
0
 10
-284.144862122717
 20
342.5569720778058
 30
0
  0
VERTEX
  8
0
 10
-284.0105142264793
 20
342.5697679357548
 30
0
 42
-0.01008212452444364
  0
VERTEX
  8
0
 10
-283.7336854705035
 20
342.5859166794702
 30
0
 42
-0.005985063236911547
  0
VERTEX
  8
0
 10
-283.4759675816702
 20
342.592732555736
 30
0
 42
-0.003357493828275594
  0
VERTEX
  8
0
 10
-283.2733063421516
 20
342.5941248791049
 30
0
  0
VERTEX
  8
0
 10
-282.8005486546539
 20
342.5881531238477
 30
0
 42
-0.002857073011185774
  0
VERTEX
  8
0
 10
-281.8262720427061
 20
342.5568270609108
 30
0
  0
VERTEX
  8
0
 10
-281.3083185057467
 20
342.5413100351436
 30
0
  0
VERTEX
  8
0
 10
-280.8000005438958
 20
342.5347605561364
 30
0
  0
SEQEND
  8
0
  0
POLYLINE
  8
0
 62
7
 66
1
  0
VERTEX
  8
0
 10
-229.9266025842023
 20
253.8841258613576
 30
0
 42
-0.03419594098103757
  0
VERTEX
  8
0
 10
-230.6060880382028
 20
252.5142550746695
 30
0
 42
-0.04014619721579297
  0
VERTEX
  8
0
 10
-231.4013459661981
 20
251.3820209022017
 30
0
 42
-0.04840937264056641
  0
VERTEX
  8
0
 10
-232.2918425342024
 20
250.5056681345516
 30
0
 42
-0.05889542964159977
  0
VERTEX
  8
0
 10
-233.2570439082304
 20
249.9034415623169
 30
0
 42
-0.06965027557388043
  0
VERTEX
  8
0
 10
-234.2764162542968
 20
249.593585976095
 30
0
 42
-0.07525058965616965
  0
VERTEX
  8
0
 10
-235.3235831838437
 20
249.5935859669337
 30
0
 42
-0.07114686600009748
  0
VERTEX
  8
0
 10
-236.3429555353316
 20
249.9034415353195
 30
0
 42
-0.06139862146482288
  0
VERTEX
  8
0
 10
-237.308156919897
 20
250.505668090666
 30
0
 42
-0.05088911910040406
  0
VERTEX
  8
0
 10
-238.1986535032351
 20
251.3820208427349
 30
0
 42
-0.04224352722591507
  0
VERTEX
  8
0
 10
-238.9939114510413
 20
252.514255001288
 30
0
 42
-0.03589656822059325
  0
VERTEX
  8
0
 10
-239.6733969290109
 20
253.8841257760871
 30
0
  0
SEQEND
  8
0
  0
POLYLINE
  8
0
 62
7
 66
1
  0
VERTEX
  8
0
 10
-281.7999996884171
 20
246.0898967734759
 30
0
 42
-0.07486287241307159
  0
VERTEX
  8
0
 10
-282.6729210256773
 20
246.2228744268821
 30
0
 42
-0.0673416207497603
  0
VERTEX
  8
0
 10
-283.511352898201
 20
246.6129880471777
 30
0
 42
-0.05666132698115867
  0
VERTEX
  8
0
 10
-284.2968560595506
 20
247.2470086012768
 30
0
 42
-0.04684272646123334
  0
VERTEX
  8
0
 10
-285.0109912632885
 20
248.1117070560933
 30
0
 42
-0.04967219219958895
  0
VERTEX
  8
0
 10
-285.7118906349273
 20
249.3564742862301
 30
0
 42
-0.04055307721908226
  0
VERTEX
  8
0
 10
-286.3055736425239
 20
250.9952795504118
 30
0
 42
-0.03520300947235017
  0
VERTEX
  8
0
 10
-286.673687711974
 20
252.8157981361497
 30
0
 42
-0.03307494692958351
  0
VERTEX
  8
0
 10
-286.7999997641827
 20
254.750150767577
 30
0
  0
SEQEND
  8
0
  0
POLYLINE
  8
0
 62
7
 66
1
  0
VERTEX
  8
0
 10
-182.7999997641827
 20
254.7501516774372
 30
0
 42
-0.03253907743140156
  0
VERTEX
  8
0
 10
-182.9263117825454
 20
252.8157990437998
 30
0
 42
-0.03428334962809082
  0
VERTEX
  8
0
 10
-183.2944258201413
 20
250.9952804516209
 30
0
 42
-0.03908694316554503
  0
VERTEX
  8
0
 10
-183.8881087990633
 20
249.3564751770514
 30
0
 42
-0.03681308747404573
  0
VERTEX
  8
0
 10
-184.5890081489221
 20
248.1117079346508
 30
0
 42
-0.04438158830931115
  0
VERTEX
  8
0
 10
-185.30314333753
 20
247.2470094673388
 30
0
 42
-0.05391817747684863
  0
VERTEX
  8
0
 10
-186.088646487786
 20
246.6129888994955
 30
0
 42
-0.06499560747661801
  0
VERTEX
  8
0
 10
-186.9270783534837
 20
246.2228752645296
 30
0
 42
-0.07424640083262513
  0
VERTEX
  8
0
 10
-187.7999996884171
 20
246.0898975958497
 30
0
  0
SEQEND
  8
0
  0
POLYLINE
  8
0
 62
7
 66
1
  0
VERTEX
  8
0
 10
-286.7999996767006
 20
244.7501507675742
 30
0
 42
0.02260090638189246
  0
VERTEX
  8
0
 10
-286.7388655753495
 20
243.4000263432815
 30
0
 42
0.02318174106830361
  0
VERTEX
  8
0
 10
-286.558039477815
 20
242.0887355675117
 30
0
 42
0.02471145905367995
  0
VERTEX
  8
0
 10
-286.2613856581274
 20
240.8401441222944
 30
0
  0
VERTEX
  8
0
 10
-286.0708309381106
 20
240.2468186742772
 30
0
  0
SEQEND
  8
0
  0
POLYLINE
  8
0
 62
7
 66
1
  0
VERTEX
  8
0
 10
-183.5291683364855
 20
240.246819571379
 30
0
 42
0.02642119301514717
  0
VERTEX
  8
0
 10
-183.1760497796247
 20
241.4551117267376
 30
0
 42
0.0241898429018893
  0
VERTEX
  8
0
 10
-182.9368268092089
 20
242.7380360516711
 30
0
 42
0.02301858827672485
  0
VERTEX
  8
0
 10
-182.8153636988524
 20
244.0717268640827
 30
0
  0
VERTEX
  8
0
 10
-182.7999996767006
 20
244.7501516774374
 30
0
  0
SEQEND
  8
0
  0
POLYLINE
  8
0
 62
7
 66
1
  0
VERTEX
  8
0
 10
-286.7615639052708
 20
243.9169387647602
 30
0
 42
-0.011702050276921
  0
VERTEX
  8
0
 10
-286.7902659016297
 20
244.3289393829911
 30
0
 42
-0.01164640833131322
  0
VERTEX
  8
0
 10
-286.7999996767006
 20
244.7501507675742
 30
0
  0
SEQEND
  8
0
  0
POLYLINE
  8
0
 62
7
 66
1
  0
VERTEX
  8
0
 10
-280.7999997566091
 20
253.8841254162845
 30
0
 42
-0.06685997033333213
  0
VERTEX
  8
0
 10
-281.3469034276565
 20
253.9583635188511
 30
0
 42
-0.06101682311451069
  0
VERTEX
  8
0
 10
-281.8710017393998
 20
254.1747004173568
 30
0
 42
-0.05226584248402311
  0
VERTEX
  8
0
 10
-282.3644774766657
 20
254.5235699834256
 30
0
 42
-0.04377538770053166
  0
VERTEX
  8
0
 10
-282.8195134242811
 20
254.9954060886819
 30
0
 42
-0.03692358226104937
  0
VERTEX
  8
0
 10
-283.2282923670726
 20
255.5806426047496
 30
0
 42
-0.03185964511561563
  0
VERTEX
  8
0
 10
-283.582997089867
 20
256.269713403253
 30
0
 42
-0.02828736352403959
  0
VERTEX
  8
0
 10
-283.8758103774913
 20
257.0530523558161
 30
0
 42
-0.02584939340835641
  0
VERTEX
  8
0
 10
-284.098915014772
 20
257.9210933340631
 30
0
  0
SEQEND
  8
0
  0
POLYLINE
  8
0
 62
7
 66
1
  0
VERTEX
  8
0
 10
-235.5535712378212
 20
346.0366302128377
 30
0
 42
-0.001083681516485682
  0
VERTEX
  8
0
 10
-235.4179907419554
 20
346.0395643953851
 30
0
 42
-0.001010597308014632
  0
VERTEX
  8
0
 10
-235.2897545037912
 20
346.0417948970376
 30
0
  0
VERTEX
  8
0
 10
-235.228571562874
 20
346.0426741632251
 30
0
  0
SEQEND
  8
0
  0
POLYLINE
  8
0
 62
7
 66
1
  0
VERTEX
  8
0
 10
-235.228571562874
 20
346.0426741632251
 30
0
 42
-0.001464341590800745
  0
VERTEX
  8
0
 10
-235.0370098554624
 20
346.0446600520065
 30
0
 42
-0.001237169549420544
  0
VERTEX
  8
0
 10
-234.8718239462318
 20
346.0454451905166
 30
0
  0
VERTEX
  8
0
 10
-234.8000016762259
 20
346.0455230059185
 30
0
 42
-0.001280072812822306
  0
VERTEX
  8
0
 10
-234.6417931525542
 20
346.0451410791665
 30
0
 42
-0.001539372162832271
  0
VERTEX
  8
0
 10
-234.4534485210976
 20
346.0436664839382
 30
0
 42
-0.001761292860245493
  0
VERTEX
  8
0
 10
-234.2381693548937
 20
346.040606016254
 30
0
  0
VERTEX
  8
0
 10
-234.1214298128359
 20
346.0383269539972
 30
0
  0
SEQEND
  8
0
  0
POLYLINE
  8
0
 62
7
 66
1
  0
VERTEX
  8
0
 10
-240.8000005472972
 20
344.2623007523031
 30
0
 42
-0.08555606152412604
  0
VERTEX
  8
0
 10
-240.7383107510566
 20
344.6030924100119
 30
0
  0
VERTEX
  8
0
 10
-240.6556410257545
 20
344.769759742762
 30
0
 42
-0.07666748416735156
  0
VERTEX
  8
0
 10
-240.4083623710246
 20
345.053901653768
 30
0
 42
-0.05117141953429218
  0
VERTEX
  8
0
 10
-240.0813770307514
 20
345.2790924583072
 30
0
 42
-0.03286019438258572
  0
VERTEX
  8
0
 10
-239.7101397088842
 20
345.4532992358101
 30
0
  0
VERTEX
  8
0
 10
-239.5063681683802
 20
345.5280633097815
 30
0
 42
-0.02313045155444116
  0
VERTEX
  8
0
 10
-239.0098324356926
 20
345.6710457307202
 30
0
 42
-0.01879520205369348
  0
VERTEX
  8
0
 10
-238.3776459148342
 20
345.8000818651231
 30
0
 42
-0.01517472813101093
  0
VERTEX
  8
0
 10
-237.5894159026867
 20
345.9089093323536
 30
0
  0
VERTEX
  8
0
 10
-237.152155787414
 20
345.951894894512
 30
0
 42
-0.008896231665968899
  0
VERTEX
  8
0
 10
-236.3056745533888
 20
346.0090700189294
 30
0
 42
-0.006249360833004661
  0
VERTEX
  8
0
 10
-235.5535712378212
 20
346.0366302128377
 30
0
  0
SEQEND
  8
0
  0
POLYLINE
  8
0
 62
7
 66
1
  0
VERTEX
  8
0
 10
-185.3000005321831
 20
342.5347614004546
 30
0
 42
0.01539302580755153
  0
VERTEX
  8
0
 10
-185.4538435146694
 20
342.5568279040389
 30
0
  0
VERTEX
  8
0
 10
-185.5880575820804
 20
342.5696536835238
 30
0
 42
0.01009914906035925
  0
VERTEX
  8
0
 10
-185.8646035863985
 20
342.5858494559931
 30
0
 42
0.005986529846158585
  0
VERTEX
  8
0
 10
-186.1218288437419
 20
342.5927012922606
 30
0
 42
0.003349588447604793
  0
VERTEX
  8
0
 10
-186.3235598665472
 20
342.5941257272853
 30
0
  0
VERTEX
  8
0
 10
-186.7959095793971
 20
342.5882347552882
 30
0
 42
0.002897255101291687
  0
VERTEX
  8
0
 10
-187.7695147530029
 20
342.5569729209619
 30
0
  0
VERTEX
  8
0
 10
-188.2896018212689
 20
342.5413597819219
 30
0
  0
VERTEX
  8
0
 10
-188.8000005321828
 20
342.5347613157716
 30
0
  0
SEQEND
  8
0
  0
POLYLINE
  8
0
 62
7
 66
1
  0
VERTEX
  8
0
 10
-234.1214298128359
 20
346.0383269539972
 30
0
 42
-0.005600604738304975
  0
VERTEX
  8
0
 10
-233.4867793820658
 20
346.0180210079381
 30
0
 42
-0.007266802900869003
  0
VERTEX
  8
0
 10
-232.7681266096101
 20
345.9771982028116
 30
0
 42
-0.009706615080426351
  0
VERTEX
  8
0
 10
-232.0105828213056
 20
345.9089091155763
 30
0
  0
VERTEX
  8
0
 10
-231.5956891168175
 20
345.857412982237
 30
0
 42
-0.01520669363591478
  0
VERTEX
  8
0
 10
-230.8880319259595
 20
345.7376987298345
 30
0
 42
-0.01868931625969873
  0
VERTEX
  8
0
 10
-230.3262212088896
 20
345.6009071205853
 30
0
 42
-0.02267074787904179
  0
VERTEX
  8
0
 10
-229.8898643851643
 20
345.4533005034318
 30
0
  0
VERTEX
  8
0
 10
-229.7009296408368
 20
345.3720721519748
 30
0
 42
-0.04036916993947792
  0
VERTEX
  8
0
 10
-229.3473856084385
 20
345.1733692031169
 30
0
 42
-0.06156148561055321
  0
VERTEX
  8
0
 10
-229.055821080772
 20
344.9196986883433
 30
0
 42
-0.0888547566227666
  0
VERTEX
  8
0
 10
-228.8616907335055
 20
344.6030935220655
 30
0
  0
VERTEX
  8
0
 10
-228.8172178603842
 20
344.4464823401871
 30
0
  0
VERTEX
  8
0
 10
-228.8000005472941
 20
344.262300857287
 30
0
  0
SEQEND
  8
0
  0
POLYLINE
  8
0
 62
7
 66
1
  0
VERTEX
  8
0
 10
-228.8000005434783
 20
343.8257791388814
 30
0
 42
0.07366708158744761
  0
VERTEX
  8
0
 10
-228.7726536520494
 20
343.6537205642197
 30
0
 42
0.04800153018240045
  0
VERTEX
  8
0
 10
-228.71286769759
 20
343.5162896209878
 30
0
  0
VERTEX
  8
0
 10
-228.6444289676525
 20
343.4108411989132
 30
0
 42
0.0469082757293753
  0
VERTEX
  8
0
 10
-228.4782718842168
 20
343.2293374547151
 30
0
 42
0.02951631520532082
  0
VERTEX
  8
0
 10
-228.304483109046
 20
343.0900785927855
 30
0
 42
0.0178051917388542
  0
VERTEX
  8
0
 10
-228.1607520097547
 20
342.996729511925
 30
0
  0
VERTEX
  8
0
 10
-228.1119360159433
 20
342.9684164202706
 30
0
 42
0.03239196324215862
  0
VERTEX
  8
0
 10
-227.7879569877982
 20
342.8121329916068
 30
0
 42
0.02902046497146198
  0
VERTEX
  8
0
 10
-227.4165260767343
 20
342.6849401061051
 30
0
  0
VERTEX
  8
0
 10
-227.3217153456648
 20
342.6595781160612
 30
0
 42
0.01693381172230127
  0
VERTEX
  8
0
 10
-227.078603466425
 20
342.6061469172433
 30
0
 42
0.01972908306520779
  0
VERTEX
  8
0
 10
-226.7697375254886
 20
342.560416164043
 30
0
 42
0.02229035626725795
  0
VERTEX
  8
0
 10
-226.401797316181
 20
342.5359579411698
 30
0
  0
VERTEX
  8
0
 10
-226.3509121460509
 20
342.5350603088972
 30
0
  0
VERTEX
  8
0
 10
-226.3000005321836
 20
342.5347609876969
 30
0
  0
SEQEND
  8
0
  0
POLYLINE
  8
0
 62
7
 66
1
  0
VERTEX
  8
0
 10
-185.5010845690821
 20
257.9210941966617
 30
0
 42
-0.02501214633340581
  0
VERTEX
  8
0
 10
-185.7241891911744
 20
257.0530532145108
 30
0
 42
-0.02727900945295432
  0
VERTEX
  8
0
 10
-186.0170024650923
 20
256.2697142568242
 30
0
 42
-0.03062150986453482
  0
VERTEX
  8
0
 10
-186.3717071758299
 20
255.5806434521143
 30
0
 42
-0.03539913447830545
  0
VERTEX
  8
0
 10
-186.7804861083814
 20
254.9954069288939
 30
0
 42
-0.04196057748603951
  0
VERTEX
  8
0
 10
-187.2355220477409
 20
254.5235708156756
 30
0
 42
-0.05034092342863088
  0
VERTEX
  8
0
 10
-187.7289977789026
 20
254.1747012409721
 30
0
 42
-0.05955314847622267
  0
VERTEX
  8
0
 10
-188.2530960868606
 20
253.9583643332961
 30
0
 42
-0.06679796131967491
  0
VERTEX
  8
0
 10
-188.7999997566091
 20
253.8841262211602
 30
0
  0
SEQEND
  8
0
  0
INSERT
  8
0
  2
LAVEL
 10
-234.799993423595
 20
120.8947801741257
 30
0
  0
ENDSEC
  0
EOF
