  0
SECTION
  2
HEADER
  9
$ACADVER
  1
AC1009
  9
$INSBASE
 10
0
 20
0
  9
$EXTMIN
 10
-71.5
 20
-299.3000000000001
  9
$EXTMAX
 10
312.8
 20
51.99999999999994
  9
$LIMMIN
 10
-71.5
 20
-299.3000000000001
  9
$LIMMAX
 10
312.8
 20
51.99999999999994
  9
$VIEWCTR
 10
10
 20
10
  9
$VIEWSIZE
 40
10
  9
$SNAPMODE
 70
0
  9
$SNAPUNIT
 10
1
 20
1
  9
$SNAPBASE
 10
0
 20
0
  9
$SNAPANG
 50
0
  9
$SNAPSTYLE
 70
0
  9
$SNAPISOPAIR
 70
0
  9
$GRIDMODE
 70
0
  9
$GRIDUNIT
 10
0
 20
0
  9
$ORTHOMODE
 70
0
  9
$REGENMODE
 70
1
  9
$FILLMODE
 70
1
  9
$QTEXTMODE
 70
0
  9
$DRAGMODE
 70
2
  9
$LTSCALE
 40
1
  9
$OSMODE
 70
0
  9
$ATTMODE
 70
1
  9
$TEXTSIZE
 40
3.5
  9
$TRACEWID
 40
0.5
  9
$TEXTSTYLE
  7
STANDARD
  9
$CLAYER
  8
0
  9
$CELTYPE
  6
BYLAYER
  9
$CECOLOR
 62
256
  9
$DIMSCALE
 40
1
  9
$DIMASZ
 40
0.18
  9
$DIMEXO
 40
0.0625
  9
$DIMDLI
 40
0.38
  9
$DIMRND
 40
0
  9
$DIMDLE
 40
0
  9
$DIMEXE
 40
0.18
  9
$DIMTP
 40
0
  9
$DIMTM
 40
0
  9
$DIMTXT
 40
0.18
  9
$DIMCEN
 40
0.09
  9
$DIMTSZ
 40
0
  9
$DIMTOL
 70
0
  9
$DIMLIM
 70
0
  9
$DIMTIH
 70
1
  9
$DIMTOH
 70
1
  9
$DIMSE1
 70
0
  9
$DIMSE2
 70
0
  9
$DIMTAD
 70
0
  9
$DIMZIN
 70
0
  9
$DIMBLK
  1

  9
$DIMASO
 70
1
  9
$DIMSHO
 70
1
  9
$DIMPOST
  1

  9
$DIMAPOST
  1

  9
$DIMALT
 70
0
  9
$DIMALTD
 70
2
  9
$DIMALTF
 40
25.4
  9
$DIMLFAC
 40
1
  9
$DIMTOFL
 70
0
  9
$DIMTVP
 40
0
  9
$DIMTIX
 70
0
  9
$DIMSOXD
 70
0
  9
$DIMSAH
 70
0
  9
$DIMBLK1
  1

  9
$DIMBLK2
  1

  9
$DIMSTYLE
  2
*UNNAMED
  9
$DIMCLRD
 70
0
  9
$DIMCLRE
 70
0
  9
$DIMCLRT
 70
0
  9
$DIMTFAC
 40
1
  9
$DIMGAP
 40
0.09
  9
$LUNITS
 70
2
  9
$LUPREC
 70
4
  9
$AXISMODE
 70
0
  9
$AXISUNIT
 10
0
 20
0
  9
$SKETCHINC
 40
0.1
  9
$FILLETRAD
 40
2
  9
$AUNITS
 70
0
  9
$AUPREC
 70
0
  9
$MENU
  1
ACAD
  9
$ELEVATION
 40
0
  9
$THICKNESS
 40
0
  9
$VIEWDIR
 10
0
 20
0
 30
1
  9
$LIMCHECK
 70
0
  9
$BLIPMODE
 70
1
  9
$CHAMFERA
 40
0
  9
$CHAMFERB
 40
0
  9
$FASTZOOM
 70
1
  9
$SKPOLY
 70
0
  9
$ANGBASE
 50
0
  9
$ANGDIR
 70
0
  9
$PDMODE
 70
0
  9
$PDSIZE
 40
0
  9
$PLINEWID
 40
0
  9
$COORDS
 70
2
  0
ENDSEC
  0
SECTION
  2
TABLES
  0
TABLE
  2
DIMSTYLE
 70
0
  0
ENDTAB
  0
TABLE
  2
LTYPE
 70
9
  0
LTYPE
  2
CONTINUOUS
 70
64
  3
Solid line
 72
65
 73
0
 40
0
  0
LTYPE
  2
BORDER
 70
64
  3
__ __ . __ __ .
 72
65
 73
6
 40
17.69802631578947
 49
5.056578947368421
 49
-2.528289473684211
 49
5.056578947368421
 49
-2.528289473684211
 49
0
 49
-2.528289473684211
  0
LTYPE
  2
CENTER
 70
64
  3
____ _ ____ _
 72
65
 73
4
 40
20.22631578947368
 49
12.64144736842105
 49
-2.528289473684211
 49
2.528289473684211
 49
-2.528289473684211
  0
LTYPE
  2
DASHDOT
 70
64
  3
__ . __ . __ .
 72
65
 73
4
 40
10.11315789473684
 49
5.056578947368421
 49
-2.528289473684211
 49
0
 49
-2.528289473684211
  0
LTYPE
  2
DASHED
 70
64
  3
__ __ __ __ __
 72
65
 73
2
 40
7.584868421052631
 49
5.056578947368421
 49
-2.528289473684211
  0
LTYPE
  2
DIVIDE
 70
64
  3
__ . . __ . . 
 72
65
 73
6
 40
12.64144736842105
 49
5.056578947368421
 49
-2.528289473684211
 49
0
 49
-2.528289473684211
 49
0
 49
-2.528289473684211
  0
LTYPE
  2
DOT
 70
64
  3
..............
 72
65
 73
4
 40
5.056578947368421
 49
0
 49
-2.528289473684211
 49
0
 49
-2.528289473684211
  0
LTYPE
  2
HIDDEN
 70
64
  3
_ _ _ _ _ _ _
 72
65
 73
2
 40
3.792434210526316
 49
2.528289473684211
 49
-1.264144736842105
  0
LTYPE
  2
PHANTOM
 70
64
  3
_____ _ _ _____ _ _ 
 72
65
 73
6
 40
25.28289473684211
 49
12.64144736842105
 49
-2.528289473684211
 49
2.528289473684211
 49
-2.528289473684211
 49
2.528289473684211
 49
-2.528289473684211
  0
ENDTAB
  0
TABLE
  2
LAYER
 70
3
  0
LAYER
  2
1
 70
0
 62
7
  6
CONTINUOUS
  0
LAYER
  2
0
 70
0
 62
7
  6
CONTINUOUS
  0
ENDTAB
  0
TABLE
  2
STYLE
 70
4
  0
STYLE
  2
STANDARD
 70
0
 40
0
 41
1
 50
0
 71
0
 42
3.5
  3
txt
  4

  0
STYLE
  2
SIMPLEX
 70
0
 40
0
 41
1
 50
0
 71
0
 42
3.5
  3
simplex
  4

  0
STYLE
  2
COMPLEX
 70
0
 40
0
 41
1
 50
0
 71
0
 42
3.5
  3
complex
  4

  0
STYLE
  2
ITALIC
 70
0
 40
0
 41
1
 50
0
 71
0
 42
3.5
  3
italic
  4

  0
ENDTAB
  0
TABLE
  2
VIEW
 70
0
  0
ENDTAB
  0
ENDSEC
  0
SECTION
  2
BLOCKS
  0
ENDSEC
  0
SECTION
  2
ENTITIES
  0
LINE
  8
1
 62
2
  6
DASHDOT
 10
148.8
 20
51.99999999999994
 30
0
 11
148.8
 21
-299.3000000000001
 31
0
  0
LINE
  8
1
 62
2
  6
DASHDOT
 10
117.2797316775014
 20
-285.3000000000001
 30
0
 11
121.2821698546967
 21
-285.3000000000001
 31
0
  0
LINE
  8
1
 62
7
 10
53.44884910485933
 20
-91.00000000000006
 30
0
 11
52.5
 21
-202.3000000000001
 31
0
  0
LINE
  8
1
 62
7
 10
-53.44884910485928
 20
-91.00000000000006
 30
0
 11
-52.5
 21
-202.3000000000001
 31
0
  0
LINE
  8
1
 62
7
 10
-52
 20
-91.00000000000006
 30
0
 11
-52
 21
-92.04416080527606
 31
0
  0
LINE
  8
1
 62
7
 10
-3.800000000000011
 20
-91.00000000000006
 30
0
 11
-3.800000000000011
 21
-125.5000000000001
 31
0
  0
LINE
  8
1
 62
7
 10
3.800000000000011
 20
-91.00000000000006
 30
0
 11
3.800000000000011
 21
-125.5000000000001
 31
0
  0
LINE
  8
1
 62
7
 10
24
 20
-91.00000000000006
 30
0
 11
24
 21
-125.5000000000001
 31
0
  0
LINE
  8
1
 62
7
 10
52
 20
-91.00000000000006
 30
0
 11
52
 21
-92.04416080527606
 31
0
  0
LINE
  8
1
 62
7
 10
179.7560291047472
 20
-78.30000000000005
 30
0
 11
178.523462819564
 21
-73.70000000000006
 31
0
  0
LINE
  8
1
 62
7
 10
124.8
 20
-91.00000000000006
 30
0
 11
124.8
 21
-122.5000000000001
 31
0
  0
LINE
  8
1
 62
7
 10
148.8
 20
-90.80000000000005
 30
0
 11
148.8
 21
-92.00000000000006
 31
0
  0
LINE
  8
1
 62
7
 10
294.8
 20
-85.00000000000006
 30
0
 11
311.8
 21
-85.00000000000006
 31
0
  0
LINE
  8
1
 62
7
 10
312.8
 20
-86.00000000000006
 30
0
 11
312.8
 21
-94.50000000000006
 31
0
  0
LINE
  8
1
 62
7
 10
311.8
 20
-95.50000000000006
 30
0
 11
294.8
 21
-95.50000000000006
 31
0
  0
LINE
  8
1
 62
7
 10
191.8
 20
-85.00000000000006
 30
0
 11
208.8
 21
-85.00000000000006
 31
0
  0
LINE
  8
1
 62
7
 10
209.8
 20
-86.00000000000006
 30
0
 11
209.8
 21
-94.50000000000006
 31
0
  0
LINE
  8
1
 62
7
 10
208.8
 20
-95.50000000000006
 30
0
 11
191.8
 21
-95.50000000000006
 31
0
  0
LINE
  8
1
 62
7
 10
190.8
 20
-94.50000000000006
 30
0
 11
190.8
 21
-86.00000000000006
 31
0
  0
LINE
  8
1
 62
2
  6
DASHDOT
 10
200.3
 20
-83.00000000000006
 30
0
 11
200.3
 21
-97.50000000000006
 31
0
  0
LINE
  8
1
 62
2
  6
DASHDOT
 10
303.3
 20
-83.00000000000006
 30
0
 11
303.3
 21
-97.50000000000006
 31
0
  0
LINE
  8
1
 62
7
 10
209.8
 20
-88.00000000000006
 30
0
 11
293.8
 21
-88.00000000000006
 31
0
  0
LINE
  8
1
 62
7
 10
293.8
 20
-86.00000000000006
 30
0
 11
293.8
 21
-94.50000000000006
 31
0
  0
LINE
  8
1
 62
7
 10
191.8
 20
-85.00000000000006
 30
0
 11
183.8532696579726
 21
-85.00000000000006
 31
0
  0
LINE
  8
1
 62
7
 10
312.8
 20
-94.96540221293638
 30
0
 11
312.8
 21
-94.50000000000006
 31
0
  0
LINE
  8
1
 62
7
 10
-53.5
 20
-85.00000000000006
 30
0
 11
-70.5
 21
-85.00000000000006
 31
0
  0
LINE
  8
1
 62
7
 10
-71.5
 20
-86.00000000000006
 30
0
 11
-71.5
 21
-93.50000000000006
 31
0
  0
LINE
  8
1
 62
7
 10
53.5
 20
-85.00000000000006
 30
0
 11
70.5
 21
-85.00000000000006
 31
0
  0
LINE
  8
1
 62
7
 10
71.5
 20
-86.00000000000006
 30
0
 11
71.5
 21
-93.50000000000006
 31
0
  0
LINE
  8
1
 62
7
 10
70.5
 20
-94.50000000000006
 30
0
 11
53.41901108269388
 21
-94.50000000000006
 31
0
  0
LINE
  8
1
 62
7
 10
-53.41901108269388
 20
-94.50000000000006
 30
0
 11
-62
 21
-94.50000000000006
 31
0
  0
LINE
  8
1
 62
7
 10
-39.5
 20
-202.3000000000001
 30
0
 11
-36.91919105966991
 21
-128.3953015098925
 31
0
  0
LINE
  8
1
 62
7
 10
36.91919105966991
 20
-128.3953015098926
 30
0
 11
39.5
 21
-202.3000000000001
 31
0
  0
LINE
  8
1
 62
7
 10
-39.5
 20
-202.3000000000001
 30
0
 11
-52.5
 21
-202.3000000000001
 31
0
  0
LINE
  8
1
 62
7
 10
52.5
 20
-202.3000000000001
 30
0
 11
39.5
 21
-202.3000000000001
 31
0
  0
LINE
  8
1
 62
7
 10
140.9497812543618
 20
-92.04416080527606
 30
0
 11
142.1180849030338
 21
-125.5000000000001
 31
0
  0
LINE
  8
1
 62
7
 10
177.2
 20
-202.3000000000001
 30
0
 11
180.305819587848
 21
-143.0374319168481
 31
0
  0
LINE
  8
1
 62
7
 10
200.9303535150391
 20
-119.7256369976165
 30
0
 11
307.8418890660016
 21
-100.8742487310096
 31
0
  0
LINE
  8
1
 62
7
 10
177.2
 20
-202.3000000000001
 30
0
 11
144.8
 21
-202.3000000000001
 31
0
  0
LINE
  8
1
 62
7
 10
140.9482391250602
 20
-92.00000000000006
 30
0
 11
148.8
 21
-92.00000000000006
 31
0
  0
LINE
  8
1
 62
7
 10
-53.43994747821591
 20
-92.04416080527606
 30
0
 11
-52
 21
-92.04416080527606
 31
0
  0
LINE
  8
1
 62
7
 10
52
 20
-92.04416080527606
 30
0
 11
53.43994747821591
 21
-92.04416080527606
 31
0
  0
LINE
  8
1
 62
7
 10
-24
 20
-125.5000000000001
 30
0
 11
-33.92101857861257
 21
-125.5000000000001
 31
0
  0
LINE
  8
1
 62
7
 10
33.92101857861263
 20
-125.5000000000001
 30
0
 11
24
 21
-125.5000000000001
 31
0
  0
LINE
  8
1
 62
7
 10
127.8
 20
-125.5000000000001
 30
0
 11
142.1180849030338
 21
-125.5000000000001
 31
0
  0
LINE
  8
1
 62
7
 10
142.1180849030338
 20
-125.5000000000001
 30
0
 11
144.8
 21
-202.3000000000001
 31
0
  0
LINE
  8
1
 62
7
 10
-24
 20
-90.50000000000006
 30
0
 11
-24
 21
-125.5000000000001
 31
0
  0
LINE
  8
1
 62
7
 10
-24
 20
-125.5000000000001
 30
0
 11
-3.800000000000011
 21
-125.5000000000001
 31
0
  0
LINE
  8
1
 62
7
 10
24
 20
-125.5000000000001
 30
0
 11
3.800000000000011
 21
-125.5000000000001
 31
0
  0
LINE
  8
1
 62
7
 10
2.600000000000023
 20
-25.00000000000006
 30
0
 11
5.462412721213298
 21
-0.6419090769938407
 31
0
  0
LINE
  8
1
 62
7
 10
-5.462412721213298
 20
-0.6419090769938691
 30
0
 11
-2.599999999999966
 21
-25.00000000000006
 31
0
  0
LINE
  8
1
 62
7
 10
-2.599999999999966
 20
-25.00000000000006
 30
0
 11
2.600000000000023
 21
-25.00000000000006
 31
0
  0
LINE
  8
1
 62
7
 10
117.1
 20
-25.00000000000006
 30
0
 11
118.3
 21
-25.00000000000006
 31
0
  0
LINE
  8
1
 62
7
 10
118.3
 20
-25.00000000000006
 30
0
 11
118.3
 21
5.499999999999943
 31
0
  0
LINE
  8
1
 62
7
 10
118.3
 20
5.499999999999943
 30
0
 11
117.1
 21
5.499999999999943
 31
0
  0
LINE
  8
1
 62
7
 10
117.1
 20
5.499999999999943
 30
0
 11
117.1
 21
-25.00000000000006
 31
0
  0
LINE
  8
1
 62
7
 10
119.5
 20
34.14999999999995
 30
0
 11
119.5
 21
30.84999999999994
 31
0
  0
LINE
  8
1
 62
7
 10
120.2
 20
37.49999999999994
 30
0
 11
120.2
 21
-70.85000000000005
 31
0
  0
LINE
  8
1
 62
7
 10
120.2
 20
-74.15000000000006
 30
0
 11
120.2
 21
-70.85000000000005
 31
0
  0
LINE
  8
1
 62
7
 10
119.5
 20
-70.85000000000005
 30
0
 11
119.5
 21
-74.15000000000006
 31
0
  0
LINE
  8
1
 62
7
 10
-32.5
 20
-77.50000000000006
 30
0
 11
32.5
 21
-77.50000000000006
 31
0
  0
LINE
  8
1
 62
7
 10
37.5
 20
-72.50000000000006
 30
0
 11
37.5
 21
32.49999999999994
 31
0
  0
LINE
  8
1
 62
7
 10
32.5
 20
37.49999999999994
 30
0
 11
-32.5
 21
37.49999999999994
 31
0
  0
LINE
  8
1
 62
7
 10
-37.5
 20
32.49999999999994
 30
0
 11
-37.5
 21
-72.50000000000006
 31
0
  0
LINE
  8
1
 62
7
 10
-36.5
 20
32.49999999999994
 30
0
 11
-36.5
 21
-72.50000000000004
 31
0
  0
LINE
  8
1
 62
7
 10
-32.5
 20
-76.50000000000006
 30
0
 11
32.5
 21
-76.50000000000006
 31
0
  0
LINE
  8
1
 62
7
 10
36.5
 20
-72.50000000000006
 30
0
 11
36.5
 21
32.49999999999994
 31
0
  0
LINE
  8
1
 62
7
 10
35.5
 20
-72.50000000000006
 30
0
 11
35.5
 21
-69.50000000000006
 31
0
  0
LINE
  8
1
 62
7
 10
-32.5
 20
-75.50000000000006
 30
0
 11
32.5
 21
-75.50000000000006
 31
0
  0
LINE
  8
1
 62
7
 10
-35.5
 20
32.49999999999994
 30
0
 11
-35.5
 21
-38.00000000000006
 31
0
  0
LINE
  8
1
 62
7
 10
32.5
 20
36.49999999999994
 30
0
 11
-32.5
 21
36.49999999999994
 31
0
  0
LINE
  8
1
 62
7
 10
32.5
 20
35.49999999999994
 30
0
 11
-32.5
 21
35.49999999999994
 31
0
  0
LINE
  8
1
 62
7
 10
-6.211657082460476
 20
23.18221983093754
 30
0
 11
-7.76457135307561
 21
28.97777478867204
 31
0
  0
LINE
  8
1
 62
7
 10
7.76457135307561
 20
28.97777478867204
 30
0
 11
6.211657082460533
 21
23.18221983093754
 31
0
  0
LINE
  8
1
 62
7
 10
-6.211657082460476
 20
-23.1822198309377
 30
0
 11
-7.76457135307561
 21
-28.9777747886721
 31
0
  0
LINE
  8
1
 62
7
 10
7.76457135307561
 20
-28.9777747886721
 30
0
 11
6.211657082460533
 21
-23.1822198309377
 31
0
  0
LINE
  8
1
 62
7
 10
23.953079134007
 20
-1.500000000000057
 30
0
 11
29.96247653315731
 21
-1.500000000000057
 31
0
  0
LINE
  8
1
 62
7
 10
29.96247653315731
 20
1.499999999999943
 30
0
 11
23.953079134007
 21
1.499999999999943
 31
0
  0
LINE
  8
1
 62
7
 10
19.61951994718402
 20
13.82296773641784
 30
0
 11
24.30615573152011
 21
17.58439062222784
 31
0
  0
LINE
  8
1
 62
7
 10
22.4283853149679
 20
19.92404407150644
 30
0
 11
17.74174953063181
 21
16.16262118569644
 31
0
  0
LINE
  8
1
 62
7
 10
17.74174953063181
 20
-16.16262118569654
 30
0
 11
22.4283853149679
 21
-19.92404407150656
 31
0
  0
LINE
  8
1
 62
7
 10
24.30615573152011
 20
-17.58439062222794
 30
0
 11
19.61951994718402
 21
-13.82296773641792
 31
0
  0
LINE
  8
1
 62
7
 10
-17.74174953063181
 20
-16.16262118569654
 30
0
 11
-22.4283853149679
 21
-19.92404407150656
 31
0
  0
LINE
  8
1
 62
7
 10
-24.30615573152011
 20
-17.58439062222794
 30
0
 11
-19.61951994718402
 21
-13.82296773641792
 31
0
  0
LINE
  8
1
 62
7
 10
-23.95307913400688
 20
-1.500000000000057
 30
0
 11
-29.96247653315731
 21
-1.500000000000057
 31
0
  0
LINE
  8
1
 62
7
 10
-29.96247653315731
 20
1.499999999999943
 30
0
 11
-23.95307913400688
 21
1.499999999999943
 31
0
  0
LINE
  8
1
 62
7
 10
-22.4283853149679
 20
19.92404407150644
 30
0
 11
-17.74174953063181
 21
16.16262118569644
 31
0
  0
LINE
  8
1
 62
7
 10
-19.61951994718402
 20
13.82296773641784
 30
0
 11
-24.30615573152011
 21
17.58439062222784
 31
0
  0
LINE
  8
1
 62
7
 10
-35.5
 20
-38.00000000000006
 30
0
 11
35.5
 21
-38.00000000000006
 31
0
  0
LINE
  8
1
 62
7
 10
35.5
 20
-38.00000000000006
 30
0
 11
35.5
 21
32.49999999999994
 31
0
  0
LINE
  8
1
 62
7
 10
-35.5
 20
-69.50000000000006
 30
0
 11
35.5
 21
-69.50000000000006
 31
0
  0
LINE
  8
1
 62
7
 10
-35.5
 20
-69.50000000000006
 30
0
 11
-35.5
 21
-72.50000000000006
 31
0
  0
LINE
  8
1
 62
7
 10
-10
 20
-49.00000000000006
 30
0
 11
20
 21
-49.00000000000006
 31
0
  0
LINE
  8
1
 62
7
 10
20
 20
-49.00000000000006
 30
0
 11
20
 21
-53.00000000000006
 31
0
  0
LINE
  8
1
 62
7
 10
20
 20
-53.00000000000006
 30
0
 11
-10
 21
-53.00000000000006
 31
0
  0
LINE
  8
1
 62
7
 10
-10
 20
-53.00000000000006
 30
0
 11
-10
 21
-49.00000000000006
 31
0
  0
LINE
  8
1
 62
2
 10
11.42941176470589
 20
-63.75294117647064
 30
0
 11
11.42941176470589
 21
-65.50000000000006
 31
0
  0
LINE
  8
1
 62
2
 10
9.029411764705912
 20
-63.2411764705883
 30
0
 11
9.92941176470589
 21
-63.2411764705883
 31
0
  0
LINE
  8
1
 62
2
 10
9.92941176470589
 20
-63.2411764705883
 30
0
 11
9.92941176470589
 21
-63.47058823529417
 31
0
  0
LINE
  8
1
 62
2
 10
9.029411764705912
 20
-63.2411764705883
 30
0
 11
9.029411764705912
 21
-65.50000000000006
 31
0
  0
LINE
  8
1
 62
2
 10
9.92941176470589
 20
-64.00000000000006
 30
0
 11
9.92941176470589
 21
-65.50000000000006
 31
0
  0
LINE
  8
1
 62
2
 10
10.56470588235294
 20
-65.50000000000006
 30
0
 11
10.56470588235294
 21
-63.75294117647064
 31
0
  0
LINE
  8
1
 62
2
 10
10.81176470588241
 20
-63.13529411764712
 30
0
 11
10.6217074792682
 21
-63.13529411764712
 31
0
  0
LINE
  8
1
 62
2
 10
10.56470588235294
 20
-65.50000000000006
 30
0
 11
11.42941176470589
 21
-65.50000000000006
 31
0
  0
LINE
  8
1
 62
2
 10
9.029411764705912
 20
-65.50000000000006
 30
0
 11
9.92941176470589
 21
-65.50000000000006
 31
0
  0
LINE
  8
1
 62
2
 10
7.864705882353007
 20
-64.98823529411771
 30
0
 11
7.864705882353007
 21
-63.75294117647064
 31
0
  0
LINE
  8
1
 62
2
 10
7.123529411764707
 20
-63.75294117647064
 30
0
 11
7.123529411764707
 21
-64.98823529411771
 31
0
  0
LINE
  8
1
 62
2
 10
8.694117647058704
 20
-64.40588235294123
 30
0
 11
8.694117647058704
 21
-64.33529411764712
 31
0
  0
LINE
  8
1
 62
2
 10
6.294117647058783
 20
-64.33529411764712
 30
0
 11
6.294117647058783
 21
-64.40588235294123
 31
0
  0
LINE
  8
1
 62
2
 10
4.952941176470631
 20
-63.9117647058824
 30
0
 11
4.141176470588221
 21
-63.9117647058824
 31
0
  0
LINE
  8
1
 62
2
 10
4.952941176470631
 20
-65.50000000000006
 30
0
 11
4.952941176470631
 21
-63.9117647058824
 31
0
  0
LINE
  8
1
 62
2
 10
5.958823529411802
 20
-65.50000000000006
 30
0
 11
4.952941176470631
 21
-65.50000000000006
 31
0
  0
LINE
  8
1
 62
2
 10
5.958823529411802
 20
-62.32352941176477
 30
0
 11
5.958823529411802
 21
-65.50000000000006
 31
0
  0
LINE
  8
1
 62
2
 10
4.952941176470631
 20
-62.32352941176477
 30
0
 11
5.958823529411802
 21
-62.32352941176477
 31
0
  0
LINE
  8
1
 62
2
 10
4.952941176470631
 20
-63.62941176470594
 30
0
 11
4.952941176470631
 21
-62.32352941176477
 31
0
  0
LINE
  8
1
 62
2
 10
4.141176470588221
 20
-63.62941176470594
 30
0
 11
4.952941176470631
 21
-63.62941176470594
 31
0
  0
LINE
  8
1
 62
2
 10
4.141176470588221
 20
-62.32352941176477
 30
0
 11
4.141176470588221
 21
-63.62941176470594
 31
0
  0
LINE
  8
1
 62
2
 10
3.135294117646993
 20
-62.32352941176477
 30
0
 11
4.141176470588221
 21
-62.32352941176477
 31
0
  0
LINE
  8
1
 62
2
 10
3.135294117646993
 20
-65.50000000000006
 30
0
 11
3.135294117646993
 21
-62.32352941176477
 31
0
  0
LINE
  8
1
 62
2
 10
4.141176470588221
 20
-65.50000000000006
 30
0
 11
3.135294117646993
 21
-65.50000000000006
 31
0
  0
LINE
  8
1
 62
2
 10
4.141176470588221
 20
-63.9117647058824
 30
0
 11
4.141176470588221
 21
-65.50000000000006
 31
0
  0
LINE
  8
1
 62
2
 10
-20
 20
-62.32352941176477
 30
0
 11
-18.99411764705877
 21
-62.32352941176477
 31
0
  0
LINE
  8
1
 62
2
 10
-18.99411764705877
 20
-62.32352941176477
 30
0
 11
-18.2705882352941
 21
-63.47058823529417
 31
0
  0
LINE
  8
1
 62
2
 10
-18.2705882352941
 20
-63.47058823529417
 30
0
 11
-17.54705882352937
 21
-62.32352941176477
 31
0
  0
LINE
  8
1
 62
2
 10
-17.54705882352937
 20
-62.32352941176477
 30
0
 11
-16.54117647058831
 21
-62.32352941176477
 31
0
  0
LINE
  8
1
 62
2
 10
-20
 20
-62.32352941176477
 30
0
 11
-18.77352941176468
 21
-64.15882352941182
 31
0
  0
LINE
  8
1
 62
2
 10
-18.77352941176468
 20
-64.15882352941182
 30
0
 11
-18.77352941176468
 21
-65.50000000000006
 31
0
  0
LINE
  8
1
 62
2
 10
-18.77352941176468
 20
-65.50000000000006
 30
0
 11
-17.76764705882351
 21
-65.50000000000006
 31
0
  0
LINE
  8
1
 62
2
 10
-17.76764705882351
 20
-65.50000000000006
 30
0
 11
-17.76764705882351
 21
-64.15882352941182
 31
0
  0
LINE
  8
1
 62
2
 10
-17.76764705882351
 20
-64.15882352941182
 30
0
 11
-16.54117647058831
 21
-62.32352941176477
 31
0
  0
LINE
  8
1
 62
2
 10
-15.69411764705876
 20
-64.264705882353
 30
0
 11
-15.76470588235287
 21
-64.264705882353
 31
0
  0
LINE
  8
1
 62
2
 10
-15.69411764705876
 20
-64.90000000000006
 30
0
 11
-15.69411764705876
 21
-64.26887259943061
 31
0
  0
LINE
  8
1
 62
2
 10
-16.36470588235301
 20
-64.86470588235299
 30
0
 11
-16.36470588235301
 21
-64.90000000000006
 31
0
  0
LINE
  8
1
 62
2
 10
-15.69411764705876
 20
-65.34117647058829
 30
0
 11
-15.69411764705876
 21
-65.50000000000006
 31
0
  0
LINE
  8
1
 62
2
 10
-15.69411764705876
 20
-65.50000000000006
 30
0
 11
-14.84705882352938
 21
-65.50000000000006
 31
0
  0
LINE
  8
1
 62
2
 10
-14.84705882352938
 20
-65.50000000000006
 30
0
 11
-14.84705882352938
 21
-64.07724511879388
 31
0
  0
LINE
  8
1
 62
2
 10
-17.12352941176471
 20
-63.87647058823535
 30
0
 11
-16.80588235294118
 21
-63.87647058823535
 31
0
  0
LINE
  8
1
 62
2
 10
-16.13251350488218
 20
-63.38235294117652
 30
0
 11
-16.04705882352937
 21
-63.38235294117652
 31
0
  0
LINE
  8
1
 62
2
 10
-15.69411764705876
 20
-63.73529411764711
 30
0
 11
-15.69411764705876
 21
-64.08823529411771
 31
0
  0
LINE
  8
1
 62
2
 10
-15.69411764705876
 20
-64.08823529411771
 30
0
 11
-16.39999999999998
 21
-64.08823529411771
 31
0
  0
LINE
  8
1
 62
2
 10
-16.05867006032611
 20
-65.52478075844901
 30
0
 11
-15.69411764705876
 21
-65.34117647058829
 31
0
  0
LINE
  8
1
 62
2
 10
-14.44117647058818
 20
-65.50000000000006
 30
0
 11
-13.54117647058831
 21
-65.50000000000006
 31
0
  0
LINE
  8
1
 62
2
 10
-12.90588235294109
 20
-65.50000000000006
 30
0
 11
-12.04117647058831
 21
-65.50000000000006
 31
0
  0
LINE
  8
1
 62
2
 10
-11.40588235294109
 20
-65.50000000000006
 30
0
 11
-10.54117647058831
 21
-65.50000000000006
 31
0
  0
LINE
  8
1
 62
2
 10
-10.54117647058831
 20
-65.50000000000006
 30
0
 11
-10.54117647058831
 21
-63.75294117647064
 31
0
  0
LINE
  8
1
 62
2
 10
-11.15882352941179
 20
-63.13529411764712
 30
0
 11
-11.34888075602589
 21
-63.13529411764712
 31
0
  0
LINE
  8
1
 62
2
 10
-12.65882352941179
 20
-63.13529411764712
 30
0
 11
-12.84888075602589
 21
-63.13529411764712
 31
0
  0
LINE
  8
1
 62
2
 10
-11.40588235294109
 20
-65.50000000000006
 30
0
 11
-11.40588235294109
 21
-63.75294117647064
 31
0
  0
LINE
  8
1
 62
2
 10
-12.04117647058831
 20
-64.00000000000006
 30
0
 11
-12.04117647058831
 21
-65.50000000000006
 31
0
  0
LINE
  8
1
 62
2
 10
-12.90588235294109
 20
-65.50000000000006
 30
0
 11
-12.90588235294109
 21
-63.75294117647064
 31
0
  0
LINE
  8
1
 62
2
 10
-13.54117647058831
 20
-64.00000000000006
 30
0
 11
-13.54117647058831
 21
-65.50000000000006
 31
0
  0
LINE
  8
1
 62
2
 10
-9.017493589737796
 20
-65.52478075844901
 30
0
 11
-8.652941176470563
 21
-65.34117647058829
 31
0
  0
LINE
  8
1
 62
2
 10
-8.652941176470563
 20
-64.08823529411771
 30
0
 11
-9.358823529411779
 21
-64.08823529411771
 31
0
  0
LINE
  8
1
 62
2
 10
-8.652941176470563
 20
-63.73529411764711
 30
0
 11
-8.652941176470563
 21
-64.08823529411771
 31
0
  0
LINE
  8
1
 62
2
 10
-9.091337034293872
 20
-63.38235294117652
 30
0
 11
-9.005882352941171
 21
-63.38235294117652
 31
0
  0
LINE
  8
1
 62
2
 10
-10.08235294117651
 20
-63.87647058823535
 30
0
 11
-9.764705882352871
 21
-63.87647058823535
 31
0
  0
LINE
  8
1
 62
2
 10
-7.805882352941182
 20
-65.50000000000006
 30
0
 11
-7.805882352941182
 21
-64.07724511879388
 31
0
  0
LINE
  8
1
 62
2
 10
-8.652941176470563
 20
-65.50000000000006
 30
0
 11
-7.805882352941182
 21
-65.50000000000006
 31
0
  0
LINE
  8
1
 62
2
 10
-8.652941176470563
 20
-65.34117647058829
 30
0
 11
-8.652941176470563
 21
-65.50000000000006
 31
0
  0
LINE
  8
1
 62
2
 10
-9.323529411764696
 20
-64.86470588235299
 30
0
 11
-9.323529411764696
 21
-64.90000000000006
 31
0
  0
LINE
  8
1
 62
2
 10
-8.652941176470563
 20
-64.90000000000006
 30
0
 11
-8.652941176470563
 21
-64.26887259943061
 31
0
  0
LINE
  8
1
 62
2
 10
-8.652941176470563
 20
-64.264705882353
 30
0
 11
-8.723529411764673
 21
-64.264705882353
 31
0
  0
LINE
  8
1
 62
2
 10
-7.417647058823491
 20
-63.20941176470593
 30
0
 11
-7.682352941176475
 21
-63.20941176470593
 31
0
  0
LINE
  8
1
 62
2
 10
-7.682352941176475
 20
-63.20941176470593
 30
0
 11
-7.682352941176475
 21
-63.41764705882359
 31
0
  0
LINE
  8
1
 62
2
 10
-7.682352941176475
 20
-63.41764705882359
 30
0
 11
-7.417647058823491
 21
-63.41764705882359
 31
0
  0
LINE
  8
1
 62
2
 10
-6.641176470588164
 20
-63.20941176470593
 30
0
 11
-6.023529411764684
 21
-63.20941176470593
 31
0
  0
LINE
  8
1
 62
2
 10
-6.023529411764684
 20
-63.20941176470593
 30
0
 11
-6.023529411764684
 21
-63.41764705882359
 31
0
  0
LINE
  8
1
 62
2
 10
-6.023529411764684
 20
-63.41764705882359
 30
0
 11
-6.641176470588164
 21
-63.41764705882359
 31
0
  0
LINE
  8
1
 62
2
 10
-6.641176470588164
 20
-63.20941176470593
 30
0
 11
-6.641176470588164
 21
-62.51764705882358
 31
0
  0
LINE
  8
1
 62
2
 10
-6.641176470588164
 20
-62.51764705882358
 30
0
 11
-7.417647058823491
 21
-62.87058823529418
 31
0
  0
LINE
  8
1
 62
2
 10
-7.417647058823491
 20
-62.87058823529418
 30
0
 11
-7.417647058823491
 21
-63.20941176470593
 31
0
  0
LINE
  8
1
 62
2
 10
-7.417647058823491
 20
-63.41764705882359
 30
0
 11
-7.417647058823491
 21
-64.90000000000006
 31
0
  0
LINE
  8
1
 62
2
 10
-6.477951472763209
 20
-65.56603398427724
 30
0
 11
-5.988235294117715
 21
-65.39411764705888
 31
0
  0
LINE
  8
1
 62
2
 10
-5.988235294117715
 20
-65.39411764705888
 30
0
 11
-5.988235294117715
 21
-65.12941176470594
 31
0
  0
LINE
  8
1
 62
2
 10
-5.988235294117715
 20
-65.12941176470594
 30
0
 11
-6.312774807561198
 21
-65.20986928251699
 31
0
  0
LINE
  8
1
 62
2
 10
-6.641176470588164
 20
-63.41764705882359
 30
0
 11
-6.641176470588164
 21
-64.95294117647065
 31
0
  0
LINE
  8
1
 62
2
 10
-4.711611236796614
 20
-65.52478075844901
 30
0
 11
-4.34705882352938
 21
-65.34117647058829
 31
0
  0
LINE
  8
1
 62
2
 10
-4.34705882352938
 20
-64.08823529411771
 30
0
 11
-5.052941176470597
 21
-64.08823529411771
 31
0
  0
LINE
  8
1
 62
2
 10
-4.34705882352938
 20
-63.73529411764711
 30
0
 11
-4.34705882352938
 21
-64.08823529411771
 31
0
  0
LINE
  8
1
 62
2
 10
-4.785454681352689
 20
-63.38235294117652
 30
0
 11
-4.699999999999989
 21
-63.38235294117652
 31
0
  0
LINE
  8
1
 62
2
 10
-5.77647058823527
 20
-63.87647058823535
 30
0
 11
-5.458823529411688
 21
-63.87647058823535
 31
0
  0
LINE
  8
1
 62
2
 10
-3.5
 20
-65.50000000000006
 30
0
 11
-3.5
 21
-64.07724511879388
 31
0
  0
LINE
  8
1
 62
2
 10
-4.34705882352938
 20
-65.50000000000006
 30
0
 11
-3.5
 21
-65.50000000000006
 31
0
  0
LINE
  8
1
 62
2
 10
-4.34705882352938
 20
-65.34117647058829
 30
0
 11
-4.34705882352938
 21
-65.50000000000006
 31
0
  0
LINE
  8
1
 62
2
 10
-5.017647058823513
 20
-64.86470588235299
 30
0
 11
-5.017647058823513
 21
-64.90000000000006
 31
0
  0
LINE
  8
1
 62
2
 10
-4.34705882352938
 20
-64.90000000000006
 30
0
 11
-4.34705882352938
 21
-64.26887259943061
 31
0
  0
LINE
  8
1
 62
2
 10
-4.34705882352938
 20
-64.264705882353
 30
0
 11
-4.417647058823491
 21
-64.264705882353
 31
0
  0
LINE
  8
1
 62
2
 10
-3.094117647058795
 20
-65.50000000000006
 30
0
 11
-3.094117647058795
 21
-62.32352941176477
 31
0
  0
LINE
  8
1
 62
2
 10
-3.094117647058795
 20
-62.32352941176477
 30
0
 11
-2.317647058823468
 21
-62.32352941176477
 31
0
  0
LINE
  8
1
 62
2
 10
-2.317647058823468
 20
-62.32352941176477
 30
0
 11
-2.317647058823468
 21
-64.12352941176476
 31
0
  0
LINE
  8
1
 62
2
 10
-2.317647058823468
 20
-64.564705882353
 30
0
 11
-2.317647058823468
 21
-65.50000000000006
 31
0
  0
LINE
  8
1
 62
2
 10
-2.317647058823468
 20
-65.50000000000006
 30
0
 11
-3.094117647058795
 21
-65.50000000000006
 31
0
  0
LINE
  8
1
 62
2
 10
-1.435294117647061
 20
-65.50000000000006
 30
0
 11
-1.047058823529369
 21
-65.50000000000006
 31
0
  0
LINE
  8
1
 62
2
 10
-0.1999999999999886
 20
-64.30000000000005
 30
0
 11
0.4705882352940876
 21
-64.30000000000005
 31
0
  0
LINE
  8
1
 62
2
 10
0.4705882352940876
 20
-64.30000000000005
 30
0
 11
0.4705882352940876
 21
-63.71764705882359
 31
0
  0
LINE
  8
1
 62
2
 10
-0.1999999999999886
 20
-63.71764705882359
 30
0
 11
-0.1999999999999886
 21
-64.30000000000005
 31
0
  0
LINE
  8
1
 62
2
 10
-0.1999999999999886
 20
-64.54705882352947
 30
0
 11
1.291666565844821
 21
-64.54705882352947
 31
0
  0
LINE
  8
1
 62
2
 10
1.300000000000011
 20
-64.54705882352947
 30
0
 11
1.300000000000011
 21
-64.40588235294123
 31
0
  0
LINE
  8
1
 62
2
 10
0.9294117647058897
 20
-65.00588235294123
 30
0
 11
1.106810717100927
 21
-65.05882352941182
 31
0
  0
LINE
  8
1
 62
2
 10
-1.099999999999966
 20
-64.40588235294123
 30
0
 11
-1.099999999999966
 21
-64.33529411764712
 31
0
  0
LINE
  8
1
 62
2
 10
-0.1999999999999886
 20
-64.54705882352947
 30
0
 11
-0.1999999999999886
 21
-65.0411764705883
 31
0
  0
LINE
  8
1
 62
2
 10
0.1176470588235361
 20
-65.35882352941182
 30
0
 11
0.22352941176473
 21
-65.35882352941182
 31
0
  0
LINE
  8
1
 62
2
 10
1.291666565844821
 20
-64.54705882352947
 30
0
 11
1.300000000000011
 21
-64.54705882352947
 31
0
  0
LINE
  8
1
 62
2
 10
1.300000000000011
 20
-64.40588235294123
 30
0
 11
1.300000000000011
 21
-64.33529411764712
 31
0
  0
LINE
  8
1
 62
2
 10
1.935294117647118
 20
-64.54705882352947
 30
0
 11
2.447058823529403
 21
-64.54705882352947
 31
0
  0
LINE
  8
1
 62
2
 10
2.447058823529403
 20
-64.54705882352947
 30
0
 11
2.447058823529403
 21
-64.24705882352947
 31
0
  0
LINE
  8
1
 62
2
 10
2.447058823529403
 20
-64.24705882352947
 30
0
 11
1.935294117647118
 21
-64.24705882352947
 31
0
  0
LINE
  8
1
 62
2
 10
1.935294117647118
 20
-64.24705882352947
 30
0
 11
1.935294117647118
 21
-64.54705882352947
 31
0
  0
LINE
  8
1
 62
2
 10
23.05882352941182
 20
-65.50000000000006
 30
0
 11
23.81764705882352
 21
-65.50000000000006
 31
0
  0
LINE
  8
1
 62
2
 10
23.81764705882352
 20
-65.50000000000006
 30
0
 11
23.81764705882352
 21
-62.32352941176477
 31
0
  0
LINE
  8
1
 62
2
 10
23.81764705882352
 20
-62.32352941176477
 30
0
 11
23.05882352941182
 21
-62.32352941176477
 31
0
  0
LINE
  8
1
 62
2
 10
23.05882352941182
 20
-62.32352941176477
 30
0
 11
23.05882352941182
 21
-65.50000000000006
 31
0
  0
LINE
  8
1
 62
2
 10
24.24117647058819
 20
-65.50000000000006
 30
0
 11
25
 21
-65.50000000000006
 31
0
  0
LINE
  8
1
 62
2
 10
25
 20
-65.50000000000006
 30
0
 11
25
 21
-62.32352941176477
 31
0
  0
LINE
  8
1
 62
2
 10
25
 20
-62.32352941176477
 30
0
 11
24.24117647058819
 21
-62.32352941176477
 31
0
  0
LINE
  8
1
 62
2
 10
24.24117647058819
 20
-62.32352941176477
 30
0
 11
24.24117647058819
 21
-65.50000000000006
 31
0
  0
LINE
  8
1
 62
2
 10
22.70588235294122
 20
-64.40588235294123
 30
0
 11
22.70588235294122
 21
-64.33529411764712
 31
0
  0
LINE
  8
1
 62
2
 10
22.69754891878591
 20
-64.54705882352947
 30
0
 11
22.70588235294122
 21
-64.54705882352947
 31
0
  0
LINE
  8
1
 62
2
 10
21.52352941176468
 20
-65.35882352941182
 30
0
 11
21.62941176470594
 21
-65.35882352941182
 31
0
  0
LINE
  8
1
 62
2
 10
21.20588235294122
 20
-64.54705882352947
 30
0
 11
21.20588235294122
 21
-65.0411764705883
 31
0
  0
LINE
  8
1
 62
2
 10
20.30588235294124
 20
-64.40588235294123
 30
0
 11
20.30588235294124
 21
-64.33529411764712
 31
0
  0
LINE
  8
1
 62
2
 10
22.33529411764709
 20
-65.00588235294123
 30
0
 11
22.51269307004213
 21
-65.05882352941182
 31
0
  0
LINE
  8
1
 62
2
 10
22.70588235294122
 20
-64.54705882352947
 30
0
 11
22.70588235294122
 21
-64.40588235294123
 31
0
  0
LINE
  8
1
 62
2
 10
21.20588235294122
 20
-64.54705882352947
 30
0
 11
22.69754891878591
 21
-64.54705882352947
 31
0
  0
LINE
  8
1
 62
2
 10
21.20588235294122
 20
-63.71764705882359
 30
0
 11
21.20588235294122
 21
-64.30000000000005
 31
0
  0
LINE
  8
1
 62
2
 10
21.87647058823529
 20
-64.30000000000005
 30
0
 11
21.87647058823529
 21
-63.71764705882359
 31
0
  0
LINE
  8
1
 62
2
 10
21.20588235294122
 20
-64.30000000000005
 30
0
 11
21.87647058823529
 21
-64.30000000000005
 31
0
  0
LINE
  8
1
 62
2
 10
-14.44117647058818
 20
-63.2411764705883
 30
0
 11
-14.44117647058818
 21
-65.50000000000006
 31
0
  0
LINE
  8
1
 62
2
 10
-13.54117647058831
 20
-63.2411764705883
 30
0
 11
-13.54117647058831
 21
-63.47058823529417
 31
0
  0
LINE
  8
1
 62
2
 10
-14.44117647058818
 20
-63.2411764705883
 30
0
 11
-13.54117647058831
 21
-63.2411764705883
 31
0
  0
LINE
  8
1
 62
2
 10
-2.317647058823468
 20
-64.12352941176476
 30
0
 11
-1.435294117647061
 21
-63.2411764705883
 31
0
  0
LINE
  8
1
 62
2
 10
-1.435294117647061
 20
-63.2411764705883
 30
0
 11
-1.047058823529369
 21
-63.2411764705883
 31
0
  0
LINE
  8
1
 62
2
 10
-1.047058823529369
 20
-63.2411764705883
 30
0
 11
-1.894117647058806
 21
-64.12026147572058
 31
0
  0
LINE
  8
1
 62
2
 10
-1.894117647058806
 20
-64.12026147572058
 30
0
 11
-1.047058823529369
 21
-65.50000000000006
 31
0
  0
LINE
  8
1
 62
2
 10
-2.317647058823468
 20
-64.564705882353
 30
0
 11
-2.08823529411768
 21
-64.32171845606341
 31
0
  0
LINE
  8
1
 62
2
 10
-2.08823529411768
 20
-64.32171845606341
 30
0
 11
-1.435294117647061
 21
-65.50000000000006
 31
0
  0
LINE
  8
1
 62
2
 10
20.18235294117653
 20
-63.2411764705883
 30
0
 11
19.49411764705883
 21
-65.50000000000006
 31
0
  0
LINE
  8
1
 62
2
 10
20.18235294117653
 20
-63.2411764705883
 30
0
 11
19.90000000000003
 21
-63.2411764705883
 31
0
  0
LINE
  8
1
 62
2
 10
19.90000000000003
 20
-63.2411764705883
 30
0
 11
19.47647058823532
 21
-64.63529411764712
 31
0
  0
LINE
  8
1
 62
2
 10
19.07058823529411
 20
-63.2411764705883
 30
0
 11
19.47647058823532
 21
-64.63529411764712
 31
0
  0
LINE
  8
1
 62
2
 10
18.84117647058821
 20
-65.50000000000006
 30
0
 11
19.49411764705883
 21
-65.50000000000006
 31
0
  0
LINE
  8
1
 62
2
 10
18.41764705882349
 20
-63.2411764705883
 30
0
 11
19.07058823529411
 21
-63.2411764705883
 31
0
  0
LINE
  8
1
 62
2
 10
18.41764705882349
 20
-63.2411764705883
 30
0
 11
17.99411764705883
 21
-64.63529411764712
 31
0
  0
LINE
  8
1
 62
2
 10
17.58823529411774
 20
-63.2411764705883
 30
0
 11
17.99411764705883
 21
-64.63529411764712
 31
0
  0
LINE
  8
1
 62
2
 10
17.35882352941184
 20
-65.50000000000006
 30
0
 11
18.0117647058824
 21
-65.50000000000006
 31
0
  0
LINE
  8
1
 62
2
 10
18.43590041493769
 20
-64.10588235294124
 30
0
 11
18.84117647058821
 21
-65.50000000000006
 31
0
  0
LINE
  8
1
 62
2
 10
18.43590041493769
 20
-64.10588235294124
 30
0
 11
18.0117647058824
 21
-65.50000000000006
 31
0
  0
LINE
  8
1
 62
2
 10
17.58823529411774
 20
-63.2411764705883
 30
0
 11
16.70588235294122
 21
-63.2411764705883
 31
0
  0
LINE
  8
1
 62
2
 10
16.70588235294122
 20
-63.2411764705883
 30
0
 11
17.35882352941184
 21
-65.50000000000006
 31
0
  0
LINE
  8
1
 62
2
 10
15.84117647058821
 20
-64.40588235294123
 30
0
 11
16.33529411764709
 21
-63.2411764705883
 31
0
  0
LINE
  8
1
 62
2
 10
16.33529411764709
 20
-63.2411764705883
 30
0
 11
16.65294117647062
 21
-63.2411764705883
 31
0
  0
LINE
  8
1
 62
2
 10
15.27647058823533
 20
-63.2411764705883
 30
0
 11
15.84117647058821
 21
-64.40588235294123
 31
0
  0
LINE
  8
1
 62
2
 10
15.27647058823533
 20
-63.2411764705883
 30
0
 11
14.2705882352941
 21
-63.2411764705883
 31
0
  0
LINE
  8
1
 62
2
 10
14.2705882352941
 20
-63.2411764705883
 30
0
 11
15.37700534759364
 21
-65.50000000000006
 31
0
  0
LINE
  8
1
 62
2
 10
16.65294117647062
 20
-63.2411764705883
 30
0
 11
15.50956433980741
 21
-65.93954580511331
 31
0
  0
LINE
  8
1
 62
2
 10
15.37700534759364
 20
-65.50000000000006
 30
0
 11
15.19782681884931
 21
-65.9223493891831
 31
0
  0
LINE
  8
1
 62
2
 10
14.19999999999999
 20
-64.40588235294123
 30
0
 11
14.19999999999999
 21
-64.33529411764712
 31
0
  0
LINE
  8
1
 62
2
 10
14.1916665658448
 20
-64.54705882352947
 30
0
 11
14.19999999999999
 21
-64.54705882352947
 31
0
  0
LINE
  8
1
 62
2
 10
13.01764705882351
 20
-65.35882352941182
 30
0
 11
13.12352941176471
 21
-65.35882352941182
 31
0
  0
LINE
  8
1
 62
2
 10
12.69999999999999
 20
-64.54705882352947
 30
0
 11
12.69999999999999
 21
-65.0411764705883
 31
0
  0
LINE
  8
1
 62
2
 10
11.80000000000001
 20
-64.40588235294123
 30
0
 11
11.80000000000001
 21
-64.33529411764712
 31
0
  0
LINE
  8
1
 62
2
 10
13.82941176470592
 20
-65.00588235294123
 30
0
 11
14.0068107171009
 21
-65.05882352941182
 31
0
  0
LINE
  8
1
 62
2
 10
14.19999999999999
 20
-64.54705882352947
 30
0
 11
14.19999999999999
 21
-64.40588235294123
 31
0
  0
LINE
  8
1
 62
2
 10
12.69999999999999
 20
-64.54705882352947
 30
0
 11
14.1916665658448
 21
-64.54705882352947
 31
0
  0
LINE
  8
1
 62
2
 10
12.69999999999999
 20
-63.71764705882359
 30
0
 11
12.69999999999999
 21
-64.30000000000005
 31
0
  0
LINE
  8
1
 62
2
 10
13.37058823529412
 20
-64.30000000000005
 30
0
 11
13.37058823529412
 21
-63.71764705882359
 31
0
  0
LINE
  8
1
 62
2
 10
12.69999999999999
 20
-64.30000000000005
 30
0
 11
13.37058823529412
 21
-64.30000000000005
 31
0
  0
LINE
  8
1
 62
2
 10
-27.33333333333331
 20
-58.00000000000006
 30
0
 11
-25.33333333333331
 21
-58.00000000000006
 31
0
  0
LINE
  8
1
 62
2
 10
-28.16666666666669
 20
-59.50793650793656
 30
0
 11
-27.33333333333331
 21
-58.00000000000006
 31
0
  0
LINE
  8
1
 62
2
 10
-29
 20
-58.00000000000006
 30
0
 11
-28.16666666666669
 21
-59.50793650793656
 31
0
  0
LINE
  8
1
 62
2
 10
-31
 20
-58.00000000000006
 30
0
 11
-29
 21
-58.00000000000006
 31
0
  0
LINE
  8
1
 62
2
 10
-27.08333333333331
 20
-61.16666666666673
 30
0
 11
-25.33333333333331
 21
-58.00000000000006
 31
0
  0
LINE
  8
1
 62
2
 10
-31
 20
-58.00000000000006
 30
0
 11
-29.25
 21
-61.16666666666673
 31
0
  0
LINE
  8
1
 62
2
 10
-29.25
 20
-63.16666666666673
 30
0
 11
-27.08333333333331
 21
-63.16666666666673
 31
0
  0
LINE
  8
1
 62
2
 10
-27.08333333333331
 20
-61.16666666666673
 30
0
 11
-27.08333333333331
 21
-63.16666666666673
 31
0
  0
LINE
  8
1
 62
2
 10
-29.25
 20
-61.16666666666673
 30
0
 11
-29.25
 21
-63.16666666666673
 31
0
  0
LINE
  8
1
 62
2
 10
-31
 20
-63.50000000000006
 30
0
 11
-31
 21
-64.50000000000006
 31
0
  0
LINE
  8
1
 62
2
 10
-25.33333333333331
 20
-63.50000000000006
 30
0
 11
-31
 21
-63.50000000000006
 31
0
  0
LINE
  8
1
 62
2
 10
-25.33333333333331
 20
-64.50000000000006
 30
0
 11
-25.33333333333331
 21
-63.50000000000006
 31
0
  0
LINE
  8
1
 62
2
 10
-31
 20
-64.50000000000006
 30
0
 11
-25.33333333333331
 21
-64.50000000000006
 31
0
  0
LINE
  8
1
 62
2
 10
-31
 20
-56.50000000000006
 30
0
 11
-31
 21
-57.50000000000006
 31
0
  0
LINE
  8
1
 62
2
 10
-25.33333333333331
 20
-56.50000000000006
 30
0
 11
-31
 21
-56.50000000000006
 31
0
  0
LINE
  8
1
 62
2
 10
-25.33333333333331
 20
-57.50000000000006
 30
0
 11
-25.33333333333331
 21
-56.50000000000006
 31
0
  0
LINE
  8
1
 62
2
 10
-31
 20
-57.50000000000006
 30
0
 11
-25.33333333333331
 21
-57.50000000000006
 31
0
  0
LINE
  8
1
 62
2
 10
-32.16666666666669
 20
-55.8333333333334
 30
0
 11
-32.16666666666669
 21
-64.16666666666673
 31
0
  0
LINE
  8
1
 62
2
 10
-32.16666666666669
 20
-55.8333333333334
 30
0
 11
-25.16666666666669
 21
-55.8333333333334
 31
0
  0
LINE
  8
1
 62
2
 10
-24.16666666666669
 20
-65.16666666666673
 30
0
 11
-24.16666666666669
 21
-56.8333333333334
 31
0
  0
LINE
  8
1
 62
2
 10
-24.16666666666669
 20
-65.16666666666673
 30
0
 11
-31.16666666666669
 21
-65.16666666666673
 31
0
  0
LINE
  8
1
 62
2
 10
-32.5
 20
-55.50000000000006
 30
0
 11
-32.5
 21
-64.16666666666673
 31
0
  0
LINE
  8
1
 62
2
 10
-23.83333333333331
 20
-65.50000000000006
 30
0
 11
-31.16666666666669
 21
-65.50000000000006
 31
0
  0
LINE
  8
1
 62
2
 10
-23.83333333333331
 20
-65.50000000000006
 30
0
 11
-23.83333333333331
 21
-56.8333333333334
 31
0
  0
LINE
  8
1
 62
2
 10
-32.5
 20
-55.50000000000006
 30
0
 11
-25.16666666666669
 21
-55.50000000000006
 31
0
  0
LINE
  8
1
 62
7
 10
120.2
 20
-77.50000000000006
 30
0
 11
120.8
 21
-77.50000000000006
 31
0
  0
LINE
  8
1
 62
7
 10
120.2
 20
-77.50000000000006
 30
0
 11
120.2
 21
-74.15000000000006
 31
0
  0
LINE
  8
1
 62
7
 10
120.2
 20
37.49999999999994
 30
0
 11
120.8
 21
37.49999999999994
 31
0
  0
LINE
  8
1
 62
7
 10
-1.484924240491807
 20
1.48492424049175
 30
0
 11
1.484924240491807
 21
-1.48492424049175
 31
0
  0
LINE
  8
1
 62
7
 10
-1.484924240491807
 20
-1.484924240491807
 30
0
 11
1.484924240491807
 21
1.484924240491722
 31
0
  0
LINE
  8
1
 62
7
 10
114.6
 20
-5.684341886080801e-14
 30
0
 11
115.1626933041054
 21
2.099999999999937
 31
0
  0
LINE
  8
1
 62
7
 10
115.1626933041054
 20
-2.10000000000008
 30
0
 11
114.6
 21
-5.684341886080801e-14
 31
0
  0
LINE
  8
1
 62
7
 10
117.1
 20
-4.150000000000063
 30
0
 11
115.4
 21
-4.150000000000063
 31
0
  0
LINE
  8
1
 62
7
 10
117.1
 20
4.14999999999992
 30
0
 11
117.1
 21
-4.150000000000063
 31
0
  0
LINE
  8
1
 62
7
 10
115.4
 20
4.14999999999992
 30
0
 11
117.1
 21
4.14999999999992
 31
0
  0
LINE
  8
1
 62
7
 10
115.4
 20
-4.150000000000063
 30
0
 11
115.4
 21
4.14999999999992
 31
0
  0
LINE
  8
1
 62
7
 10
52.5
 20
48.99999999999994
 30
0
 11
53.5
 21
48.99999999999994
 31
0
  0
LINE
  8
1
 62
7
 10
52.5
 20
48.99999999999994
 30
0
 11
52.5
 21
48.49999999999994
 31
0
  0
LINE
  8
1
 62
7
 10
-52.5
 20
48.99999999999994
 30
0
 11
-53.5
 21
48.99999999999994
 31
0
  0
LINE
  8
1
 62
7
 10
-52.5
 20
48.99999999999994
 30
0
 11
-52.5
 21
48.49999999999994
 31
0
  0
LINE
  8
1
 62
7
 10
-53.5
 20
48.99999999999994
 30
0
 11
-53.5
 21
-91.00000000000006
 31
0
  0
LINE
  8
1
 62
7
 10
-53.5
 20
-91.00000000000006
 30
0
 11
-52.5
 21
-91.00000000000006
 31
0
  0
LINE
  8
1
 62
7
 10
53.5
 20
48.99999999999994
 30
0
 11
53.5
 21
-91.00000000000006
 31
0
  0
LINE
  8
1
 62
7
 10
52.5
 20
-91.00000000000006
 30
0
 11
53.5
 21
-91.00000000000006
 31
0
  0
LINE
  8
1
 62
7
 10
-52.5
 20
-91.00000000000006
 30
0
 11
52.5
 21
-91.00000000000006
 31
0
  0
LINE
  8
1
 62
7
 10
52.5
 20
-91.00000000000006
 30
0
 11
52.5
 21
48.49999999999994
 31
0
  0
LINE
  8
1
 62
7
 10
51
 20
49.99999999999994
 30
0
 11
-51
 21
49.99999999999994
 31
0
  0
LINE
  8
1
 62
7
 10
-52.5
 20
48.49999999999994
 30
0
 11
-52.5
 21
-91.00000000000006
 31
0
  0
LINE
  8
1
 62
7
 10
149
 20
-85.00000000000006
 30
0
 11
148.8
 21
-85.20000000000006
 31
0
  0
LINE
  8
1
 62
7
 10
148.8
 20
-90.80000000000005
 30
0
 11
148.6
 21
-91.00000000000006
 31
0
  0
LINE
  8
1
 62
7
 10
182.8
 20
-79.30000000000005
 30
0
 11
182.8
 21
-84.00000000000006
 31
0
  0
LINE
  8
1
 62
7
 10
184.8
 20
-72.70000000000006
 30
0
 11
184.8
 21
48.99999999999994
 31
0
  0
LINE
  8
1
 62
7
 10
183.8
 20
-73.70000000000006
 30
0
 11
175.4381811916546
 21
-73.70000000000006
 31
0
  0
LINE
  8
1
 62
7
 10
149
 20
-85.00000000000006
 30
0
 11
181.8
 21
-85.00000000000006
 31
0
  0
LINE
  8
1
 62
7
 10
148.8
 20
-90.80000000000005
 30
0
 11
148.8
 21
-85.20000000000006
 31
0
  0
LINE
  8
1
 62
7
 10
184.8
 20
48.99999999999994
 30
0
 11
184.8
 21
49.99999999999994
 31
0
  0
LINE
  8
1
 62
7
 10
132.8
 20
48.99999999999994
 30
0
 11
184.8
 21
48.99999999999994
 31
0
  0
LINE
  8
1
 62
7
 10
121.8
 20
-91.00000000000006
 30
0
 11
148.6
 21
-91.00000000000006
 31
0
  0
LINE
  8
1
 62
7
 10
121.8
 20
-91.00000000000006
 30
0
 11
121.8
 21
37.99999999999994
 31
0
  0
LINE
  8
1
 62
7
 10
120.8
 20
37.99999999999994
 30
0
 11
120.8
 21
-91.00000000000006
 31
0
  0
LINE
  8
1
 62
7
 10
184.8
 20
49.99999999999994
 30
0
 11
132.8
 21
49.99999999999994
 31
0
  0
LINE
  8
1
 62
7
 10
120.8
 20
-91.00000000000006
 30
0
 11
121.8
 21
-91.00000000000006
 31
0
  0
LINE
  8
1
 62
7
 10
120.2
 20
4.999999999999943
 30
0
 11
118.3
 21
4.999999999999943
 31
0
  0
LINE
  8
1
 62
7
 10
118.3
 20
-5.000000000000057
 30
0
 11
120.2
 21
-5.000000000000057
 31
0
  0
LINE
  8
1
 62
7
 10
118.3
 20
-5.000000000000057
 30
0
 11
118.3
 21
4.999999999999943
 31
0
  0
LINE
  8
1
 62
7
 10
175.4381811916546
 20
-78.30000000000005
 30
0
 11
181.8
 21
-78.30000000000005
 31
0
  0
LINE
  8
1
 62
7
 10
-52.11465281831101
 20
-213.3348994967026
 30
0
 11
-52.5
 21
-202.3000000000001
 31
0
  0
LINE
  8
1
 62
7
 10
52.11465281831113
 20
-213.3348994967026
 30
0
 11
52.5
 21
-202.3000000000001
 31
0
  0
LINE
  8
1
 62
7
 10
51.1152619912919
 20
-214.3000000000001
 30
0
 11
-51.1152619912919
 21
-214.3000000000001
 31
0
  0
LINE
  8
1
 62
7
 10
-47.16124916105309
 20
-211.3000000000001
 30
0
 11
-38.2200242997672
 21
-211.3000000000001
 31
0
  0
LINE
  8
1
 62
7
 10
-48.44122486128589
 20
-202.3000000000001
 30
0
 11
-52.5
 21
-202.3000000000001
 31
0
  0
LINE
  8
1
 62
7
 10
-48.44122486128589
 20
-202.3000000000001
 30
0
 11
-48.16063998807221
 21
-210.3348994967026
 31
0
  0
LINE
  8
1
 62
7
 10
47.16124916105309
 20
-211.3000000000001
 30
0
 11
38.2200242997672
 21
-211.3000000000001
 31
0
  0
LINE
  8
1
 62
7
 10
48.44122486128589
 20
-202.3000000000001
 30
0
 11
-48.44122486128589
 21
-202.3000000000001
 31
0
  0
LINE
  8
1
 62
7
 10
48.44122486128589
 20
-202.3000000000001
 30
0
 11
48.16063998807232
 21
-210.3348994967026
 31
0
  0
LINE
  8
1
 62
7
 10
39.21941512678632
 20
-210.3348994967026
 30
0
 11
39.5
 21
-202.3000000000001
 31
0
  0
LINE
  8
1
 62
7
 10
-38.2200242997672
 20
-211.3000000000001
 30
0
 11
38.2200242997672
 21
-211.3000000000001
 31
0
  0
LINE
  8
1
 62
7
 10
52.5
 20
-202.3000000000001
 30
0
 11
48.44122486128589
 21
-202.3000000000001
 31
0
  0
LINE
  8
1
 62
7
 10
-39.5
 20
-202.3000000000001
 30
0
 11
-39.21941512678632
 21
-210.3348994967026
 31
0
  0
LINE
  8
1
 62
7
 10
138.7
 20
-211.3000000000001
 30
0
 11
119.7
 21
-211.3000000000001
 31
0
  0
LINE
  8
1
 62
7
 10
145.3745085168424
 20
-202.3000000000001
 30
0
 11
177.2
 21
-202.3000000000001
 31
0
  0
LINE
  8
1
 62
7
 10
141.0637639674836
 20
-211.3000000000001
 30
0
 11
144.4473246622756
 21
-202.9253934065842
 31
0
  0
LINE
  8
1
 62
7
 10
138.7
 20
-211.3000000000001
 30
0
 11
141.0637639674836
 21
-211.3000000000001
 31
0
  0
LINE
  8
1
 62
7
 10
169.2769559125926
 20
-265.7643661611946
 30
0
 11
173.3888401993496
 21
-214.3000000000001
 31
0
  0
LINE
  8
1
 62
7
 10
176.624839139885
 20
-203.7567843051742
 30
0
 11
176.6285332876048
 21
-203.7144297470145
 31
0
  0
LINE
  8
1
 62
7
 10
177.1921948645813
 20
-203.7829757295613
 30
0
 11
177.2
 21
-202.3000000000001
 31
0
  0
LINE
  8
1
 62
7
 10
169.1542623068418
 20
-266.2555332119384
 30
0
 11
169.1542623068418
 21
-215.2465291302782
 31
0
  0
LINE
  8
1
 62
7
 10
171.1594266261508
 20
-266.4194469110911
 30
0
 11
176.624839139885
 21
-203.7567843051742
 31
0
  0
LINE
  8
1
 62
7
 10
176.6285332876048
 20
-203.7144297470145
 30
0
 11
173.816439305208
 21
-213.6746065934159
 31
0
  0
LINE
  8
1
 62
7
 10
177.2
 20
-202.3000000000001
 30
0
 11
176.6285332876048
 21
-203.7144297470145
 31
0
  0
LINE
  8
1
 62
7
 10
176.7
 20
-297.3000000000001
 30
0
 11
177.1921948645813
 21
-203.7829757295613
 31
0
  0
LINE
  8
1
 62
7
 10
168.2077331765637
 20
-214.3000000000001
 30
0
 11
172.8892554506412
 21
-214.3000000000001
 31
0
  0
LINE
  8
1
 62
7
 10
157.9292998533184
 20
-265.1681619500723
 30
0
 11
161.5828063944129
 21
-214.8768528048452
 31
0
  0
LINE
  8
1
 62
7
 10
157.7831468616788
 20
-265.811406841237
 30
0
 11
157.7831468616788
 21
-215.5886577272649
 31
0
  0
LINE
  8
1
 62
7
 10
160.6581388084779
 20
-266.0104224212153
 30
0
 11
164.499350647331
 21
-215.9975761712774
 31
0
  0
LINE
  8
1
 62
7
 10
156.494489134414
 20
-214.3000000000001
 30
0
 11
168.2077331765637
 21
-214.3000000000001
 31
0
  0
LINE
  8
1
 62
7
 10
145.6938874358962
 20
-214.3000000000001
 30
0
 11
156.494489134414
 21
-214.3000000000001
 31
0
  0
LINE
  8
1
 62
7
 10
144.2768161157757
 20
-265.296296443906
 30
0
 11
142.2328927856223
 21
-215.2726438973658
 31
0
  0
LINE
  8
1
 62
7
 10
144.3540536550307
 20
-265.7754061560496
 30
0
 11
144.3540536550307
 21
-215.6398337808654
 31
0
  0
LINE
  8
1
 62
7
 10
141.3636585133335
 20
-265.8912617628581
 30
0
 11
139.2587836826721
 21
-215.8958430713703
 31
0
  0
LINE
  8
1
 62
7
 10
145.6938874358962
 20
-214.3000000000001
 30
0
 11
138.7
 21
-214.3000000000001
 31
0
  0
LINE
  8
1
 62
7
 10
119.7
 20
-297.3000000000001
 30
0
 11
176.7
 21
-297.3000000000001
 31
0
  0
LINE
  8
1
 62
7
 10
132.7312805773287
 20
-297.3000000000001
 30
0
 11
132.7312805773287
 21
-273.3000000000001
 31
0
  0
LINE
  8
1
 62
7
 10
-28
 20
-297.3000000000001
 30
0
 11
-29.31370736348612
 21
-259.6803431995797
 31
0
  0
LINE
  8
1
 62
7
 10
-39.04011687341466
 20
-214.8465280004781
 30
0
 11
-27.71346788265856
 21
-267.0566356623318
 31
0
  0
LINE
  8
1
 62
7
 10
-37.24050117982449
 20
-214.8465280004781
 30
0
 11
-27.10848608766668
 21
-266.9321848493765
 31
0
  0
LINE
  8
1
 62
7
 10
-27.03693647338321
 20
-266.9252903359503
 30
0
 11
-27.03693647338321
 21
-214.682813507035
 31
0
  0
LINE
  8
1
 62
7
 10
27.71346788265873
 20
-267.0566356623318
 30
0
 11
39.04011687341483
 21
-214.8465280004781
 31
0
  0
LINE
  8
1
 62
7
 10
27.10848608766673
 20
-266.9321848493765
 30
0
 11
37.24050117982449
 21
-214.8465280004781
 31
0
  0
LINE
  8
1
 62
7
 10
27.03693647338321
 20
-214.682813507035
 30
0
 11
27.03693647338321
 21
-266.9252903359503
 31
0
  0
LINE
  8
1
 62
7
 10
29.31370736348623
 20
-259.6803431995797
 30
0
 11
28
 21
-297.3000000000001
 31
0
  0
LINE
  8
1
 62
7
 10
-28
 20
-297.3000000000001
 30
0
 11
-23
 21
-297.3000000000001
 31
0
  0
LINE
  8
1
 62
7
 10
-23
 20
-297.3000000000001
 30
0
 11
-23
 21
-273.3000000000001
 31
0
  0
LINE
  8
1
 62
7
 10
-23
 20
-297.3000000000001
 30
0
 11
23
 21
-297.3000000000001
 31
0
  0
LINE
  8
1
 62
7
 10
-23
 20
-273.3000000000001
 30
0
 11
23
 21
-273.3000000000001
 31
0
  0
LINE
  8
1
 62
7
 10
23
 20
-273.3000000000001
 30
0
 11
23
 21
-297.3000000000001
 31
0
  0
LINE
  8
1
 62
7
 10
23
 20
-297.3000000000001
 30
0
 11
28
 21
-297.3000000000001
 31
0
  0
LINE
  8
1
 62
2
  6
DASHDOT
 10
-17.39999999999998
 20
-285.3000000000001
 30
0
 11
-4.599999999999966
 21
-285.3000000000001
 31
0
  0
LINE
  8
1
 62
2
  6
DASHDOT
 10
-11
 20
-291.7
 30
0
 11
-11
 21
-278.9000000000001
 31
0
  0
LINE
  8
1
 62
2
  6
DASHDOT
 10
4.600000000000023
 20
-285.3000000000001
 30
0
 11
17.40000000000003
 21
-285.3000000000001
 31
0
  0
LINE
  8
1
 62
2
  6
DASHDOT
 10
11
 20
-291.7
 30
0
 11
11
 21
-278.9000000000001
 31
0
  0
LINE
  8
1
 62
7
 10
118.861901532198
 20
-273.3000000000001
 30
0
 11
119.7
 21
-297.3000000000001
 31
0
  0
LINE
  8
1
 62
7
 10
119.7
 20
-211.3000000000001
 30
0
 11
120.4209302325582
 21
-273.3000000000001
 31
0
  0
LINE
  8
1
 62
7
 10
118.861901532198
 20
-273.3000000000001
 30
0
 11
132.7312805773287
 21
-273.3000000000001
 31
0
  0
LINE
  8
1
 62
7
 10
137
 20
-157.0000000000001
 30
0
 11
143.2180891420238
 21
-157.0000000000001
 31
0
  0
LINE
  8
1
 62
7
 10
137
 20
-153.8000000000001
 30
0
 11
143.1063426796502
 21
-153.8000000000001
 31
0
  0
LINE
  8
1
 62
7
 10
136
 20
-151.6354055064473
 30
0
 11
136
 21
-152.8000000000001
 31
0
  0
LINE
  8
1
 62
7
 10
134.671462530459
 20
-148.148813881878
 30
0
 11
140.4632410496721
 21
-144.2905079740643
 31
0
  0
LINE
  8
1
 62
7
 10
132.8
 20
-152.8000000000002
 30
0
 11
132.8
 21
-151.6442270553016
 31
0
  0
LINE
  8
1
 62
7
 10
136.4455866609305
 20
-150.8031640454145
 30
0
 11
142.2373627022307
 21
-146.9448632462507
 31
0
  0
LINE
  8
1
 62
7
 10
10.99999999999989
 20
-157.0000000000002
 30
0
 11
-11.00000000000011
 21
-157.0000000000001
 31
0
  0
LINE
  8
1
 62
7
 10
10.99999999999989
 20
-141.5000000000001
 30
0
 11
10.99999999999989
 21
-157.0000000000002
 31
0
  0
LINE
  8
1
 62
7
 10
-11.00000000000011
 20
-141.5000000000001
 30
0
 11
-11.00000000000011
 21
-157.0000000000001
 31
0
  0
LINE
  8
1
 62
7
 10
-1.13686837721616e-13
 20
-139.2735026918963
 30
0
 11
-5.000000000000114
 21
-136.3867513459481
 31
0
  0
LINE
  8
1
 62
7
 10
-5.000000000000114
 20
-134.3000000000001
 30
0
 11
-5.000000000000114
 21
-136.3867513459481
 31
0
  0
LINE
  8
1
 62
7
 10
-4.935585071701212
 20
-134.3000000000001
 30
0
 11
-5.000000000000114
 21
-134.3000000000001
 31
0
  0
LINE
  8
1
 62
7
 10
4.935585071701098
 20
-134.3000000000001
 30
0
 11
-4.935585071701212
 21
-134.3000000000001
 31
0
  0
LINE
  8
1
 62
7
 10
4.999999999999886
 20
-134.3000000000001
 30
0
 11
4.999999999999886
 21
-132.7
 31
0
  0
LINE
  8
1
 62
7
 10
4.999999999999886
 20
-134.3000000000001
 30
0
 11
4.935585071701098
 21
-134.3000000000001
 31
0
  0
LINE
  8
1
 62
7
 10
4.999999999999886
 20
-132.7
 30
0
 11
4.999999999999886
 21
-130.613248654052
 31
0
  0
LINE
  8
1
 62
7
 10
4.935585071701098
 20
-132.7
 30
0
 11
4.999999999999886
 21
-132.7
 31
0
  0
LINE
  8
1
 62
7
 10
-4.935585071701212
 20
-132.7
 30
0
 11
4.935585071701098
 21
-132.7
 31
0
  0
LINE
  8
1
 62
7
 10
-5.000000000000114
 20
-132.7
 30
0
 11
-5.000000000000114
 21
-134.3000000000001
 31
0
  0
LINE
  8
1
 62
7
 10
-5.000000000000114
 20
-132.7
 30
0
 11
-4.935585071701212
 21
-132.7
 31
0
  0
LINE
  8
1
 62
7
 10
130.3
 20
-134.3000000000001
 30
0
 11
130.3335547928121
 21
-134.3000000000001
 31
0
  0
LINE
  8
1
 62
7
 10
130.3335547928121
 20
-134.3000000000001
 30
0
 11
132.3
 21
-134.3000000000001
 31
0
  0
LINE
  8
1
 62
7
 10
132.3
 20
-134.3000000000001
 30
0
 11
132.3
 21
-132.7
 31
0
  0
LINE
  8
1
 62
7
 10
132.3
 20
-132.7
 30
0
 11
130.3335547928121
 21
-132.7
 31
0
  0
LINE
  8
1
 62
7
 10
130.3
 20
-129.1778991237117
 30
0
 11
130.3
 21
-132.7
 31
0
  0
LINE
  8
1
 62
7
 10
130.3335547928121
 20
-132.7
 30
0
 11
130.3
 21
-132.7
 31
0
  0
LINE
  8
1
 62
7
 10
130.3
 20
-134.3000000000001
 30
0
 11
130.3
 21
-137.8221008762886
 31
0
  0
LINE
  8
1
 62
7
 10
135.3
 20
-139.2735026918963
 30
0
 11
135.3
 21
-136.3867513459481
 31
0
  0
LINE
  8
1
 62
7
 10
135.3
 20
-136.3867513459481
 30
0
 11
130.7465819873852
 21
-136.3867513459481
 31
0
  0
LINE
  8
1
 62
7
 10
135.3
 20
-136.3867513459481
 30
0
 11
135.3
 21
-130.613248654052
 31
0
  0
LINE
  8
1
 62
7
 10
135.3
 20
-130.613248654052
 30
0
 11
130.7465819873852
 21
-130.613248654052
 31
0
  0
LINE
  8
1
 62
7
 10
130.7465819873852
 20
-127.7264973081039
 30
0
 11
130.6389495618558
 21
-127.9129221376627
 31
0
  0
LINE
  8
1
 62
7
 10
135.3
 20
-139.2735026918963
 30
0
 11
130.7465819873852
 21
-139.2735026918963
 31
0
  0
LINE
  8
1
 62
7
 10
130.7465819873852
 20
-139.2735026918963
 30
0
 11
130.6389495618558
 21
-139.0870778623375
 31
0
  0
LINE
  8
1
 62
7
 10
130.7465819873852
 20
-127.7264973081039
 30
0
 11
131.1333333333333
 21
-127.7264973081039
 31
0
  0
LINE
  8
1
 62
7
 10
135.3
 20
-127.7264973081039
 30
0
 11
131.1333333333333
 21
-127.7264973081039
 31
0
  0
LINE
  8
1
 62
7
 10
135.3
 20
-130.613248654052
 30
0
 11
135.3
 21
-127.7264973081039
 31
0
  0
LINE
  8
1
 62
7
 10
-1.13686837721616e-13
 20
-139.2735026918963
 30
0
 11
4.999999999999886
 21
-136.3867513459481
 31
0
  0
LINE
  8
1
 62
7
 10
4.999999999999886
 20
-130.613248654052
 30
0
 11
-1.13686837721616e-13
 21
-127.7264973081039
 31
0
  0
LINE
  8
1
 62
7
 10
4.999999999999886
 20
-136.3867513459481
 30
0
 11
4.999999999999886
 21
-134.3000000000001
 31
0
  0
LINE
  8
1
 62
7
 10
-5
 20
-130.613248654052
 30
0
 11
-5.000000000000114
 21
-132.7
 31
0
  0
LINE
  8
1
 62
7
 10
-1.13686837721616e-13
 20
-127.7264973081039
 30
0
 11
-5
 21
-130.613248654052
 31
0
  0
LINE
  8
1
 62
7
 10
130.05
 20
-126.5000000000001
 30
0
 11
130.05
 21
-125.5000000000001
 31
0
  0
LINE
  8
1
 62
7
 10
-18.75000000000011
 20
-126.5000000000001
 30
0
 11
-18.75000000000011
 21
-125.5000000000001
 31
0
  0
LINE
  8
1
 62
7
 10
18.74999999999989
 20
-126.5000000000001
 30
0
 11
-18.75000000000011
 21
-126.5000000000001
 31
0
  0
LINE
  8
1
 62
7
 10
-2.000000000000114
 20
-123.9000000000001
 30
0
 11
1.999999999999886
 21
-123.9000000000001
 31
0
  0
LINE
  8
1
 62
7
 10
139.3
 20
-126.5000000000001
 30
0
 11
130.05
 21
-126.5000000000001
 31
0
  0
LINE
  8
1
 62
7
 10
-3.500000000000114
 20
-91.00000000000006
 30
0
 11
-3.500000000000114
 21
-118.5
 31
0
  0
LINE
  8
1
 62
7
 10
-3.500000000000114
 20
-91.00000000000006
 30
0
 11
3.499999999999886
 21
-91.00000000000006
 31
0
  0
LINE
  8
1
 62
7
 10
3.499999999999886
 20
-118.5
 30
0
 11
3.499999999999886
 21
-91.00000000000006
 31
0
  0
LINE
  8
1
 62
7
 10
-3.500000000000114
 20
-118.5
 30
0
 11
3.499999999999886
 21
-118.5
 31
0
  0
LINE
  8
1
 62
7
 10
124.6
 20
-117.5
 30
0
 11
124.6
 21
-92.00000000000006
 31
0
  0
LINE
  8
1
 62
7
 10
123.2369479099659
 20
-115.7500000000001
 30
0
 11
122.5999999999999
 21
-114.0000000000001
 31
0
  0
LINE
  8
1
 62
7
 10
122.5999999999999
 20
-114.0000000000001
 30
0
 11
123.2369479099659
 21
-112.2500000000001
 31
0
  0
LINE
  8
1
 62
7
 10
124.6
 20
-116.75
 30
0
 11
124.6
 21
-111.2500000000001
 31
0
  0
LINE
  8
1
 62
7
 10
124.6
 20
-111.2500000000001
 30
0
 11
123.8608798583755
 21
-111.2500000000001
 31
0
  0
LINE
  8
1
 62
7
 10
124.6
 20
-116.75
 30
0
 11
123.8608798583755
 21
-116.75
 31
0
  0
LINE
  8
1
 62
7
 10
123.2369479099659
 20
-97.25000000000006
 30
0
 11
122.5999999999999
 21
-95.50000000000006
 31
0
  0
LINE
  8
1
 62
7
 10
122.5999999999999
 20
-95.50000000000006
 30
0
 11
123.2369479099659
 21
-93.75000000000006
 31
0
  0
LINE
  8
1
 62
7
 10
124.6
 20
-98.25000000000006
 30
0
 11
124.6
 21
-92.75000000000006
 31
0
  0
LINE
  8
1
 62
7
 10
124.6
 20
-92.75000000000006
 30
0
 11
123.8608798583755
 21
-92.75000000000007
 31
0
  0
LINE
  8
1
 62
7
 10
124.6
 20
-98.25000000000006
 30
0
 11
123.8608798583755
 21
-98.25000000000006
 31
0
  0
LINE
  8
1
 62
7
 10
-1.237436867076497
 20
-115.2374368670765
 30
0
 11
1.23743686707644
 21
-112.7625631329236
 31
0
  0
LINE
  8
1
 62
7
 10
-1.237436867076497
 20
-112.7625631329236
 30
0
 11
1.23743686707644
 21
-115.2374368670765
 31
0
  0
LINE
  8
1
 62
7
 10
-1.237436867076497
 20
-96.73743686707653
 30
0
 11
1.23743686707644
 21
-94.26256313292359
 31
0
  0
LINE
  8
1
 62
7
 10
-1.237436867076497
 20
-94.26256313292359
 30
0
 11
1.23743686707644
 21
-96.73743686707653
 31
0
  0
LINE
  8
1
 62
7
 10
14.62019151721341
 20
-141.5000000000001
 30
0
 11
14.62019151721341
 21
-126.5000000000001
 31
0
  0
LINE
  8
1
 62
7
 10
-14.62019151721347
 20
-141.5000000000001
 30
0
 11
-21.00000000000011
 21
-141.5000000000001
 31
0
  0
LINE
  8
1
 62
7
 10
-14.62019151721347
 20
-126.5000000000001
 30
0
 11
-19.00000000000011
 21
-126.5000000000001
 31
0
  0
LINE
  8
1
 62
7
 10
-14.62019151721347
 20
-126.5000000000001
 30
0
 11
-14.62019151721347
 21
-141.5000000000001
 31
0
  0
LINE
  8
1
 62
7
 10
6.276540312079931
 20
-141.5000000000001
 30
0
 11
-6.276540312079874
 21
-141.5000000000001
 31
0
  0
LINE
  8
1
 62
7
 10
6.276540312079931
 20
-126.5000000000001
 30
0
 11
-6.276540312079874
 21
-126.5000000000001
 31
0
  0
LINE
  8
1
 62
7
 10
6.276540312079931
 20
-126.5000000000001
 30
0
 11
6.276540312079931
 21
-141.5000000000001
 31
0
  0
LINE
  8
1
 62
7
 10
-6.276540312079874
 20
-141.5000000000001
 30
0
 11
-14.62019151721347
 21
-141.5000000000001
 31
0
  0
LINE
  8
1
 62
7
 10
-6.276540312079874
 20
-126.5000000000001
 30
0
 11
-14.62019151721347
 21
-126.5000000000001
 31
0
  0
LINE
  8
1
 62
7
 10
-6.276540312079874
 20
-126.5000000000001
 30
0
 11
-6.276540312079874
 21
-141.5000000000001
 31
0
  0
LINE
  8
1
 62
7
 10
20.99999999999989
 20
-141.5000000000001
 30
0
 11
6.276540312079931
 21
-141.5000000000001
 31
0
  0
LINE
  8
1
 62
7
 10
-21.00000000000011
 20
-141.5000000000001
 30
0
 11
-21.00000000000011
 21
-125.5000000000001
 31
0
  0
LINE
  8
1
 62
7
 10
18.99999999999989
 20
-126.5000000000001
 30
0
 11
6.276540312079931
 21
-126.5000000000001
 31
0
  0
LINE
  8
1
 62
7
 10
1.999999999999886
 20
-125.0000000000001
 30
0
 11
3.800000000000011
 21
-125.0000000000001
 31
0
  0
LINE
  8
1
 62
7
 10
-19.00000000000011
 20
-126.5000000000001
 30
0
 11
-19.00000000000011
 21
-125.5000000000001
 31
0
  0
LINE
  8
1
 62
7
 10
-2.000000000000114
 20
-125.0000000000001
 30
0
 11
-2.000000000000114
 21
-123.9000000000001
 31
0
  0
LINE
  8
1
 62
7
 10
-2.000000000000114
 20
-123.9000000000001
 30
0
 11
-2.000000000000114
 21
-121.5
 31
0
  0
LINE
  8
1
 62
7
 10
1.999999999999886
 20
-123.9000000000001
 30
0
 11
1.999999999999886
 21
-121.5
 31
0
  0
LINE
  8
1
 62
7
 10
1.999999999999886
 20
-125.0000000000001
 30
0
 11
1.999999999999886
 21
-123.9000000000001
 31
0
  0
LINE
  8
1
 62
7
 10
135.3
 20
-141.5000000000001
 30
0
 11
135.3
 21
-126.5000000000001
 31
0
  0
LINE
  8
1
 62
7
 10
135.3
 20
-126.5000000000001
 30
0
 11
139.3
 21
-126.5000000000001
 31
0
  0
LINE
  8
1
 62
7
 10
139.3
 20
-125.5000000000001
 30
0
 11
139.3
 21
-126.5000000000001
 31
0
  0
LINE
  8
1
 62
7
 10
142.1530056725255
 20
-126.5000000000001
 30
0
 11
139.3
 21
-126.5000000000001
 31
0
  0
LINE
  8
1
 62
7
 10
142.6768172149018
 20
-141.5000000000001
 30
0
 11
135.3
 21
-141.5000000000001
 31
0
  0
LINE
  8
1
 62
7
 10
-3.800000000000011
 20
-125.0000000000001
 30
0
 11
-2.000000000000114
 21
-125.0000000000001
 31
0
  0
LINE
  8
1
 62
7
 10
18.74999999999989
 20
-125.5000000000001
 30
0
 11
18.74999999999989
 21
-126.5000000000001
 31
0
  0
LINE
  8
1
 62
7
 10
18.99999999999989
 20
-125.5000000000001
 30
0
 11
18.99999999999989
 21
-126.5000000000001
 31
0
  0
LINE
  8
1
 62
7
 10
20.99999999999989
 20
-125.5000000000001
 30
0
 11
20.99999999999989
 21
-141.5000000000001
 31
0
  0
LINE
  8
1
 62
7
 10
171.3504310985676
 20
-74.55043109856766
 30
0
 11
174.2495689014324
 21
-77.4495689014325
 31
0
  0
LINE
  8
1
 62
7
 10
171.3504310985676
 20
-77.44956890143247
 30
0
 11
174.2495689014324
 21
-74.55043109856766
 31
0
  0
LINE
  8
1
 62
7
 10
53.5
 20
-72.50000000000009
 30
0
 11
54.47319031243353
 21
-72.50000000000009
 31
0
  0
LINE
  8
1
 62
7
 10
53.5
 20
-79.50000000000009
 30
0
 11
54.48480237698664
 21
-79.50000000000009
 31
0
  0
LINE
  8
1
 62
7
 10
53.5
 20
-72.50000000000009
 30
0
 11
53.5
 21
-79.50000000000009
 31
0
  0
LINE
  8
1
 62
7
 10
56.10000000000002
 20
-76.01947395043001
 30
0
 11
55.36094895805439
 21
-78.0500000000001
 31
0
  0
LINE
  8
1
 62
7
 10
55.34677308145422
 20
-73.95000000000007
 30
0
 11
56.10000000000002
 21
-76.01947395043001
 31
0
  0
LINE
  8
1
 62
7
 10
-53.5
 20
-79.50000000000006
 30
0
 11
-54.47319031243347
 21
-79.50000000000006
 31
0
  0
LINE
  8
1
 62
7
 10
-53.5
 20
-72.50000000000006
 30
0
 11
-54.48480237698658
 21
-72.50000000000006
 31
0
  0
LINE
  8
1
 62
7
 10
-53.5
 20
-79.50000000000006
 30
0
 11
-53.5
 21
-72.50000000000006
 31
0
  0
LINE
  8
1
 62
7
 10
-56.09999999999997
 20
-75.98052604957013
 30
0
 11
-55.36094895805439
 21
-73.95000000000005
 31
0
  0
LINE
  8
1
 62
7
 10
-55.34677308145422
 20
-78.05000000000007
 30
0
 11
-56.09999999999997
 21
-75.98052604957013
 31
0
  0
LINE
  8
1
 62
2
  6
DASHDOT
 10
0
 20
51.99999999999994
 30
0
 11
0
 21
-299.3000000000001
 31
0
  0
LINE
  8
1
 62
2
  6
DASHDOT
 10
-62
 20
-83.00000000000006
 30
0
 11
-62
 21
-96.50000000000006
 31
0
  0
LINE
  8
1
 62
7
 10
-62
 20
-94.50000000000006
 30
0
 11
-70.5
 21
-94.50000000000006
 31
0
  0
LINE
  8
1
 62
2
  6
DASHDOT
 10
62
 20
-83.00000000000006
 30
0
 11
62
 21
-96.50000000000006
 31
0
  0
ARC
  8
1
 62
7
 10
0
 20
-2.842170943040401e-14
 30
0
 40
5.499999999999991
 50
353.2976921633172
 51
186.7023078366831
  0
ARC
  8
1
 62
7
 10
0
 20
-2.842170943040401e-14
 30
0
 40
24.00000000000003
 50
255.0000000000001
 51
263.454292931006
  0
ARC
  8
1
 62
7
 10
119.85
 20
30.84999999999994
 30
0
 40
0.3499999999999943
 50
180
 51
0
  0
ARC
  8
1
 62
7
 10
119.85
 20
34.14999999999995
 30
0
 40
0.3500000000000085
 50
0
 51
180
  0
ARC
  8
1
 62
7
 10
119.85
 20
-74.15000000000006
 30
0
 40
0.3499999999999943
 50
180
 51
0
  0
ARC
  8
1
 62
7
 10
119.85
 20
-70.85000000000005
 30
0
 40
0.3499999999999943
 50
90
 51
180
  0
ARC
  8
1
 62
7
 10
119.85
 20
-70.85000000000005
 30
0
 40
0.3500000000000085
 50
0
 51
90
  0
ARC
  8
1
 62
7
 10
-32.5
 20
32.49999999999994
 30
0
 40
4
 50
90
 51
180
  0
ARC
  8
1
 62
7
 10
-32.5
 20
32.49999999999994
 30
0
 40
3
 50
90
 51
180
  0
ARC
  8
1
 62
7
 10
32.5
 20
32.49999999999994
 30
0
 40
4
 50
0
 51
90
  0
ARC
  8
1
 62
7
 10
32.5
 20
32.49999999999994
 30
0
 40
3
 50
0
 51
90
  0
ARC
  8
1
 62
7
 10
32.5
 20
-72.50000000000006
 30
0
 40
4
 50
270
 51
0
  0
ARC
  8
1
 62
7
 10
32.5
 20
-72.50000000000006
 30
0
 40
3
 50
270
 51
0
  0
ARC
  8
1
 62
7
 10
-32.5
 20
-72.50000000000006
 30
0
 40
4
 50
180
 51
270
  0
ARC
  8
1
 62
7
 10
-32.5
 20
-72.50000000000006
 30
0
 40
3
 50
180
 51
270
  0
ARC
  8
1
 62
7
 10
0
 20
-2.842170943040401e-14
 30
0
 40
30.00000000000002
 50
75.00000000000004
 51
105
  0
ARC
  8
1
 62
7
 10
0
 20
-2.842170943040401e-14
 30
0
 40
23.99999999999994
 50
74.99999999999989
 51
105
  0
ARC
  8
1
 62
7
 10
0
 20
-2.842170943040401e-14
 30
0
 40
30.00000000000002
 50
255
 51
285
  0
ARC
  8
1
 62
7
 10
0
 20
-2.842170943040401e-14
 30
0
 40
24
 50
276.545707068994
 51
285.0000000000001
  0
ARC
  8
1
 62
7
 10
0
 20
-2.842170943040401e-14
 30
0
 40
24.00000000000004
 50
356.416678301528
 51
3.5833216984719
  0
ARC
  8
1
 62
7
 10
0
 20
-2.842170943040401e-14
 30
0
 40
30.00000000000005
 50
357.1340160174011
 51
2.865983982598804
  0
ARC
  8
1
 62
7
 10
0
 20
-2.842170943040401e-14
 30
0
 40
24.00000000000002
 50
35.16667830152804
 51
42.33332169847195
  0
ARC
  8
1
 62
7
 10
0
 20
-2.842170943040401e-14
 30
0
 40
30.00000000000005
 50
35.88401601740107
 51
41.61598398259876
  0
ARC
  8
1
 62
7
 10
0
 20
-2.842170943040401e-14
 30
0
 40
24
 50
317.666678301528
 51
324.8333216984719
  0
ARC
  8
1
 62
7
 10
0
 20
-2.842170943040401e-14
 30
0
 40
30.00000000000004
 50
318.3840160174012
 51
324.1159839825988
  0
ARC
  8
1
 62
7
 10
0
 20
-2.842170943040401e-14
 30
0
 40
24.00000000000003
 50
215.1666783015281
 51
222.333321698472
  0
ARC
  8
1
 62
7
 10
0
 20
-2.842170943040401e-14
 30
0
 40
30.00000000000008
 50
215.8840160174012
 51
221.6159839825989
  0
ARC
  8
1
 62
7
 10
0
 20
-2.842170943040401e-14
 30
0
 40
23.99999999999991
 50
176.4166783015281
 51
183.583321698472
  0
ARC
  8
1
 62
7
 10
0
 20
-2.842170943040401e-14
 30
0
 40
30.00000000000004
 50
177.1340160174012
 51
182.8659839825989
  0
ARC
  8
1
 62
7
 10
0
 20
-2.842170943040401e-14
 30
0
 40
30
 50
138.3840160174013
 51
144.1159839825989
  0
ARC
  8
1
 62
7
 10
0
 20
-2.842170943040401e-14
 30
0
 40
23.99999999999997
 50
137.6666783015281
 51
144.833321698472
  0
ARC
  8
1
 62
2
 10
10.81176470588241
 20
-63.75294117647064
 30
0
 40
0.6176470588234793
 50
0
 51
90
  0
ARC
  8
1
 62
2
 10
10.37058823529412
 20
-64.00000000000006
 30
0
 40
0.4411764705882391
 50
90
 51
180
  0
ARC
  8
1
 62
2
 10
10.37058823529412
 20
-63.75294117647064
 30
0
 40
0.1941176470588193
 50
0
 51
90
  0
ARC
  8
1
 62
2
 10
10.6217074792682
 20
-64.01764705882358
 30
0
 40
0.8823529411764639
 50
90
 51
141.6838655263329
  0
ARC
  8
1
 62
2
 10
7.494117647058829
 20
-64.98823529411771
 30
0
 40
0.3705882352941217
 50
180
 51
0
  0
ARC
  8
1
 62
2
 10
7.494117647058829
 20
-63.75294117647064
 30
0
 40
0.3705882352941785
 50
0
 51
180
  0
ARC
  8
1
 62
2
 10
7.494117647058829
 20
-64.40588235294123
 30
0
 40
1.200000000000045
 50
180
 51
0
  0
ARC
  8
1
 62
2
 10
7.494117647058829
 20
-64.33529411764712
 30
0
 40
1.199999999999875
 50
0
 51
180
  0
ARC
  8
1
 62
2
 10
-16.02941176470591
 20
-64.90000000000006
 30
0
 40
0.335294117647102
 50
180
 51
0
  0
ARC
  8
1
 62
2
 10
-15.76470588235287
 20
-64.86470588235299
 30
0
 40
0.5999999999999943
 50
90
 51
180
  0
ARC
  8
1
 62
2
 10
-15.7294117647059
 20
-64.07724511879388
 30
0
 40
0.882352941176519
 50
0
 51
64.62306647484606
  0
ARC
  8
1
 62
2
 10
-15.99411764705877
 20
-64.63529411764712
 30
0
 40
1.5
 50
64.62306647484907
 51
116.0153943971725
  0
ARC
  8
1
 62
2
 10
-16.26502544273387
 20
-64.08022938672303
 30
0
 40
0.8823529411764781
 50
116.0153943971731
 51
166.6483670553775
  0
ARC
  8
1
 62
2
 10
-16.13251350488218
 20
-64.08823529411771
 30
0
 40
0.7058823529411882
 50
90
 51
162.5423968762769
  0
ARC
  8
1
 62
2
 10
-16.04705882352937
 20
-63.73529411764711
 30
0
 40
0.3529411764706083
 50
0
 51
90
  0
ARC
  8
1
 62
2
 10
-16.39999999999998
 20
-64.84705882352947
 30
0
 40
0.7588235294117567
 50
90
 51
296.7317926572376
  0
ARC
  8
1
 62
2
 10
-11.15882352941179
 20
-63.75294117647064
 30
0
 40
0.617647058823481
 50
0
 51
90
  0
ARC
  8
1
 62
2
 10
-11.34888075602589
 20
-64.01764705882358
 30
0
 40
0.8823529411764639
 50
90
 51
146.3446850020565
  0
ARC
  8
1
 62
2
 10
-12.65882352941179
 20
-63.75294117647064
 30
0
 40
0.6176470588235655
 50
21.29293299540528
 51
90
  0
ARC
  8
1
 62
2
 10
-12.84888075602589
 20
-64.01764705882358
 30
0
 40
0.8823529411764639
 50
90
 51
141.6838655263374
  0
ARC
  8
1
 62
2
 10
-11.59999999999997
 20
-63.75294117647064
 30
0
 40
0.1941176470588797
 50
0
 51
90
  0
ARC
  8
1
 62
2
 10
-11.59999999999997
 20
-64.00000000000006
 30
0
 40
0.4411764705882391
 50
90
 51
180
  0
ARC
  8
1
 62
2
 10
-13.09999999999997
 20
-63.75294117647064
 30
0
 40
0.1941176470588797
 50
0
 51
90
  0
ARC
  8
1
 62
2
 10
-13.09999999999997
 20
-64.00000000000006
 30
0
 40
0.4411764705882391
 50
90
 51
180
  0
ARC
  8
1
 62
2
 10
-9.358823529411779
 20
-64.84705882352947
 30
0
 40
0.7588235294117567
 50
90
 51
296.7317926572453
  0
ARC
  8
1
 62
2
 10
-9.005882352941171
 20
-63.73529411764711
 30
0
 40
0.3529411764706083
 50
0
 51
90
  0
ARC
  8
1
 62
2
 10
-9.091337034293872
 20
-64.08823529411771
 30
0
 40
0.7058823529411882
 50
90
 51
162.5423968762769
  0
ARC
  8
1
 62
2
 10
-9.223848972145674
 20
-64.08022938672303
 30
0
 40
0.8823529411764749
 50
116.0153943971727
 51
166.6483670553774
  0
ARC
  8
1
 62
2
 10
-8.952941176470574
 20
-64.63529411764712
 30
0
 40
1.5
 50
64.62306647484907
 51
116.0153943971723
  0
ARC
  8
1
 62
2
 10
-8.68823529411759
 20
-64.07724511879388
 30
0
 40
0.8823529411764079
 50
0
 51
64.62306647485272
  0
ARC
  8
1
 62
2
 10
-8.723529411764673
 20
-64.86470588235299
 30
0
 40
0.5999999999999943
 50
90
 51
180
  0
ARC
  8
1
 62
2
 10
-8.988235294117715
 20
-64.90000000000006
 30
0
 40
0.3352941176469812
 50
180
 51
0
  0
ARC
  8
1
 62
2
 10
-6.711764705882274
 20
-64.90000000000006
 30
0
 40
0.7058823529412166
 50
180
 51
289.3437772227645
  0
ARC
  8
1
 62
2
 10
-6.376470588235293
 20
-64.95294117647065
 30
0
 40
0.264705882352871
 50
180
 51
283.9236381802822
  0
ARC
  8
1
 62
2
 10
-5.052941176470597
 20
-64.84705882352947
 30
0
 40
0.7588235294117567
 50
90
 51
296.7317926572453
  0
ARC
  8
1
 62
2
 10
-4.699999999999989
 20
-63.73529411764711
 30
0
 40
0.3529411764706083
 50
0
 51
90
  0
ARC
  8
1
 62
2
 10
-4.785454681352689
 20
-64.08823529411771
 30
0
 40
0.7058823529411882
 50
90
 51
162.5423968762769
  0
ARC
  8
1
 62
2
 10
-4.917966619204492
 20
-64.08022938672303
 30
0
 40
0.8823529411764749
 50
116.0153943971727
 51
166.6483670553766
  0
ARC
  8
1
 62
2
 10
-4.647058823529392
 20
-64.63529411764712
 30
0
 40
1.5
 50
64.62306647484907
 51
116.0153943971723
  0
ARC
  8
1
 62
2
 10
-4.382352941176464
 20
-64.07724511879388
 30
0
 40
0.8823529411764639
 50
0
 51
64.62306647484938
  0
ARC
  8
1
 62
2
 10
-4.417647058823491
 20
-64.86470588235299
 30
0
 40
0.5999999999999943
 50
90
 51
180
  0
ARC
  8
1
 62
2
 10
-4.682352941176475
 20
-64.90000000000006
 30
0
 40
0.3352941176470381
 50
180
 51
0
  0
ARC
  8
1
 62
2
 10
0.1352941176469926
 20
-63.71764705882359
 30
0
 40
0.335294117647095
 50
0
 51
180
  0
ARC
  8
1
 62
2
 10
0.1000000000000227
 20
-64.40588235294123
 30
0
 40
1.199999999999989
 50
180
 51
327.035612676245
  0
ARC
  8
1
 62
2
 10
0.1000000000000227
 20
-64.33529411764712
 30
0
 40
1.199999999999988
 50
0
 51
180
  0
ARC
  8
1
 62
2
 10
0.1176470588235361
 20
-65.0411764705883
 30
0
 40
0.3176470588235247
 50
180
 51
270
  0
ARC
  8
1
 62
2
 10
0.22352941176473
 20
-64.47647058823534
 30
0
 40
0.8823529411764781
 50
270
 51
323.1301023541552
  0
ARC
  8
1
 62
2
 10
0.1000000000000227
 20
-64.40588235294123
 30
0
 40
1.200000000000036
 50
353.2436729694124
 51
0
  0
ARC
  8
1
 62
2
 10
21.50588235294123
 20
-64.40588235294123
 30
0
 40
1.199999999999916
 50
353.2436729694118
 51
0
  0
ARC
  8
1
 62
2
 10
21.62941176470594
 20
-64.47647058823534
 30
0
 40
0.8823529411764781
 50
270
 51
323.130102354155
  0
ARC
  8
1
 62
2
 10
21.52352941176468
 20
-65.0411764705883
 30
0
 40
0.3176470588234608
 50
180
 51
270
  0
ARC
  8
1
 62
2
 10
21.50588235294123
 20
-64.33529411764712
 30
0
 40
1.199999999999989
 50
0
 51
180
  0
ARC
  8
1
 62
2
 10
21.50588235294123
 20
-64.40588235294123
 30
0
 40
1.199999999999992
 50
180
 51
327.0356126762447
  0
ARC
  8
1
 62
2
 10
21.5411764705882
 20
-63.71764705882359
 30
0
 40
0.3352941176470878
 50
0
 51
180
  0
ARC
  8
1
 62
2
 10
15.03537121768881
 20
-65.8534288105167
 30
0
 40
0.1762754267008116
 50
273.300990969144
 51
337.0112770412741
  0
ARC
  8
1
 62
2
 10
15.04552138484911
 20
-65.95882352941182
 30
0
 40
0.07058823529415349
 50
175.0114580244515
 51
270
  0
ARC
  8
1
 62
2
 10
14.88552449133391
 20
-65.69452579959118
 30
0
 40
0.6701800827618419
 50
223.1433208835575
 51
337.0362269401384
  0
ARC
  8
1
 62
2
 10
14.64117647058822
 20
-65.92352941176476
 30
0
 40
0.3352941176471023
 50
355.0114580244441
 51
223.1433208835651
  0
ARC
  8
1
 62
2
 10
13
 20
-64.40588235294123
 30
0
 40
1.200000000000037
 50
353.2436729694124
 51
0
  0
ARC
  8
1
 62
2
 10
13.12352941176471
 20
-64.47647058823534
 30
0
 40
0.8823529411764781
 50
270
 51
323.1301023541572
  0
ARC
  8
1
 62
2
 10
13.01764705882351
 20
-65.0411764705883
 30
0
 40
0.3176470588235194
 50
180
 51
270
  0
ARC
  8
1
 62
2
 10
13
 20
-64.33529411764712
 30
0
 40
1.19999999999999
 50
0
 51
180
  0
ARC
  8
1
 62
2
 10
13
 20
-64.40588235294123
 30
0
 40
1.19999999999999
 50
180
 51
327.0356126762448
  0
ARC
  8
1
 62
2
 10
13.03529411764708
 20
-63.71764705882359
 30
0
 40
0.3352941176470399
 50
0
 51
180
  0
ARC
  8
1
 62
7
 10
125.7640625
 20
-5.684341886080801e-14
 30
0
 40
11.16406249999998
 50
158.1777432314333
 51
180
  0
ARC
  8
1
 62
7
 10
125.7640625
 20
-5.684341886080801e-14
 30
0
 40
11.1640625
 50
180
 51
201.8222567685668
  0
ARC
  8
1
 62
7
 10
-51.1152619912919
 20
-213.3000000000001
 30
0
 40
1.00000000000001
 50
182.0000000000004
 51
270
  0
ARC
  8
1
 62
7
 10
51.1152619912919
 20
-213.3000000000001
 30
0
 40
1
 50
270
 51
357.9999999999999
  0
ARC
  8
1
 62
7
 10
138.7
 20
-212.8000000000001
 30
0
 40
1.5
 50
90
 51
245.896179935688
  0
ARC
  8
1
 62
7
 10
137.2775966901572
 20
-215.9792537266767
 30
0
 40
1.982942065903299
 50
2.410806176086911
 51
65.89617993569031
  0
ARC
  8
1
 62
7
 10
138.7
 20
-212.8000000000001
 30
0
 40
1.500000000000004
 50
245.896179935688
 51
270
  0
ARC
  8
1
 62
7
 10
176.9079815063455
 20
-203.7814798697812
 30
0
 40
0.2842172946816477
 50
359.6984460501538
 51
175.0152993253096
  0
ARC
  8
1
 62
7
 10
170.1987290949034
 20
-266.2555332119384
 30
0
 40
1.044466788061612
 50
180
 51
270
  0
ARC
  8
1
 62
7
 10
170.1987290949034
 20
-266.3356552544515
 30
0
 40
0.9643447455484875
 50
270
 51
355.0152993253411
  0
ARC
  8
1
 62
7
 10
168.2077331765637
 20
-215.2465291302782
 30
0
 40
0.946529130278094
 50
0
 51
90
  0
ARC
  8
1
 62
7
 10
159.2717400204418
 20
-265.811406841237
 30
0
 40
1.488593158762995
 50
180
 51
270
  0
ARC
  8
1
 62
7
 10
159.2717400204418
 20
-265.9099665541058
 30
0
 40
1.390033445894346
 50
270
 51
355.8556974682018
  0
ARC
  8
1
 62
7
 10
156.494489134414
 20
-215.5886577272649
 30
0
 40
1.288657727264791
 50
0
 51
90
  0
ARC
  8
1
 62
7
 10
166.324380475064
 20
-216.1298144243888
 30
0
 40
1.829814424388701
 50
90
 51
175.8556974682019
  0
ARC
  8
1
 62
7
 10
142.8294598110802
 20
-265.7754061560496
 30
0
 40
1.524593843950697
 50
270
 51
0
  0
ARC
  8
1
 62
7
 10
142.8294598110802
 20
-265.8330429897159
 30
0
 40
1.466957010284253
 50
182.2744812749272
 51
270
  0
ARC
  8
1
 62
7
 10
145.6938874358962
 20
-215.6398337808654
 30
0
 40
1.339833780865291
 50
90
 51
180
  0
ARC
  8
1
 62
7
 10
-27.41164613743297
 20
-266.9252903359503
 30
0
 40
0.3747096640498171
 50
270
 51
0
  0
ARC
  8
1
 62
7
 10
-27.41164613743297
 20
-266.991157364756
 30
0
 40
0.3088426352439769
 50
192.2402777366076
 51
270
  0
ARC
  8
1
 62
7
 10
-26.65412296634827
 20
-214.682813507035
 30
0
 40
0.3828135070349106
 50
90
 51
180
  0
ARC
  8
1
 62
7
 10
-39.71792380478149
 20
-214.9935738798856
 30
0
 40
0.6935738798856581
 50
12.24027773661561
 51
89.99999622944667
  0
ARC
  8
1
 62
7
 10
27.41164613743302
 20
-266.9252903359503
 30
0
 40
0.37470966404981
 50
180
 51
270
  0
ARC
  8
1
 62
7
 10
27.41164613743302
 20
-266.991157364756
 30
0
 40
0.3088426352441047
 50
270
 51
347.7597222633972
  0
ARC
  8
1
 62
7
 10
26.65412296634833
 20
-214.682813507035
 30
0
 40
0.3828135070348822
 50
0
 51
90
  0
ARC
  8
1
 62
7
 10
39.71792380478149
 20
-214.9935738798856
 30
0
 40
0.6935738798854929
 50
90.00000377055333
 51
167.7597222633814
  0
ARC
  8
1
 62
7
 10
-1.13686837721616e-13
 20
-133.5000000000001
 30
0
 40
4.99999999999987
 50
189.2068962213459
 51
350.7931037786543
  0
ARC
  8
1
 62
7
 10
-1.13686837721616e-13
 20
-133.5000000000001
 30
0
 40
5.000000000000005
 50
9.206896221347341
 51
170.7931037786525
  0
ARC
  8
1
 62
7
 10
139.8534180126144
 20
-133.5000000000001
 30
0
 40
9.553418012614381
 50
184.8035544520065
 51
197.5879537739937
  0
ARC
  8
1
 62
7
 10
132.8299539720978
 20
-129.1778991237117
 30
0
 40
2.529953972097806
 50
149.9999999999973
 51
180
  0
ARC
  8
1
 62
7
 10
132.8299539720978
 20
-129.1778991237117
 30
0
 40
2.529953972097786
 50
180
 51
214.5650930945278
  0
ARC
  8
1
 62
7
 10
132.8299539720979
 20
-137.8221008762886
 30
0
 40
2.529953972097989
 50
145.4349069054699
 51
209.9999999999995
  0
ARC
  8
1
 62
7
 10
139.8534180126144
 20
-133.5000000000001
 30
0
 40
9.553418012614417
 50
162.4120462260056
 51
175.1964455479926
  0
ARC
  8
1
 62
7
 10
129.6
 20
-114.0000000000001
 30
0
 40
7.000000000000023
 50
163.0422366999956
 51
180
  0
ARC
  8
1
 62
7
 10
129.6
 20
-114.0000000000001
 30
0
 40
7.000000000000099
 50
180
 51
196.9577633000036
  0
ARC
  8
1
 62
7
 10
129.6
 20
-95.50000000000006
 30
0
 40
7.000000000000012
 50
163.042236699996
 51
180
  0
ARC
  8
1
 62
7
 10
129.6
 20
-95.50000000000006
 30
0
 40
7.000000000000099
 50
180
 51
196.957763300004
  0
ARC
  8
1
 62
7
 10
47.10000000000002
 20
-76.01947395043001
 30
0
 40
9
 50
0
 51
16.75281834738602
  0
ARC
  8
1
 62
7
 10
47.10000000000002
 20
-76.01947395043001
 30
0
 40
8.999999999999972
 50
343.5496001733872
 51
0
  0
ARC
  8
1
 62
7
 10
-47.09999999999997
 20
-75.98052604957013
 30
0
 40
9
 50
180
 51
196.7528183473859
  0
ARC
  8
1
 62
7
 10
-47.09999999999997
 20
-75.98052604957013
 30
0
 40
9.000000000000018
 50
163.5496001733873
 51
180
  0
CIRCLE
  8
1
 62
7
 10
-32.5
 20
32.49999999999994
 30
0
 40
2
  0
CIRCLE
  8
1
 62
7
 10
32.5
 20
32.49999999999994
 30
0
 40
2
  0
CIRCLE
  8
1
 62
7
 10
32.5
 20
-72.50000000000006
 30
0
 40
2
  0
CIRCLE
  8
1
 62
7
 10
-32.5
 20
-72.50000000000006
 30
0
 40
2
  0
CIRCLE
  8
1
 62
7
 10
0
 20
-2.842170943040401e-14
 30
0
 40
4.150000000000034
  0
CIRCLE
  8
1
 62
7
 10
-11
 20
-285.3000000000001
 30
0
 40
3.19999999999999
  0
CIRCLE
  8
1
 62
2
 10
-11
 20
-285.3000000000001
 30
0
 40
4
  0
CIRCLE
  8
1
 62
7
 10
11
 20
-285.3000000000001
 30
0
 40
3.19999999999999
  0
CIRCLE
  8
1
 62
2
 10
11
 20
-285.3000000000001
 30
0
 40
4
  0
CIRCLE
  8
1
 62
7
 10
-1.13686837721616e-13
 20
-114.0000000000001
 30
0
 40
2.75
  0
CIRCLE
  8
1
 62
7
 10
-1.13686837721616e-13
 20
-95.50000000000006
 30
0
 40
2.75
  0
CIRCLE
  8
1
 62
7
 10
172.8
 20
-76.00000000000007
 30
0
 40
3.5
  0
ARC
  8
1
 62
7
 10
139.3507559311313
 20
-92.10000000000007
 30
0
 40
1.599999999999953
 50
2.000000000000043
 51
43.43253655779029
  0
ARC
  8
1
 62
7
 10
191.8
 20
-94.50000000000006
 30
0
 40
1
 50
180
 51
270
  0
ARC
  8
1
 62
7
 10
191.8
 20
-86.00000000000006
 30
0
 40
1
 50
90
 51
180
  0
ARC
  8
1
 62
7
 10
208.8
 20
-86.00000000000006
 30
0
 40
1
 50
0
 51
90
  0
ARC
  8
1
 62
7
 10
208.8
 20
-94.50000000000006
 30
0
 40
1
 50
270
 51
0
  0
ARC
  8
1
 62
7
 10
294.8
 20
-94.50000000000006
 30
0
 40
1
 50
180
 51
270
  0
ARC
  8
1
 62
7
 10
294.8
 20
-86.00000000000006
 30
0
 40
1
 50
90
 51
180
  0
ARC
  8
1
 62
7
 10
311.8
 20
-86.00000000000006
 30
0
 40
1
 50
0
 51
90
  0
ARC
  8
1
 62
7
 10
311.8
 20
-94.50000000000006
 30
0
 40
1
 50
270
 51
0
  0
ARC
  8
1
 62
7
 10
183.8532696579726
 20
-82.00000000000006
 30
0
 40
3.00000000000001
 50
243.7038877347535
 51
270
  0
ARC
  8
1
 62
7
 10
306.8
 20
-94.96540221293638
 30
0
 40
5.999999999999974
 50
280.0000000000002
 51
0
  0
ARC
  8
1
 62
7
 10
-70.5
 20
-86.00000000000006
 30
0
 40
1
 50
90
 51
180
  0
ARC
  8
1
 62
7
 10
-70.5
 20
-93.50000000000006
 30
0
 40
1
 50
180
 51
270
  0
ARC
  8
1
 62
7
 10
70.5
 20
-86.00000000000006
 30
0
 40
1
 50
0
 51
90
  0
ARC
  8
1
 62
7
 10
70.5
 20
-93.50000000000006
 30
0
 40
1
 50
270
 51
0
  0
ARC
  8
1
 62
7
 10
-33.92101857861257
 20
-128.5000000000001
 30
0
 40
3.000000000000014
 50
90
 51
177.999999999998
  0
ARC
  8
1
 62
7
 10
33.92101857861263
 20
-128.5000000000001
 30
0
 40
2.999999999999995
 50
2.000000000000395
 51
90
  0
ARC
  8
1
 62
7
 10
205.2715579567124
 20
-144.3458308229217
 30
0
 40
25
 50
100.0000000000001
 51
177
  0
ARC
  8
1
 62
7
 10
127.8
 20
-122.5000000000001
 30
0
 40
3
 50
180
 51
270
  0
ARC
  8
1
 62
7
 10
-32.5
 20
32.49999999999994
 30
0
 40
5
 50
90
 51
180
  0
ARC
  8
1
 62
7
 10
-32.5
 20
-72.50000000000006
 30
0
 40
5
 50
180
 51
270
  0
ARC
  8
1
 62
7
 10
32.5
 20
-72.50000000000006
 30
0
 40
5
 50
270
 51
0
  0
ARC
  8
1
 62
7
 10
32.5
 20
32.49999999999994
 30
0
 40
5
 50
0
 51
90
  0
ARC
  8
1
 62
2
 10
-25.16666666666669
 20
-56.8333333333334
 30
0
 40
1
 50
0
 51
90
  0
ARC
  8
1
 62
2
 10
-31.16666666666669
 20
-64.16666666666673
 30
0
 40
1.000000000000004
 50
180
 51
270
  0
ARC
  8
1
 62
2
 10
-25.16666666666669
 20
-56.8333333333334
 30
0
 40
1.333333333333378
 50
0
 51
90
  0
ARC
  8
1
 62
2
 10
-31.16666666666669
 20
-64.16666666666673
 30
0
 40
1.333333333333311
 50
180
 51
270
  0
ARC
  8
1
 62
7
 10
51
 20
48.49999999999994
 30
0
 40
1.5
 50
0
 51
90
  0
ARC
  8
1
 62
7
 10
-51
 20
48.49999999999994
 30
0
 40
1.5
 50
90
 51
180
  0
ARC
  8
1
 62
7
 10
183.8
 20
-72.70000000000006
 30
0
 40
1
 50
270
 51
0
  0
ARC
  8
1
 62
7
 10
181.8
 20
-84.00000000000006
 30
0
 40
1
 50
270
 51
0
  0
ARC
  8
1
 62
7
 10
181.8
 20
-79.30000000000005
 30
0
 40
1
 50
0
 51
90
  0
ARC
  8
1
 62
7
 10
132.8
 20
37.99999999999994
 30
0
 40
11
 50
90
 51
180
  0
ARC
  8
1
 62
7
 10
132.8
 20
37.99999999999994
 30
0
 40
12
 50
90
 51
180
  0
ARC
  8
1
 62
7
 10
-47.16124916105309
 20
-210.3000000000001
 30
0
 40
1.000000000000024
 50
182.0000000000003
 51
270
  0
ARC
  8
1
 62
7
 10
47.16124916105309
 20
-210.3000000000001
 30
0
 40
1
 50
270
 51
357.9999999999999
  0
ARC
  8
1
 62
7
 10
-38.2200242997672
 20
-210.3000000000001
 30
0
 40
1.000000000000024
 50
182.0000000000003
 51
270
  0
ARC
  8
1
 62
7
 10
38.2200242997672
 20
-210.3000000000001
 30
0
 40
1
 50
270
 51
357.9999999999997
  0
ARC
  8
1
 62
7
 10
145.3745085168424
 20
-203.3000000000001
 30
0
 40
1
 50
90
 51
158.0000000000008
  0
ARC
  8
1
 62
7
 10
172.8892554506412
 20
-213.3000000000001
 30
0
 40
1
 50
270
 51
338.0000000000068
  0
ARC
  8
1
 62
7
 10
137
 20
-152.8000000000001
 30
0
 40
1
 50
180
 51
270
  0
ARC
  8
1
 62
7
 10
137
 20
-151.6354055064473
 30
0
 40
1.000000000000119
 50
123.6703165368464
 51
180
  0
ARC
  8
1
 62
7
 10
137
 20
-151.6442270553016
 30
0
 40
4.19999999999996
 50
123.6703402302226
 51
180
  0
ARC
  8
1
 62
7
 10
137
 20
-152.8000000000001
 30
0
 40
4.199999999999989
 50
180
 51
270
  0
ARC
  8
1
 62
7
 10
138.8
 20
-141.7937842787617
 30
0
 40
2.999999999999952
 50
303.6703402302214
 51
0
  0
ARC
  8
1
 62
7
 10
125.6
 20
-92.00000000000006
 30
0
 40
0.9999999999999858
 50
143.1301023541568
 51
180
  0
ARC
  8
1
 62
7
 10
123.8608798583755
 20
-115.75
 30
0
 40
1.000000000000025
 50
196.9577633000057
 51
270
  0
ARC
  8
1
 62
7
 10
123.8608798583755
 20
-112.2500000000001
 30
0
 40
1
 50
90
 51
163.0422366999943
  0
ARC
  8
1
 62
7
 10
123.8608798583755
 20
-97.25000000000007
 30
0
 40
1.000000000000009
 50
196.9577633000026
 51
270
  0
ARC
  8
1
 62
7
 10
123.8608798583755
 20
-93.75000000000006
 30
0
 40
0.9999999999999858
 50
90
 51
163.0422366999966
  0
ARC
  8
1
 62
7
 10
-1.13686837721616e-13
 20
-121.5
 30
0
 40
2
 50
90
 51
180
  0
ARC
  8
1
 62
7
 10
-1.13686837721616e-13
 20
-121.5
 30
0
 40
2
 50
0
 51
90
  0
ARC
  8
1
 62
7
 10
125.6
 20
-117.5
 30
0
 40
1
 50
180
 51
216.8698976458438
  0
ARC
  8
1
 62
7
 10
138.8
 20
-141.7849661878479
 30
0
 40
6.20000000000003
 50
303.6703165368487
 51
310.7935627793327
  0
ARC
  8
1
 62
7
 10
54.48480237698664
 20
-78.20000000000007
 30
0
 40
1.300000000000011
 50
270
 51
343.5496001733857
  0
ARC
  8
1
 62
7
 10
54.47319031243353
 20
-73.8000000000001
 30
0
 40
1.299999999999963
 50
16.75281834738587
 51
90
  0
ARC
  8
1
 62
7
 10
-54.48480237698658
 20
-73.80000000000007
 30
0
 40
1.300000000000011
 50
90
 51
163.5496001733866
  0
ARC
  8
1
 62
7
 10
-54.47319031243347
 20
-78.20000000000005
 30
0
 40
1.300000000000018
 50
196.7528183473851
 51
270
  0
TEXT
  8
1
 62
7
 10
238.3598746980784
 20
30.54828673233356
 30
0
 40
3.149999999999999
  1
DWG No.  ZA-0002
 41
0.9
  0
TEXT
  8
1
 62
7
 10
238.3598746980784
 20
23.61828673233356
 30
0
 40
3.149999999999999
  1
REV.     00
 41
0.9
  0
TEXT
  8
1
 62
7
 10
238.3598746980784
 20
16.68828673233356
 30
0
 40
3.149999999999999
  1
Yamatake Corporation
 41
0.9
  0
TEXT
  8
1
 62
7
 10
-6.75
 20
30.84999999999994
 30
0
 40
3
  1
OPEN
 41
1.125
 72
1
 73
3
 11
0
 21
33.84999999999994
 31
0
  0
TEXT
  8
1
 62
7
 10
-9.720000000000001
 20
-33.85000000000004
 30
0
 40
3
  1
CLOSED
 41
1.08
 72
1
 11
0
 21
-33.85000000000004
 31
0
  0
TEXT
  8
1
 62
7
 10
-24.57
 20
-46.00000000000006
 30
0
 40
4
  1
VALVE LINKAGE
 41
0.9450000000000001
 72
1
 73
3
 11
0
 21
-42.00000000000006
 31
0
  0
TEXT
  8
1
 62
7
 10
-20
 20
-52.00000000000006
 30
0
 40
2
  1
TYPE
 41
0.9
 73
2
 11
-20
 21
-51.00000000000006
 31
0
  0
ENDSEC
  0
EOF
