  0
SECTION
  2
HEADER
  9
$ACADVER 
  1
AC1006
  9
$INSBASE
 10
0.0
 20
0.0
 30
0.0
  9
$EXTMIN
 10
-95.0000000
 20
-132.1044006
  9
$EXTMAX
 10
336.2508850
 20
184.2920074
  9
$LIMMIN
 10
-95.0000000
 20
-132.1044006
  9
$LIMMAX
 10
336.2508850
 20
184.2920074
  9
$ORTHOMODE
 70
     0
  9
$REGENMODE
 70
     1
  9
$FILLMODE
 70
     1
  9
$QTEXTMODE
 70
     0
  9
$MIRRTEXT
 70
     1
  9
$DRAGMODE
 70
     2
  9
$LTSCALE
 40
1.0
  9
$OSMODE
 70
     0
  9
$ATTMODE
 70
     1
  9
$TEXTSIZE
 40
4.0
  9
$TRACEWID
 40
0.05
  9
$TEXTSTYLE
  7
STANDARD
  9
$CLAYER
  8
0
  9
$CELTYPE
  6
BYLAYER
  9
$CECOLOR
 62
   256
  9
$DIMSCALE
 40
1.0
  9
$DIMASZ
 40
0.18
  9
$DIMEXO
 40
0.0625
  9
$DIMDLI
 40
0.38
  9
$DIMRND
 40
0.0
  9
$DIMDLE
 40
0.0
  9
$DIMEXE
 40
0.18
  9
$DIMTP
 40
0.0
  9
$DIMTM
 40
0.0
  9
$DIMTXT
 40
0.18
  9
$DIMCEN
 40
0.09
  9
$DIMTSZ
 40
0.0
  9
$DIMTOL
 70
     0
  9
$DIMLIM
 70
     0
  9
$DIMTIH
 70
     1
  9
$DIMTOH
 70
     1
  9
$DIMSE1
 70
     0
  9
$DIMSE2
 70
     0
  9
$DIMTAD
 70
     0
  9
$DIMZIN
 70
     0
  9
$DIMBLK
  1

  9
$DIMASO
 70
     1
  9
$DIMSHO
 70
     0
  9
$DIMPOST
  1

  9
$DIMAPOST
  1

  9
$DIMALT
 70
     0
  9
$DIMALTD
 70
     2
  9
$DIMALTF
 40
25.4
  9
$DIMLFAC
 40
1.0
  9
$DIMTOFL
 70
     0
  9
$DIMTVP
 40
0.0
  9
$DIMTIX
 70
     0
  9
$DIMSOXD
 70
     0
  9
$DIMSAH
 70
     0
  9
$DIMBLK1
  1

  9
$DIMBLK2
  1

  9
$LUNITS
 70
     2
  9
$LUPREC
 70
     4
  9
$AXISMODE
 70
     0
  9
$AXISUNIT
 10
0.0
 20
0.0
  9
$SKETCHINC
 40
0.1
  9
$FILLETRAD
 40
0.0
  9
$AUNITS
 70
     0
  9
$AUPREC
 70
     0
  9
$MENU
  1
acad
  9
$ELEVATION
 40
0.0
  9
$THICKNESS
 40
0.0
  9
$LIMCHECK
 70
     0
  9
$BLIPMODE
 70
     1
  9
$CHAMFERA
 40
0.0
  9
$CHAMFERB
 40
0.0
  9
$SKPOLY
 70
     0
  9
$TDCREATE
 40
2448026.6008101851
  9
$TDUPDATE
 40
2448026.6181597221
  9
$TDINDWG
 40
0.0173495370
  9
$TDUSRTIMER
 40
0.0173495370
  9
$USRTIMER
 70
     1
  9
$ANGBASE
 50
0.0
  9
$ANGDIR
 70
     0
  9
$PDMODE
 70
     0
  9
$PDSIZE
 40
0.0
  9
$PLINEWID
 40
0.0
  9
$COORDS
 70
     2
  9
$SPLFRAME
 70
     0
  9
$SPLINETYPE
 70
     6
  9
$SPLINESEGS
 70
     8
  9
$ATTDIA
 70
     0
  9
$ATTREQ
 70
     1
  9
$HANDLING
 70
     0
  9
$HANDSEED
  5
0
  9
$SURFTAB1
 70
     6
  9
$SURFTAB2
 70
     6
  9
$SURFTYPE
 70
     6
  9
$SURFU
 70
     6
  9
$SURFV
 70
     6
  9
$FLATLAND
 70
     0
  9
$UCSNAME
  2

  9
$UCSORG
 10
0.0
 20
0.0
 30
0.0
  9
$UCSXDIR
 10
1.0
 20
0.0
 30
0.0
  9
$UCSYDIR
 10
0.0
 20
1.0
 30
0.0
  9
$USERI1
 70
     0
  9
$USERI2
 70
     0
  9
$USERI3
 70
     0
  9
$USERI4
 70
     0
  9
$USERI5
 70
     0
  9
$USERR1
 40
0.0
  9
$USERR2
 40
0.0
  9
$USERR3
 40
0.0
  9
$USERR4
 40
0.0
  9
$USERR5
 40
0.0
  9
$WORLDVIEW
 70
     1
  0
ENDSEC
  0
SECTION
  2
TABLES
  0
TABLE
  2
VPORT
 70
     2
  0
VPORT
  2
*ACTIVE
 70
     0
 10
0.0
 20
0.0
 11
1.0
 21
1.0
 12
27.083333
 22
15.399368
 13
0.0
 23
0.0
 14
1.0
 24
1.0
 15
0.0
 25
0.0
 16
0.0
 26
0.0
 36
1.0
 17
0.0
 27
0.0
 37
0.0
 40
30.798736
 41
1.75873
 42
50.0
 43
0.0
 44
0.0
 50
0.0
 51
0.0
 71
     0
 72
   100
 73
     1
 74
     1
 75
     1
 76
     0
 77
     0
 78
     0
  0
ENDTAB
  0
TABLE
  2
LTYPE
 70
     5
  0
LTYPE
  2
CONTINUOUS
 70
    64
  3
________________________
 72
    65
 73
     0
 40
0.0
  0
LTYPE
  2
DOT
 70
    64
  3
_ _ _ _ _ _ _ _ _ _ _ _
 72
    65
 73
     2
 40
0.375
 49
0.25
 49
-0.125
  0
LTYPE
  2
HIDDEN
 70
    64
  3
__ __ __ __ __ __ __ __
 72
    65
 73
     2
 40
0.75
 49
0.5
 49
-0.25
  0
LTYPE
  2
CENTER
 70
    64
  3
____ _ ____ _ ____ _ ___
 72
    65
 73
     4
 40
2.0
 49
1.25
 49
-0.25
 49
0.25
 49
-0.25
  0
LTYPE
  2
PHANTOM
 70
    64
  3
_____ _ _ _____ _ _ ____
 72
    65
 73
     6
 40
2.5
 49
1.25
 49
-0.25
 49
0.25
 49
-0.25
 49
0.25
 49
-0.25
  0
ENDTAB
  0
TABLE
  2
LAYER
 70
     5
  0
LAYER
  2
0
 70
    64
 62
     7
  6
CONTINUOUS
  0
LAYER
  2
WORKLAYER
 70
    64
 62
     7
  6
CONTINUOUS
  0
LAYER
  2
AREA
 70
    64
 62
     7
  6
CONTINUOUS
  0
LAYER
  2
SSYMB
 70
    64
 62
     7
  6
CONTINUOUS
  0
ENDTAB
  0
TABLE
  2
STYLE
 70
     3
  0
STYLE
  2
STANDARD
 70
    64
 40
0.0
 41
1.0
 50
0.0
 71
     0
 42
4.0
  3
txt
  4

  0
STYLE
  2
KANJI
 70
    64
 40
0.0
 41
1.0
 50
0.0
 71
     0
 42
2.0
  3
TXT
  4
BIGFONT
  0
ENDTAB
  0
TABLE
  2
VIEW
 70
     0
  0
ENDTAB
  0
TABLE
  2
UCS
 70
     0
  0
ENDTAB
  0
TABLE
  2
DWGMGR
 70
     0
  0
ENDTAB
  0
ENDSEC
  0
SECTION
  2
BLOCKS
  0
BLOCK
  8
WORKLAYER
  2
DXF1
 70
    64
 10
0.0
 20
0.0
 30
0.0
  3
DXF1
  0
LINE
  8
WORKLAYER
  6
CONTINUOUS
 62
     4
 10
-17.0002193
 20
119.9999008
 30
0.0
 11
-12.1882200
 21
119.9999008
 31
0.0
 62
     4
  0
LINE
  8
WORKLAYER
  6
CONTINUOUS
 62
     4
 10
12.1877899
 20
119.9999008
 30
0.0
 11
16.9997807
 21
119.9999008
 31
0.0
 62
     4
  0
LINE
  8
WORKLAYER
  6
CONTINUOUS
 62
     4
 10
16.9997807
 20
119.9999008
 30
0.0
 11
16.9997807
 21
121.9999008
 31
0.0
 62
     4
  0
LINE
  8
WORKLAYER
  6
CONTINUOUS
 62
     4
 10
16.9997807
 20
121.9999008
 30
0.0
 11
0.0000000
 21
121.9999008
 31
0.0
 62
     4
  0
LINE
  8
WORKLAYER
  6
CONTINUOUS
 62
     4
 10
0.0000000
 20
121.9999008
 30
0.0
 11
-17.0002193
 21
121.9999008
 31
0.0
 62
     4
  0
LINE
  8
WORKLAYER
  6
CONTINUOUS
 62
     4
 10
-17.0002193
 20
121.9999008
 30
0.0
 11
-17.0002193
 21
119.9999008
 31
0.0
 62
     4
  0
ENDBLK
  0
BLOCK
  8
WORKLAYER
  2
DXF2
 70
    64
 10
0.0
 20
0.0
 30
0.0
  3
DXF2
  0
LINE
  8
WORKLAYER
  6
CONTINUOUS
 62
     4
 10
-11.5002203
 20
131.4998932
 30
0.0
 11
0.0000000
 21
131.4998932
 31
0.0
 62
     4
  0
LINE
  8
WORKLAYER
  6
CONTINUOUS
 62
     4
 10
0.0000000
 20
131.4998932
 30
0.0
 11
11.4997797
 21
131.4998932
 31
0.0
 62
     4
  0
LINE
  8
WORKLAYER
  6
CONTINUOUS
 62
     4
 10
-12.0002203
 20
126.4999008
 30
0.0
 11
0.0000000
 21
126.4999008
 31
0.0
 62
     4
  0
LINE
  8
WORKLAYER
  6
CONTINUOUS
 62
     4
 10
0.0000000
 20
126.4999008
 30
0.0
 11
11.9997797
 21
126.4999008
 31
0.0
 62
     4
  0
LINE
  8
WORKLAYER
  6
CONTINUOUS
 62
     4
 10
-12.0002203
 20
126.4999008
 30
0.0
 11
-13.0002203
 21
125.4999008
 31
0.0
 62
     4
  0
LINE
  8
WORKLAYER
  6
CONTINUOUS
 62
     4
 10
-13.0002203
 20
125.4999008
 30
0.0
 11
-13.0002203
 21
121.9999008
 31
0.0
 62
     4
  0
LINE
  8
WORKLAYER
  6
CONTINUOUS
 62
     4
 10
12.9997797
 20
125.4999008
 30
0.0
 11
12.9997797
 21
121.9999008
 31
0.0
 62
     4
  0
LINE
  8
WORKLAYER
  6
CONTINUOUS
 62
     4
 10
12.9997797
 20
125.4999008
 30
0.0
 11
11.9997797
 21
126.4999008
 31
0.0
 62
     4
  0
LINE
  8
WORKLAYER
  6
CONTINUOUS
 62
     2
 10
-12.1882200
 20
126.4999008
 30
0.0
 11
-12.1882200
 21
121.9999008
 31
0.0
 62
     2
  0
LINE
  8
WORKLAYER
  6
CONTINUOUS
 62
     2
 10
12.1877899
 20
126.4999008
 30
0.0
 11
12.1877899
 21
121.9999008
 31
0.0
 62
     2
  0
LINE
  8
WORKLAYER
  6
CONTINUOUS
 62
     4
 10
11.4997797
 20
131.4998932
 30
0.0
 11
11.4997797
 21
126.4999008
 31
0.0
 62
     4
  0
LINE
  8
WORKLAYER
  6
CONTINUOUS
 62
     4
 10
-11.5002203
 20
131.4998932
 30
0.0
 11
-11.5002203
 21
126.4999008
 31
0.0
 62
     4
  0
ENDBLK
  0
BLOCK
  8
WORKLAYER
  2
DXF3
 70
    64
 10
0.0
 20
0.0
 30
0.0
  3
DXF3
  0
LINE
  8
WORKLAYER
  6
CONTINUOUS
 62
     4
 10
245.2480011
 20
119.9999008
 30
0.0
 11
250.0599976
 21
119.9999008
 31
0.0
 62
     4
  0
LINE
  8
WORKLAYER
  6
CONTINUOUS
 62
     4
 10
274.4360046
 20
119.9999008
 30
0.0
 11
279.2479858
 21
119.9999008
 31
0.0
 62
     4
  0
LINE
  8
WORKLAYER
  6
CONTINUOUS
 62
     4
 10
279.2479858
 20
119.9999008
 30
0.0
 11
279.2479858
 21
121.9999008
 31
0.0
 62
     4
  0
LINE
  8
WORKLAYER
  6
CONTINUOUS
 62
     4
 10
279.2479858
 20
121.9999008
 30
0.0
 11
262.2481995
 21
121.9999008
 31
0.0
 62
     4
  0
LINE
  8
WORKLAYER
  6
CONTINUOUS
 62
     4
 10
262.2481995
 20
121.9999008
 30
0.0
 11
245.2480011
 21
121.9999008
 31
0.0
 62
     4
  0
LINE
  8
WORKLAYER
  6
CONTINUOUS
 62
     4
 10
245.2480011
 20
121.9999008
 30
0.0
 11
245.2480011
 21
119.9999008
 31
0.0
 62
     4
  0
ENDBLK
  0
BLOCK
  8
WORKLAYER
  2
DXF4
 70
    64
 10
0.0
 20
0.0
 30
0.0
  3
DXF4
  0
LINE
  8
WORKLAYER
  6
CONTINUOUS
 62
     4
 10
250.7480011
 20
131.4998932
 30
0.0
 11
262.2481995
 21
131.4998932
 31
0.0
 62
     4
  0
LINE
  8
WORKLAYER
  6
CONTINUOUS
 62
     4
 10
262.2481995
 20
131.4998932
 30
0.0
 11
273.7479858
 21
131.4998932
 31
0.0
 62
     4
  0
LINE
  8
WORKLAYER
  6
CONTINUOUS
 62
     4
 10
250.2480011
 20
126.4999008
 30
0.0
 11
262.2481995
 21
126.4999008
 31
0.0
 62
     4
  0
LINE
  8
WORKLAYER
  6
CONTINUOUS
 62
     4
 10
262.2481995
 20
126.4999008
 30
0.0
 11
274.2479858
 21
126.4999008
 31
0.0
 62
     4
  0
LINE
  8
WORKLAYER
  6
CONTINUOUS
 62
     4
 10
250.2480011
 20
126.4999008
 30
0.0
 11
249.2480011
 21
125.4999008
 31
0.0
 62
     4
  0
LINE
  8
WORKLAYER
  6
CONTINUOUS
 62
     4
 10
249.2480011
 20
125.4999008
 30
0.0
 11
249.2480011
 21
121.9999008
 31
0.0
 62
     4
  0
LINE
  8
WORKLAYER
  6
CONTINUOUS
 62
     4
 10
275.2479858
 20
125.4999008
 30
0.0
 11
275.2479858
 21
121.9999008
 31
0.0
 62
     4
  0
LINE
  8
WORKLAYER
  6
CONTINUOUS
 62
     4
 10
275.2479858
 20
125.4999008
 30
0.0
 11
274.2479858
 21
126.4999008
 31
0.0
 62
     4
  0
LINE
  8
WORKLAYER
  6
CONTINUOUS
 62
     2
 10
250.0599976
 20
126.4999008
 30
0.0
 11
250.0599976
 21
121.9999008
 31
0.0
 62
     2
  0
LINE
  8
WORKLAYER
  6
CONTINUOUS
 62
     2
 10
274.4360046
 20
126.4999008
 30
0.0
 11
274.4360046
 21
121.9999008
 31
0.0
 62
     2
  0
LINE
  8
WORKLAYER
  6
CONTINUOUS
 62
     4
 10
273.7479858
 20
131.4998932
 30
0.0
 11
273.7479858
 21
126.4999008
 31
0.0
 62
     4
  0
LINE
  8
WORKLAYER
  6
CONTINUOUS
 62
     4
 10
250.7480011
 20
131.4998932
 30
0.0
 11
250.7480011
 21
126.4999008
 31
0.0
 62
     4
  0
ENDBLK
  0
BLOCK
  8
WORKLAYER
  2
DXF5
 70
    64
 10
0.0
 20
0.0
 30
0.0
  3
DXF5
  0
LINE
  8
WORKLAYER
  6
CONTINUOUS
 62
     4
 10
-9.8000031
 20
148.4335022
 30
0.0
 11
9.7999954
 21
148.4335022
 31
0.0
 62
     4
  0
LINE
  8
WORKLAYER
  6
CONTINUOUS
 62
     4
 10
3.5499949
 20
176.4335022
 30
0.0
 11
-3.5500031
 21
176.4335022
 31
0.0
 62
     4
  0
LINE
  8
WORKLAYER
  6
CONTINUOUS
 62
     4
 10
-9.8000031
 20
166.9868927
 30
0.0
 11
-9.8000031
 21
148.4335022
 31
0.0
 62
     4
  0
ARC
  8
WORKLAYER
  6
CONTINUOUS
 62
     4
 10
-0.0000000
 20
160.8323059
 30
0.0
 40
16.0000000
 50
102.8191986
 51
115.9445038
  0
LINE
  8
WORKLAYER
  6
CONTINUOUS
 62
     4
 10
-9.8000031
 20
166.9868927
 30
0.0
 11
-4.3499908
 21
170.1334991
 31
0.0
 62
     4
  0
ARC
  8
WORKLAYER
  6
CONTINUOUS
 62
     4
 10
-0.0000000
 20
188.7346954
 30
0.0
 40
16.0000000
 50
244.0554962
 51
254.2241058
  0
LINE
  8
WORKLAYER
  6
CONTINUOUS
 62
     4
 10
-7.0000000
 20
175.2198029
 30
0.0
 11
-7.0000000
 21
174.3471985
 31
0.0
 62
     4
  0
LINE
  8
WORKLAYER
  6
CONTINUOUS
 62
     4
 10
-4.3499908
 20
173.3374023
 30
0.0
 11
-4.3499908
 21
170.1334991
 31
0.0
 62
     4
  0
ARC
  8
WORKLAYER
  6
CONTINUOUS
 62
     4
 10
-0.0000000
 20
160.8323059
 30
0.0
 40
16.0000000
 50
64.0555191
 51
77.1808167
  0
LINE
  8
WORKLAYER
  6
CONTINUOUS
 62
     4
 10
9.7999954
 20
166.9868927
 30
0.0
 11
4.3499980
 21
170.1334991
 31
0.0
 62
     4
  0
ARC
  8
WORKLAYER
  6
CONTINUOUS
 62
     4
 10
-0.0000000
 20
188.7346954
 30
0.0
 40
16.0000000
 50
285.7759094
 51
295.9444885
  0
LINE
  8
WORKLAYER
  6
CONTINUOUS
 62
     4
 10
7.0000000
 20
175.2198029
 30
0.0
 11
7.0000000
 21
174.3471985
 31
0.0
 62
     4
  0
LINE
  8
WORKLAYER
  6
CONTINUOUS
 62
     4
 10
4.3499980
 20
173.3374023
 30
0.0
 11
4.3499980
 21
170.1334991
 31
0.0
 62
     4
  0
LINE
  8
WORKLAYER
  6
CONTINUOUS
 62
     4
 10
9.7999954
 20
166.9868927
 30
0.0
 11
9.7999954
 21
148.4335022
 31
0.0
 62
     4
  0
LINE
  8
WORKLAYER
  6
CONTINUOUS
 62
     4
 10
-4.3499908
 20
170.1334991
 30
0.0
 11
4.3499980
 21
170.1334991
 31
0.0
 62
     4
  0
LINE
  8
WORKLAYER
  6
CONTINUOUS
 62
     4
 10
-4.3499908
 20
173.3374023
 30
0.0
 11
4.3499980
 21
173.3374023
 31
0.0
 62
     4
  0
LINE
  8
WORKLAYER
  6
CONTINUOUS
 62
     3
 10
-7.0000000
 20
175.2198029
 30
0.0
 11
7.0000000
 21
175.2198029
 31
0.0
 62
     3
  0
LINE
  8
WORKLAYER
  6
CONTINUOUS
 62
     3
 10
7.0000000
 20
174.3471985
 30
0.0
 11
-7.0000000
 21
174.3471985
 31
0.0
 62
     3
  0
ARC
  8
WORKLAYER
  6
CONTINUOUS
 62
     4
 10
-0.0000000
 20
157.6779938
 30
0.0
 40
10.5197802
 50
62.2386894
 51
117.7612991
  0
LINE
  8
WORKLAYER
  6
CONTINUOUS
 62
     4
 10
-4.8999982
 20
166.9868927
 30
0.0
 11
-4.8999982
 21
148.4335022
 31
0.0
 62
     4
  0
LINE
  8
WORKLAYER
  6
CONTINUOUS
 62
     4
 10
4.8999982
 20
166.9868927
 30
0.0
 11
4.8999982
 21
148.4335022
 31
0.0
 62
     4
  0
ARC
  8
WORKLAYER
  6
CONTINUOUS
 62
     4
 10
-7.3499999
 20
162.7433929
 30
0.0
 40
4.9000049
 50
60.0000000
 51
120.0000000
  0
ARC
  8
WORKLAYER
  6
CONTINUOUS
 62
     4
 10
7.3499999
 20
162.7433929
 30
0.0
 40
4.9000049
 50
60.0000000
 51
120.0000000
  0
ENDBLK
  0
BLOCK
  8
WORKLAYER
  2
DXF6
 70
    64
 10
0.0
 20
0.0
 30
0.0
  3
DXF6
  0
LINE
  8
WORKLAYER
  6
CONTINUOUS
 62
     4
 10
254.5455017
 20
148.4335022
 30
0.0
 11
269.9508972
 21
148.4335022
 31
0.0
 62
     4
  0
LINE
  8
WORKLAYER
  6
CONTINUOUS
 62
     4
 10
265.7981873
 20
176.4335022
 30
0.0
 11
258.6982117
 21
176.4335022
 31
0.0
 62
     4
  0
ARC
  8
WORKLAYER
  6
CONTINUOUS
 62
     4
 10
262.2481995
 20
160.8323059
 30
0.0
 40
16.0000000
 50
102.8191986
 51
115.9445038
  0
LINE
  8
WORKLAYER
  6
CONTINUOUS
 62
     4
 10
254.5455017
 20
168.1977997
 30
0.0
 11
257.8981934
 21
170.1334991
 31
0.0
 62
     4
  0
ARC
  8
WORKLAYER
  6
CONTINUOUS
 62
     4
 10
262.2481995
 20
188.7346954
 30
0.0
 40
16.0000000
 50
244.0554962
 51
254.2241058
  0
LINE
  8
WORKLAYER
  6
CONTINUOUS
 62
     4
 10
255.2481995
 20
175.2198029
 30
0.0
 11
255.2481995
 21
174.3471985
 31
0.0
 62
     4
  0
LINE
  8
WORKLAYER
  6
CONTINUOUS
 62
     4
 10
257.8981934
 20
173.3374023
 30
0.0
 11
257.8981934
 21
170.1334991
 31
0.0
 62
     4
  0
ARC
  8
WORKLAYER
  6
CONTINUOUS
 62
     4
 10
262.2481995
 20
160.8323059
 30
0.0
 40
16.0000000
 50
64.0555191
 51
77.1808167
  0
LINE
  8
WORKLAYER
  6
CONTINUOUS
 62
     4
 10
269.9508972
 20
168.1977997
 30
0.0
 11
266.5982056
 21
170.1334991
 31
0.0
 62
     4
  0
ARC
  8
WORKLAYER
  6
CONTINUOUS
 62
     4
 10
262.2481995
 20
188.7346954
 30
0.0
 40
16.0000000
 50
285.7759094
 51
295.9444885
  0
LINE
  8
WORKLAYER
  6
CONTINUOUS
 62
     4
 10
269.2481995
 20
175.2198029
 30
0.0
 11
269.2481995
 21
174.3471985
 31
0.0
 62
     4
  0
LINE
  8
WORKLAYER
  6
CONTINUOUS
 62
     4
 10
266.5982056
 20
173.3374023
 30
0.0
 11
266.5982056
 21
170.1334991
 31
0.0
 62
     4
  0
LINE
  8
WORKLAYER
  6
CONTINUOUS
 62
     4
 10
257.8981934
 20
170.1334991
 30
0.0
 11
266.5982056
 21
170.1334991
 31
0.0
 62
     4
  0
LINE
  8
WORKLAYER
  6
CONTINUOUS
 62
     4
 10
257.8981934
 20
173.3374023
 30
0.0
 11
266.5982056
 21
173.3374023
 31
0.0
 62
     4
  0
LINE
  8
WORKLAYER
  6
CONTINUOUS
 62
     3
 10
255.2481995
 20
175.2198029
 30
0.0
 11
269.2481995
 21
175.2198029
 31
0.0
 62
     3
  0
LINE
  8
WORKLAYER
  6
CONTINUOUS
 62
     3
 10
269.2481995
 20
174.3471985
 30
0.0
 11
255.2481995
 21
174.3471985
 31
0.0
 62
     3
  0
LINE
  8
WORKLAYER
  6
CONTINUOUS
 62
     4
 10
254.5455017
 20
168.1977997
 30
0.0
 11
254.5455017
 21
148.4335022
 31
0.0
 62
     4
  0
LINE
  8
WORKLAYER
  6
CONTINUOUS
 62
     4
 10
269.9508972
 20
168.1977997
 30
0.0
 11
269.9508972
 21
148.4335022
 31
0.0
 62
     4
  0
ARC
  8
WORKLAYER
  6
CONTINUOUS
 62
     4
 10
258.3967896
 20
161.5269928
 30
0.0
 40
7.7027302
 50
60.0000000
 51
120.0000000
  0
ARC
  8
WORKLAYER
  6
CONTINUOUS
 62
     4
 10
266.0996094
 20
161.5269928
 30
0.0
 40
7.7027302
 50
59.9997292
 51
120.0000000
  0
ENDBLK
  0
BLOCK
  8
AREA
  2
DXF23
 70
    64
 10
0.0
 20
0.0
 30
0.0
  3
DXF23
  0
LINE
  8
AREA
  6
CONTINUOUS
 62
     4
 10
279.6482849
 20
119.0000000
 30
0.0
 11
279.6482849
 21
101.5000000
 31
0.0
 62
     4
  0
LINE
  8
AREA
  6
CONTINUOUS
 62
     4
 10
279.6482849
 20
119.0000000
 30
0.0
 11
278.6482849
 21
120.0000000
 31
0.0
 62
     4
  0
ENDBLK
  0
BLOCK
  8
AREA
  2
DXF28
 70
    64
 10
0.0
 20
0.0
 30
0.0
  3
DXF28
  0
LINE
  8
AREA
  6
CONTINUOUS
 62
     4
 10
285.2481995
 20
87.9999084
 30
0.0
 11
285.2481995
 21
69.3246231
 31
0.0
 62
     4
  0
ARC
  8
AREA
  6
CONTINUOUS
 62
     4
 10
283.2481995
 20
69.3246231
 30
0.0
 40
2.0000000
 50
351.0234070
 51
0.0000000
  0
ARC
  8
AREA
  6
CONTINUOUS
 62
     4
 10
283.2481995
 20
69.3246231
 30
0.0
 40
2.0000000
 50
295.3771057
 51
351.0234070
  0
ENDBLK
  0
BLOCK
  8
AREA
  2
DXF36
 70
    64
 10
0.0
 20
0.0
 30
0.0
  3
DXF36
  0
LINE
  8
AREA
  6
CONTINUOUS
 62
     4
 10
244.8480072
 20
119.0000000
 30
0.0
 11
244.8480072
 21
101.5000000
 31
0.0
 62
     4
  0
LINE
  8
AREA
  6
CONTINUOUS
 62
     4
 10
244.8480072
 20
119.0000000
 30
0.0
 11
245.8480072
 21
120.0000000
 31
0.0
 62
     4
  0
ENDBLK
  0
BLOCK
  8
AREA
  2
DXF41
 70
    64
 10
0.0
 20
0.0
 30
0.0
  3
DXF41
  0
LINE
  8
AREA
  6
CONTINUOUS
 62
     4
 10
239.2478943
 20
87.9999084
 30
0.0
 11
239.2478943
 21
69.3246231
 31
0.0
 62
     4
  0
ARC
  8
AREA
  6
CONTINUOUS
 62
     4
 10
241.2478943
 20
69.3246231
 30
0.0
 40
2.0000000
 50
180.0000000
 51
188.9765930
  0
ARC
  8
AREA
  6
CONTINUOUS
 62
     4
 10
241.2478943
 20
69.3246231
 30
0.0
 40
2.0000000
 50
188.9765930
 51
244.6228943
  0
ENDBLK
  0
BLOCK
  8
WORKLAYER
  2
DXF46
 70
    64
 10
0.0
 20
0.0
 30
0.0
  3
DXF46
  0
LINE
  8
WORKLAYER
  6
CONTINUOUS
 62
     4
 10
4.0000000
 20
131.4998932
 30
0.0
 11
4.0000000
 21
148.4335022
 31
0.0
 62
     4
  0
LINE
  8
WORKLAYER
  6
CONTINUOUS
 62
     4
 10
-4.0000000
 20
148.4335022
 30
0.0
 11
-4.0000000
 21
131.4998932
 31
0.0
 62
     4
  0
LINE
  8
WORKLAYER
  6
CONTINUOUS
 62
     2
 10
-3.0000000
 20
139.3417969
 30
0.0
 11
-4.0000000
 21
137.6096954
 31
0.0
 62
     2
  0
LINE
  8
WORKLAYER
  6
CONTINUOUS
 62
     2
 10
3.0000000
 20
139.3417969
 30
0.0
 11
4.0000000
 21
137.6096954
 31
0.0
 62
     2
  0
LINE
  8
WORKLAYER
  6
CONTINUOUS
 62
     2
 10
4.0000000
 20
139.3417969
 30
0.0
 11
-4.0000000
 21
139.3417969
 31
0.0
 62
     2
  0
LINE
  8
WORKLAYER
  6
CONTINUOUS
 62
     2
 10
-3.0000000
 20
148.4335022
 30
0.0
 11
-3.0000000
 21
139.3417969
 31
0.0
 62
     2
  0
LINE
  8
WORKLAYER
  6
CONTINUOUS
 62
     2
 10
3.0000000
 20
139.3417969
 30
0.0
 11
3.0000000
 21
148.4335022
 31
0.0
 62
     2
  0
ENDBLK
  0
BLOCK
  8
WORKLAYER
  2
DXF47
 70
    64
 10
0.0
 20
0.0
 30
0.0
  3
DXF47
  0
LINE
  8
WORKLAYER
  6
CONTINUOUS
 62
     4
 10
266.2481995
 20
131.4998932
 30
0.0
 11
266.2481995
 21
148.4335022
 31
0.0
 62
     4
  0
LINE
  8
WORKLAYER
  6
CONTINUOUS
 62
     4
 10
258.2481995
 20
148.4335022
 30
0.0
 11
258.2481995
 21
131.4998932
 31
0.0
 62
     4
  0
LINE
  8
WORKLAYER
  6
CONTINUOUS
 62
     2
 10
259.2481995
 20
139.3417969
 30
0.0
 11
258.2481995
 21
137.6096954
 31
0.0
 62
     2
  0
LINE
  8
WORKLAYER
  6
CONTINUOUS
 62
     2
 10
265.2481995
 20
139.3417969
 30
0.0
 11
266.2481995
 21
137.6096954
 31
0.0
 62
     2
  0
LINE
  8
WORKLAYER
  6
CONTINUOUS
 62
     2
 10
266.2481995
 20
139.3417969
 30
0.0
 11
258.2481995
 21
139.3417969
 31
0.0
 62
     2
  0
LINE
  8
WORKLAYER
  6
CONTINUOUS
 62
     2
 10
259.2481995
 20
148.4335022
 30
0.0
 11
259.2481995
 21
139.3417969
 31
0.0
 62
     2
  0
LINE
  8
WORKLAYER
  6
CONTINUOUS
 62
     2
 10
265.2481995
 20
139.3417969
 30
0.0
 11
265.2481995
 21
148.4335022
 31
0.0
 62
     2
  0
ENDBLK
  0
BLOCK
  8
WORKLAYER
  2
DXF48
 70
    64
 10
0.0
 20
0.0
 30
0.0
  3
DXF48
  0
LINE
  8
WORKLAYER
  6
CONTINUOUS
 62
     4
 10
22.5000000
 20
-89.2495728
 30
0.0
 11
22.5000000
 21
-60.2504883
 31
0.0
 62
     4
  0
LINE
  8
WORKLAYER
  6
CONTINUOUS
 62
     4
 10
-22.5000000
 20
-60.2502708
 30
0.0
 11
-22.5000000
 21
-89.2496872
 31
0.0
 62
     4
  0
ARC
  8
WORKLAYER
  6
CONTINUOUS
 62
     4
 10
-27.5000000
 20
-60.2502708
 30
0.0
 40
5.0000000
 50
0.0000000
 51
8.6300659
  0
ENDBLK
  0
BLOCK
  8
WORKLAYER
  2
DXF51
 70
    64
 10
0.0
 20
0.0
 30
0.0
  3
DXF51
  0
LINE
  8
WORKLAYER
  6
CONTINUOUS
 62
     4
 10
-23.8026104
 20
-93.7100830
 30
0.0
 11
-22.8014793
 21
-90.9597778
 31
0.0
 62
     4
  0
ARC
  8
WORKLAYER
  6
CONTINUOUS
 62
     4
 10
-28.5010109
 20
-91.9999771
 30
0.0
 40
5.0000000
 50
270.0000000
 51
340.0000000
  0
ARC
  8
WORKLAYER
  6
CONTINUOUS
 62
     4
 10
-27.5000000
 20
-89.2496872
 30
0.0
 40
5.0000000
 50
339.9995117
 51
360.0000000
  0
ENDBLK
  0
BLOCK
  8
WORKLAYER
  2
DXF52
 70
    64
 10
0.0
 20
0.0
 30
0.0
  3
DXF52
  0
LINE
  8
WORKLAYER
  6
CONTINUOUS
 62
     4
 10
23.8026104
 20
-93.7100830
 30
0.0
 11
22.8015099
 21
-90.9596863
 31
0.0
 62
     4
  0
ARC
  8
WORKLAYER
  6
CONTINUOUS
 62
     4
 10
28.5010109
 20
-91.9999771
 30
0.0
 40
5.0000000
 50
200.0000000
 51
270.0000000
  0
ARC
  8
WORKLAYER
  6
CONTINUOUS
 62
     4
 10
27.5000000
 20
-89.2495728
 30
0.0
 40
5.0000000
 50
180.0000000
 51
200.0001068
  0
ENDBLK
  0
BLOCK
  8
WORKLAYER
  2
DXF53
 70
    64
 10
0.0
 20
0.0
 30
0.0
  3
DXF53
  0
LINE
  8
WORKLAYER
  6
CONTINUOUS
 62
     4
 10
62.5000000
 20
-115.0000000
 30
0.0
 11
62.5000000
 21
-98.9999771
 31
0.0
 62
     4
  0
LINE
  8
WORKLAYER
  6
CONTINUOUS
 62
     4
 10
60.5000000
 20
-96.9999771
 30
0.0
 11
0.0000000
 21
-96.9999771
 31
0.0
 62
     4
  0
LINE
  8
WORKLAYER
  6
CONTINUOUS
 62
     4
 10
0.0000000
 20
-96.9999771
 30
0.0
 11
-60.5000000
 21
-96.9999771
 31
0.0
 62
     4
  0
LINE
  8
WORKLAYER
  6
CONTINUOUS
 62
     4
 10
-62.5000000
 20
-98.9999771
 30
0.0
 11
-62.5000000
 21
-115.0000000
 31
0.0
 62
     4
  0
LINE
  8
WORKLAYER
  6
CONTINUOUS
 62
     4
 10
-62.5000000
 20
-115.0000000
 30
0.0
 11
62.5000000
 21
-115.0000000
 31
0.0
 62
     4
  0
ARC
  8
WORKLAYER
  6
CONTINUOUS
 62
     4
 10
-60.5000000
 20
-98.9999771
 30
0.0
 40
2.0000000
 50
90.0000000
 51
180.0000000
  0
ARC
  8
WORKLAYER
  6
CONTINUOUS
 62
     4
 10
60.5000000
 20
-98.9999771
 30
0.0
 40
2.0000000
 50
360.0000000
 51
90.0000000
  0
ENDBLK
  0
BLOCK
  8
WORKLAYER
  2
DXF54
 70
    64
 10
0.0
 20
0.0
 30
0.0
  3
DXF54
  0
LINE
  8
WORKLAYER
  6
CONTINUOUS
 62
     4
 10
23.2842693
 20
-36.0000000
 30
0.0
 11
0.0000000
 21
-36.0000000
 31
0.0
 62
     4
  0
LINE
  8
WORKLAYER
  6
CONTINUOUS
 62
     4
 10
0.0000000
 20
-36.0000000
 30
0.0
 11
-23.2842693
 21
-36.0000000
 31
0.0
 62
     4
  0
ENDBLK
  0
BLOCK
  8
WORKLAYER
  2
DXF56
 70
    64
 10
0.0
 20
0.0
 30
0.0
  3
DXF56
  0
LINE
  8
WORKLAYER
  6
CONTINUOUS
 62
     4
 10
38.0000000
 20
-50.5000000
 30
0.0
 11
38.0000000
 21
-39.5000000
 31
0.0
 62
     4
  0
LINE
  8
WORKLAYER
  6
CONTINUOUS
 62
     4
 10
36.0000000
 20
-37.5000000
 30
0.0
 11
0.0000000
 21
-37.5000000
 31
0.0
 62
     4
  0
LINE
  8
WORKLAYER
  6
CONTINUOUS
 62
     4
 10
0.0000000
 20
-37.5000000
 30
0.0
 11
-36.0000000
 21
-37.5000000
 31
0.0
 62
     4
  0
LINE
  8
WORKLAYER
  6
CONTINUOUS
 62
     4
 10
-38.0000000
 20
-39.5000000
 30
0.0
 11
-38.0000000
 21
-50.5000000
 31
0.0
 62
     4
  0
LINE
  8
WORKLAYER
  6
CONTINUOUS
 62
     4
 10
-36.0000000
 20
-52.5000000
 30
0.0
 11
0.0000000
 21
-52.5000000
 31
0.0
 62
     4
  0
LINE
  8
WORKLAYER
  6
CONTINUOUS
 62
     4
 10
0.0000000
 20
-52.5000000
 30
0.0
 11
36.0000000
 21
-52.5000000
 31
0.0
 62
     4
  0
ARC
  8
WORKLAYER
  6
CONTINUOUS
 62
     4
 10
-36.0000000
 20
-39.5000000
 30
0.0
 40
2.0000000
 50
90.0000000
 51
180.0000000
  0
ARC
  8
WORKLAYER
  6
CONTINUOUS
 62
     4
 10
-36.0000000
 20
-50.5000000
 30
0.0
 40
2.0000000
 50
180.0000000
 51
270.0000000
  0
ARC
  8
WORKLAYER
  6
CONTINUOUS
 62
     4
 10
36.0000000
 20
-50.5000000
 30
0.0
 40
2.0000000
 50
270.0000000
 51
0.0000000
  0
ARC
  8
WORKLAYER
  6
CONTINUOUS
 62
     4
 10
36.0000000
 20
-39.5000000
 30
0.0
 40
2.0000000
 50
0.0000000
 51
90.0000000
  0
ENDBLK
  0
BLOCK
  8
AREA
  2
DXF63
 70
    64
 10
0.0
 20
0.0
 30
0.0
  3
DXF63
  0
LINE
  8
AREA
  6
CONTINUOUS
 62
     4
 10
17.4001198
 20
119.0000000
 30
0.0
 11
17.4001198
 21
101.5000000
 31
0.0
 62
     4
  0
LINE
  8
AREA
  6
CONTINUOUS
 62
     4
 10
17.4001198
 20
119.0000000
 30
0.0
 11
16.4001198
 21
120.0000000
 31
0.0
 62
     4
  0
ENDBLK
  0
BLOCK
  8
AREA
  2
DXF68
 70
    64
 10
0.0
 20
0.0
 30
0.0
  3
DXF68
  0
LINE
  8
AREA
  6
CONTINUOUS
 62
     4
 10
23.0000000
 20
87.9999084
 30
0.0
 11
23.0000000
 21
69.3246231
 31
0.0
 62
     4
  0
ARC
  8
AREA
  6
CONTINUOUS
 62
     4
 10
21.0000000
 20
69.3246231
 30
0.0
 40
2.0000000
 50
351.0234070
 51
360.0000000
  0
ARC
  8
AREA
  6
CONTINUOUS
 62
     4
 10
21.0000000
 20
69.3246231
 30
0.0
 40
2.0000000
 50
295.3771057
 51
351.0234070
  0
ENDBLK
  0
BLOCK
  8
AREA
  2
DXF70
 70
    64
 10
0.0
 20
0.0
 30
0.0
  3
DXF70
  0
LINE
  8
AREA
  6
CONTINUOUS
 62
     4
 10
19.0000000
 20
62.9999084
 30
0.0
 11
19.0000000
 21
59.5419006
 31
0.0
 62
     4
  0
LINE
  8
AREA
  6
CONTINUOUS
 62
     4
 10
19.0000000
 20
59.5419006
 30
0.0
 11
19.0000000
 21
38.1842003
 31
0.0
 62
     4
  0
ARC
  8
AREA
  6
CONTINUOUS
 62
     4
 10
24.0000000
 20
38.1842003
 30
0.0
 40
5.0000000
 50
180.0000000
 51
221.8675995
  0
ENDBLK
  0
BLOCK
  8
AREA
  2
DXF77
 70
    64
 10
0.0
 20
0.0
 30
0.0
  3
DXF77
  0
LINE
  8
AREA
  6
CONTINUOUS
 62
     4
 10
-17.4002094
 20
119.0000000
 30
0.0
 11
-17.4002094
 21
101.5000000
 31
0.0
 62
     4
  0
LINE
  8
AREA
  6
CONTINUOUS
 62
     4
 10
-17.4002094
 20
119.0000000
 30
0.0
 11
-16.4002094
 21
120.0000000
 31
0.0
 62
     4
  0
ENDBLK
  0
BLOCK
  8
AREA
  2
DXF82
 70
    64
 10
0.0
 20
0.0
 30
0.0
  3
DXF82
  0
LINE
  8
AREA
  6
CONTINUOUS
 62
     4
 10
-23.0003109
 20
87.9999084
 30
0.0
 11
-23.0003109
 21
69.3246231
 31
0.0
 62
     4
  0
ARC
  8
AREA
  6
CONTINUOUS
 62
     4
 10
-21.0003109
 20
69.3246231
 30
0.0
 40
2.0000000
 50
180.0000000
 51
188.9765930
  0
ARC
  8
AREA
  6
CONTINUOUS
 62
     4
 10
-21.0003109
 20
69.3246231
 30
0.0
 40
2.0000000
 50
188.9765930
 51
244.6228943
  0
ENDBLK
  0
BLOCK
  8
AREA
  2
DXF84
 70
    64
 10
0.0
 20
0.0
 30
0.0
  3
DXF84
  0
LINE
  8
AREA
  6
CONTINUOUS
 62
     4
 10
-19.0003109
 20
62.9999084
 30
0.0
 11
-19.0003109
 21
59.5419006
 31
0.0
 62
     4
  0
LINE
  8
AREA
  6
CONTINUOUS
 62
     4
 10
-19.0003109
 20
59.5419006
 30
0.0
 11
-19.0003109
 21
46.0000000
 31
0.0
 62
     4
  0
ARC
  8
AREA
  6
CONTINUOUS
 62
     4
 10
-24.0003109
 20
46.0000000
 30
0.0
 40
5.0000000
 50
270.0000000
 51
360.0000000
  0
ENDBLK
  0
BLOCK
  8
WORKLAYER
  2
DXF85
 70
    64
 10
0.0
 20
0.0
 30
0.0
  3
DXF85
  0
LINE
  8
WORKLAYER
  6
CONTINUOUS
 62
     4
 10
-1.5000000
 20
-15.0000000
 30
0.0
 11
-1.5000000
 21
-14.0000000
 31
0.0
 62
     4
  0
ARC
  8
WORKLAYER
  6
CONTINUOUS
 62
     4
 10
11.5000000
 20
-14.0000000
 30
0.0
 40
13.0000000
 50
489.7152100
 51
180.0000000
  0
ENDBLK
  0
BLOCK
  8
AREA
  2
DXF86
 70
    64
 10
0.0
 20
0.0
 30
0.0
  3
DXF86
  0
LINE
  8
AREA
  6
CONTINUOUS
 62
     4
 10
23.0000000
 20
-2.5000000
 30
0.0
 11
17.0000000
 21
-5.0000000
 31
0.0
 62
     4
  0
LINE
  8
AREA
  6
CONTINUOUS
 62
     4
 10
17.0000000
 20
-5.0000000
 30
0.0
 11
17.0000000
 21
-4.0000000
 31
0.0
 62
     4
  0
LINE
  8
AREA
  6
CONTINUOUS
 62
     4
 10
17.0000000
 20
-4.0000000
 30
0.0
 11
11.5000000
 21
-4.0000000
 31
0.0
 62
     4
  0
LINE
  8
AREA
  6
CONTINUOUS
 62
     4
 10
3.1932981
 20
-4.0000000
 30
0.0
 11
-16.0000000
 21
-4.0000000
 31
0.0
 62
     4
  0
LINE
  8
AREA
  6
CONTINUOUS
 62
     4
 10
-16.0000000
 20
-4.0000000
 30
0.0
 11
-16.0000000
 21
-1.0000000
 31
0.0
 62
     4
  0
LINE
  8
AREA
  6
CONTINUOUS
 62
     4
 10
-16.0000000
 20
-1.0000000
 30
0.0
 11
11.5000000
 21
-1.0000000
 31
0.0
 62
     4
  0
LINE
  8
AREA
  6
CONTINUOUS
 62
     4
 10
11.5000000
 20
-1.0000000
 30
0.0
 11
17.0000000
 21
-1.0000000
 31
0.0
 62
     4
  0
LINE
  8
AREA
  6
CONTINUOUS
 62
     4
 10
17.0000000
 20
-1.0000000
 30
0.0
 11
17.0000000
 21
0.0000000
 31
0.0
 62
     4
  0
LINE
  8
AREA
  6
CONTINUOUS
 62
     4
 10
17.0000000
 20
0.0000000
 30
0.0
 11
23.0000000
 21
-2.5000000
 31
0.0
 62
     4
  0
ENDBLK
  0
BLOCK
  8
WORKLAYER
  2
DXF87
 70
    64
 10
0.0
 20
0.0
 30
0.0
  3
DXF87
  0
LINE
  8
WORKLAYER
  6
CONTINUOUS
 62
     4
 10
1.5000000
 20
-15.0000000
 30
0.0
 11
1.5000000
 21
-14.0000000
 31
0.0
 62
     4
  0
ARC
  8
WORKLAYER
  6
CONTINUOUS
 62
     4
 10
11.5000000
 20
-14.0000000
 30
0.0
 40
10.0000000
 50
450.0000000
 51
180.0000000
  0
ENDBLK
  0
BLOCK
  8
WORKLAYER
  2
DXF94
 70
    64
 10
0.0
 20
0.0
 30
0.0
  3
DXF94
  0
ARC
  8
WORKLAYER
  6
CONTINUOUS
 62
     4
 10
54.5000000
 20
-9.8873901
 30
0.0
 40
3.5000000
 50
270.0000000
 51
360.0000000
  0
ARC
  8
WORKLAYER
  6
CONTINUOUS
 62
     4
 10
54.5000000
 20
-8.6373901
 30
0.0
 40
3.5000000
 50
360.0000000
 51
411.7871094
  0
ENDBLK
  0
BLOCK
  8
WORKLAYER
  2
DXF95
 70
    64
 10
0.0
 20
0.0
 30
0.0
  3
DXF95
  0
LINE
  8
WORKLAYER
  6
CONTINUOUS
 62
     4
 10
58.0000000
 20
-1.8873900
 30
0.0
 11
58.0000000
 21
-3.1373899
 31
0.0
 62
     4
  0
ARC
  8
WORKLAYER
  6
CONTINUOUS
 62
     4
 10
54.5000000
 20
-1.8873900
 30
0.0
 40
3.5000000
 50
360.0000000
 51
450.0000000
  0
ENDBLK
  0
BLOCK
  8
AREA
  2
DXF99
 70
    64
 10
0.0
 20
0.0
 30
0.0
  3
DXF99
  0
LINE
  8
AREA
  6
CONTINUOUS
 62
     4
 10
-51.5000000
 20
12.2450304
 30
0.0
 11
-49.9161987
 21
6.9652100
 31
0.0
 62
     4
  0
LINE
  8
AREA
  6
CONTINUOUS
 62
     4
 10
-49.4660912
 20
5.4652100
 30
0.0
 11
-48.5661011
 21
2.4652100
 31
0.0
 62
     4
  0
ENDBLK
  0
BLOCK
  8
AREA
  2
DXF102
 70
    64
 10
0.0
 20
0.0
 30
0.0
  3
DXF102
  0
LINE
  8
AREA
  6
CONTINUOUS
 62
     4
 10
-51.5000000
 20
12.2450304
 30
0.0
 11
-53.0841103
 21
6.9652100
 31
0.0
 62
     4
  0
LINE
  8
AREA
  6
CONTINUOUS
 62
     4
 10
-53.5340004
 20
5.4652100
 30
0.0
 11
-54.4338989
 21
2.4652100
 31
0.0
 62
     4
  0
ENDBLK
  0
BLOCK
  8
AREA
  2
DXF111
 70
    64
 10
0.0
 20
0.0
 30
0.0
  3
DXF111
  0
LINE
  8
AREA
  6
CONTINUOUS
 62
     4
 10
44.2500000
 20
-3.8898010
 30
0.0
 11
42.8340111
 21
-8.8873901
 31
0.0
 62
     4
  0
LINE
  8
AREA
  6
CONTINUOUS
 62
     4
 10
42.4090004
 20
-10.3873901
 30
0.0
 11
41.5588989
 21
-13.3873901
 31
0.0
 62
     4
  0
ENDBLK
  0
BLOCK
  8
AREA
  2
DXF114
 70
    64
 10
0.0
 20
0.0
 30
0.0
  3
DXF114
  0
LINE
  8
AREA
  6
CONTINUOUS
 62
     4
 10
44.2500000
 20
-3.8898010
 30
0.0
 11
45.6658897
 21
-8.8873901
 31
0.0
 62
     4
  0
LINE
  8
AREA
  6
CONTINUOUS
 62
     4
 10
46.0909996
 20
-10.3873901
 30
0.0
 11
46.9407997
 21
-13.3873901
 31
0.0
 62
     4
  0
ENDBLK
  0
BLOCK
  8
WORKLAYER
  2
DXF116
 70
    64
 10
0.0
 20
0.0
 30
0.0
  3
DXF116
  0
LINE
  8
WORKLAYER
  6
CONTINUOUS
 62
     4
 10
51.0000000
 20
-11.8873901
 30
0.0
 11
51.0000000
 21
-6.6373901
 31
0.0
 62
     4
  0
LINE
  8
WORKLAYER
  6
CONTINUOUS
 62
     4
 10
51.0000000
 20
-5.1373901
 30
0.0
 11
51.0000000
 21
0.1126099
 31
0.0
 62
     4
  0
ENDBLK
  0
BLOCK
  8
WORKLAYER
  2
DXF117
 70
    64
 10
0.0
 20
0.0
 30
0.0
  3
DXF117
  0
LINE
  8
WORKLAYER
  6
CONTINUOUS
 62
     4
 10
56.5000000
 20
-9.8873901
 30
0.0
 11
56.5000000
 21
-8.6373901
 31
0.0
 62
     4
  0
ARC
  8
WORKLAYER
  6
CONTINUOUS
 62
     4
 10
54.5000000
 20
-9.8873901
 30
0.0
 40
2.0000000
 50
270.0000000
 51
360.0000000
  0
ARC
  8
WORKLAYER
  6
CONTINUOUS
 62
     4
 10
54.5000000
 20
-8.6373901
 30
0.0
 40
2.0000000
 50
360.0000000
 51
450.0000000
  0
ENDBLK
  0
BLOCK
  8
AREA
  2
DXF120
 70
    64
 10
0.0
 20
0.0
 30
0.0
  3
DXF120
  0
LINE
  8
AREA
  6
CONTINUOUS
 62
     4
 10
51.0000000
 20
-6.6373901
 30
0.0
 11
54.5000000
 21
-6.6373901
 31
0.0
 62
     4
  0
ARC
  8
AREA
  6
CONTINUOUS
 62
     4
 10
54.5000000
 20
-3.1373899
 30
0.0
 40
3.5000000
 50
308.2128906
 51
360.0000000
  0
ENDBLK
  0
BLOCK
  8
WORKLAYER
  2
DXF128
 70
    64
 10
0.0
 20
0.0
 30
0.0
  3
DXF128
  0
LINE
  8
WORKLAYER
  6
CONTINUOUS
 62
     4
 10
76.0000000
 20
62.5000000
 30
0.0
 11
92.0000305
 21
62.5000000
 31
0.0
 62
     4
  0
LINE
  8
WORKLAYER
  6
CONTINUOUS
 62
     4
 10
92.0000305
 20
62.5000000
 30
0.0
 11
92.0000305
 21
-62.5000916
 31
0.0
 62
     4
  0
LINE
  8
WORKLAYER
  6
CONTINUOUS
 62
     4
 10
92.0000305
 20
-62.5000916
 30
0.0
 11
76.0000000
 21
-62.5000916
 31
0.0
 62
     4
  0
ARC
  8
WORKLAYER
  6
CONTINUOUS
 62
     4
 10
76.0000000
 20
-60.5000916
 30
0.0
 40
2.0000000
 50
180.0000000
 51
270.0000000
  0
ARC
  8
WORKLAYER
  6
CONTINUOUS
 62
     4
 10
76.0000000
 20
60.5000000
 30
0.0
 40
2.0000000
 50
450.0000000
 51
180.0000000
  0
ENDBLK
  0
BLOCK
  8
WORKLAYER
  2
DXF129
 70
    64
 10
0.0
 20
0.0
 30
0.0
  3
DXF129
  0
LINE
  8
WORKLAYER
  6
CONTINUOUS
 62
     4
 10
-92.0000000
 20
62.5000000
 30
0.0
 11
-76.0000000
 21
62.5000000
 31
0.0
 62
     4
  0
LINE
  8
WORKLAYER
  6
CONTINUOUS
 62
     4
 10
-76.0000000
 20
-62.5000916
 30
0.0
 11
-92.0000000
 21
-62.5000916
 31
0.0
 62
     4
  0
LINE
  8
WORKLAYER
  6
CONTINUOUS
 62
     4
 10
-92.0000000
 20
-62.5000916
 30
0.0
 11
-92.0000000
 21
62.5000000
 31
0.0
 62
     4
  0
ARC
  8
WORKLAYER
  6
CONTINUOUS
 62
     4
 10
-76.0000000
 20
-60.5000916
 30
0.0
 40
2.0000000
 50
270.0000000
 51
360.0000000
  0
ARC
  8
WORKLAYER
  6
CONTINUOUS
 62
     4
 10
-76.0000000
 20
60.5000000
 30
0.0
 40
2.0000000
 50
360.0000000
 51
450.0000000
  0
ENDBLK
  0
BLOCK
  8
WORKLAYER
  2
DXF131
 70
    64
 10
0.0
 20
0.0
 30
0.0
  3
DXF131
  0
LINE
  8
WORKLAYER
  6
CONTINUOUS
 62
     4
 10
-38.0000000
 20
-31.5000000
 30
0.0
 11
-38.0000000
 21
-21.0347004
 31
0.0
 62
     4
  0
ARC
  8
WORKLAYER
  6
CONTINUOUS
 62
     4
 10
36.0000000
 20
-31.5000000
 30
0.0
 40
2.0000000
 50
270.0000000
 51
360.0000000
  0
ARC
  8
WORKLAYER
  6
CONTINUOUS
 62
     4
 10
-36.0000000
 20
-31.5000000
 30
0.0
 40
2.0000000
 50
180.0000000
 51
270.0000000
  0
ENDBLK
  0
BLOCK
  8
WORKLAYER
  2
DXF132
 70
    64
 10
0.0
 20
0.0
 30
0.0
  3
DXF132
  0
LINE
  8
WORKLAYER
  6
CONTINUOUS
 62
     4
 10
-36.5177002
 20
-19.1028709
 30
0.0
 11
-32.7059898
 21
-18.0814800
 31
0.0
 62
     4
  0
ARC
  8
WORKLAYER
  6
CONTINUOUS
 62
     4
 10
-36.0000000
 20
-21.0347004
 30
0.0
 40
2.0000000
 50
465.0000000
 51
180.0000000
  0
ENDBLK
  0
BLOCK
  8
WORKLAYER
  2
DXF135
 70
    64
 10
0.0
 20
0.0
 30
0.0
  3
DXF135
  0
LINE
  8
WORKLAYER
  6
CONTINUOUS
 62
     4
 10
-25.7142906
 20
41.0000000
 30
0.0
 11
-24.0003109
 21
41.0000000
 31
0.0
 62
     4
  0
LINE
  8
WORKLAYER
  6
CONTINUOUS
 62
     4
 10
-24.0003109
 20
41.0000000
 30
0.0
 11
6.5000000
 21
41.0000000
 31
0.0
 62
     4
  0
ARC
  8
WORKLAYER
  6
CONTINUOUS
 62
     4
 10
-25.7142906
 20
22.5000000
 30
0.0
 40
18.5000000
 50
450.0000000
 51
475.9248962
  0
ENDBLK
  0
BLOCK
  8
WORKLAYER
  2
DXF147
 70
    64
 10
0.0
 20
0.0
 30
0.0
  3
DXF147
  0
LINE
  8
WORKLAYER
  6
CONTINUOUS
 62
     4
 10
35.0679893
 20
9.5353088
 30
0.0
 11
58.9999084
 21
15.9396095
 31
0.0
 62
     4
  0
ARC
  8
WORKLAYER
  6
CONTINUOUS
 62
     4
 10
33.0000000
 20
17.2634296
 30
0.0
 40
8.0000000
 50
180.0000000
 51
284.9816895
  0
ENDBLK
  0
BLOCK
  8
WORKLAYER
  2
DXF148
 70
    64
 10
0.0
 20
0.0
 30
0.0
  3
DXF148
  0
LINE
  8
WORKLAYER
  6
CONTINUOUS
 62
     4
 10
69.0000000
 20
-23.0000000
 30
0.0
 11
56.8796997
 21
-23.0000000
 31
0.0
 62
     4
  0
ARC
  8
WORKLAYER
  6
CONTINUOUS
 62
     4
 10
56.8796997
 20
-25.0000000
 30
0.0
 40
2.0000000
 50
450.0000000
 51
464.9819946
  0
ENDBLK
  0
BLOCK
  8
WORKLAYER
  2
DXF151
 70
    64
 10
0.0
 20
0.0
 30
0.0
  3
DXF151
  0
LINE
  8
WORKLAYER
  6
CONTINUOUS
 62
     4
 10
25.0000000
 20
17.2634296
 30
0.0
 11
25.0000000
 21
22.5000000
 31
0.0
 62
     4
  0
ARC
  8
WORKLAYER
  6
CONTINUOUS
 62
     4
 10
6.5000000
 20
22.5000000
 30
0.0
 40
18.5000000
 50
360.0000000
 51
401.8678894
  0
ARC
  8
WORKLAYER
  6
CONTINUOUS
 62
     4
 10
6.5000000
 20
22.5000000
 30
0.0
 40
18.5000000
 50
401.8678894
 51
450.0000000
  0
ENDBLK
  0
BLOCK
  8
WORKLAYER
  2
DXF156
 70
    64
 10
0.0
 20
0.0
 30
0.0
  3
DXF156
  0
LINE
  8
WORKLAYER
  6
CONTINUOUS
 62
     4
 10
-29.0000000
 20
-13.2518902
 30
0.0
 11
-29.0000000
 21
-12.4512901
 31
0.0
 62
     4
  0
ARC
  8
WORKLAYER
  6
CONTINUOUS
 62
     4
 10
-37.0000000
 20
-12.4512901
 30
0.0
 40
8.0000000
 50
360.0000000
 51
475.9249878
  0
ENDBLK
  0
BLOCK
  8
WORKLAYER
  2
DXF164
 70
    64
 10
0.0
 20
0.0
 30
0.0
  3
DXF164
  0
LINE
  8
WORKLAYER
  6
CONTINUOUS
 62
     4
 10
-29.0000000
 20
-12.4512901
 30
0.0
 11
-29.0000000
 21
0.0000000
 31
0.0
 62
     4
  0
ARC
  8
WORKLAYER
  6
CONTINUOUS
 62
     4
 10
-24.0000896
 20
0.0000000
 30
0.0
 40
5.0000000
 50
450.0000000
 51
180.0000000
  0
ENDBLK
  0
BLOCK
  8
WORKLAYER
  2
DXF165
 70
    64
 10
0.0
 20
0.0
 30
0.0
  3
DXF165
  0
LINE
  8
WORKLAYER
  6
CENTER
 62
     2
 10
-95.0000000
 20
0.0000000
 30
0.0
 11
39.1821899
 21
0.0000000
 31
0.0
 62
     2
  0
LINE
  8
WORKLAYER
  6
CENTER
 62
     2
 10
58.5472984
 20
0.0000000
 30
0.0
 11
95.0000305
 21
0.0000000
 31
0.0
 62
     2
  0
ENDBLK
  0
BLOCK
  8
SSYMB
  2
DXF166
 70
    64
 10
0.0
 20
0.0
 30
0.0
  3
DXF166
  0
LINE
  8
SSYMB
  6
CONTINUOUS
 62
     4
 10
4.8331909
 20
-31.5000000
 30
0.0
 11
4.8331909
 21
-22.5000000
 31
0.0
 62
     4
  0
LINE
  8
SSYMB
  6
CONTINUOUS
 62
     4
 10
4.8331909
 20
-22.5000000
 30
0.0
 11
6.0585942
 21
-22.5000000
 31
0.0
 62
     4
  0
LINE
  8
SSYMB
  6
CONTINUOUS
 62
     4
 10
9.2438955
 20
-22.5000000
 30
0.0
 11
10.8439903
 21
-22.5000000
 31
0.0
 62
     4
  0
LINE
  8
SSYMB
  6
CONTINUOUS
 62
     4
 10
4.8331909
 20
-31.5000000
 30
0.0
 11
6.0585942
 21
-31.5000000
 31
0.0
 62
     4
  0
LINE
  8
SSYMB
  6
CONTINUOUS
 62
     4
 10
9.7565918
 20
-31.5000000
 30
0.0
 11
11.2672997
 21
-31.5000000
 31
0.0
 62
     4
  0
LINE
  8
SSYMB
  6
CONTINUOUS
 62
     4
 10
6.0585942
 20
-31.5000000
 30
0.0
 11
6.0585942
 21
-26.3697796
 31
0.0
 62
     4
  0
LINE
  8
SSYMB
  6
CONTINUOUS
 62
     4
 10
6.0585942
 20
-26.2959900
 30
0.0
 11
6.0585942
 21
-22.5000000
 31
0.0
 62
     4
  0
LINE
  8
SSYMB
  6
CONTINUOUS
 62
     4
 10
9.2438955
 20
-22.5000000
 30
0.0
 11
6.0585942
 21
-26.2959900
 31
0.0
 62
     4
  0
LINE
  8
SSYMB
  6
CONTINUOUS
 62
     4
 10
10.8439903
 20
-22.5000000
 30
0.0
 11
7.5820918
 21
-26.3873005
 31
0.0
 62
     4
  0
LINE
  8
SSYMB
  6
CONTINUOUS
 62
     4
 10
7.5820918
 20
-26.3873005
 30
0.0
 11
11.2672997
 21
-31.5000000
 31
0.0
 62
     4
  0
LINE
  8
SSYMB
  6
CONTINUOUS
 62
     4
 10
6.0585942
 20
-26.3697796
 30
0.0
 11
9.7565918
 21
-31.5000000
 31
0.0
 62
     4
  0
ENDBLK
  0
BLOCK
  8
SSYMB
  2
DXF167
 70
    64
 10
0.0
 20
0.0
 30
0.0
  3
DXF167
  0
LINE
  8
SSYMB
  6
CONTINUOUS
 62
     4
 10
-6.2167969
 20
-22.5000000
 30
0.0
 11
-6.2167969
 21
-31.5000000
 31
0.0
 62
     4
  0
LINE
  8
SSYMB
  6
CONTINUOUS
 62
     4
 10
-7.9417109
 20
-25.1250000
 30
0.0
 11
-7.9417109
 21
-31.5000000
 31
0.0
 62
     4
  0
LINE
  8
SSYMB
  6
CONTINUOUS
 62
     4
 10
-9.6668091
 20
-23.8500996
 30
0.0
 11
-9.6668091
 21
-25.1250000
 31
0.0
 62
     4
  0
LINE
  8
SSYMB
  6
CONTINUOUS
 62
     4
 10
-7.9417109
 20
-25.1250000
 30
0.0
 11
-9.6668091
 21
-25.1250000
 31
0.0
 62
     4
  0
ARC
  8
SSYMB
  6
CONTINUOUS
 62
     4
 10
-11.4939003
 20
-19.7377892
 30
0.0
 40
4.4999990
 50
293.9562988
 51
322.1328125
  0
LINE
  8
SSYMB
  6
CONTINUOUS
 62
     4
 10
-7.9417109
 20
-31.5000000
 30
0.0
 11
-6.2167969
 21
-31.5000000
 31
0.0
 62
     4
  0
LINE
  8
SSYMB
  6
CONTINUOUS
 62
     4
 10
-6.2167969
 20
-22.5000000
 30
0.0
 11
-7.9414058
 21
-22.5000000
 31
0.0
 62
     4
  0
ENDBLK
  0
BLOCK
  8
SSYMB
  2
DXF168
 70
    64
 10
0.0
 20
0.0
 30
0.0
  3
DXF168
  0
ARC
  8
SSYMB
  6
CONTINUOUS
 62
     4
 10
5.9731140
 20
-27.0000000
 30
0.0
 40
7.5000000
 50
525.7050171
 51
194.2949066
  0
ARC
  8
SSYMB
  6
CONTINUOUS
 62
     4
 10
-3.9942019
 20
-27.0000000
 30
0.0
 40
7.5000000
 50
342.6477051
 51
377.3522034
  0
ARC
  8
SSYMB
  6
CONTINUOUS
 62
     4
 10
0.0859985
 20
-25.5000000
 30
0.0
 40
1.4250000
 50
374.2948914
 51
525.7050781
  0
ARC
  8
SSYMB
  6
CONTINUOUS
 62
     4
 10
0.0859985
 20
-25.7249794
 30
0.0
 40
3.2249999
 50
377.3522949
 51
522.6477051
  0
ARC
  8
SSYMB
  6
CONTINUOUS
 62
     4
 10
0.0859985
 20
-28.5000000
 30
0.0
 40
1.4250000
 50
194.2949066
 51
345.7051086
  0
ARC
  8
SSYMB
  6
CONTINUOUS
 62
     4
 10
0.0859985
 20
-28.2749901
 30
0.0
 40
3.2249999
 50
197.3522949
 51
342.6477051
  0
ARC
  8
SSYMB
  6
CONTINUOUS
 62
     4
 10
4.1665039
 20
-27.0000000
 30
0.0
 40
7.5000000
 50
522.6477051
 51
197.3522949
  0
ARC
  8
SSYMB
  6
CONTINUOUS
 62
     4
 10
-5.8009028
 20
-27.0000000
 30
0.0
 40
7.5000000
 50
345.7051086
 51
374.2948914
  0
ENDBLK
  0
BLOCK
  8
SSYMB
  2
DXF169
 70
    64
 10
0.0
 20
0.0
 30
0.0
  3
DXF169
  0
LINE
  8
SSYMB
  6
CONTINUOUS
 62
     4
 10
1.4389040
 20
28.9999104
 30
0.0
 11
1.4389040
 21
13.0000000
 31
0.0
 62
     4
  0
LINE
  8
SSYMB
  6
CONTINUOUS
 62
     4
 10
-0.8612061
 20
25.5000000
 30
0.0
 11
-0.8612061
 21
13.0000000
 31
0.0
 62
     4
  0
LINE
  8
SSYMB
  6
CONTINUOUS
 62
     4
 10
-3.1611941
 20
27.1998005
 30
0.0
 11
-3.1611941
 21
25.5000000
 31
0.0
 62
     4
  0
LINE
  8
SSYMB
  6
CONTINUOUS
 62
     4
 10
-0.8612061
 20
25.5000000
 30
0.0
 11
-3.1611941
 21
25.5000000
 31
0.0
 62
     4
  0
ARC
  8
SSYMB
  6
CONTINUOUS
 62
     4
 10
-5.5974121
 20
32.6830101
 30
0.0
 40
5.9999990
 50
293.9562988
 51
322.1328125
  0
LINE
  8
SSYMB
  6
CONTINUOUS
 62
     4
 10
-0.8612061
 20
13.0000000
 30
0.0
 11
1.4389040
 21
13.0000000
 31
0.0
 62
     4
  0
LINE
  8
SSYMB
  6
CONTINUOUS
 62
     4
 10
1.4389040
 20
28.9999104
 30
0.0
 11
-0.8606873
 21
28.9999104
 31
0.0
 62
     4
  0
ENDBLK
  0
BLOCK
  8
WORKLAYER
  2
DXF182
 70
    64
 10
0.0
 20
0.0
 30
0.0
  3
DXF182
  0
LINE
  8
WORKLAYER
  6
CONTINUOUS
 62
     4
 10
284.7481995
 20
-89.2495728
 30
0.0
 11
284.7481995
 21
-60.2504883
 31
0.0
 62
     4
  0
LINE
  8
WORKLAYER
  6
CONTINUOUS
 62
     4
 10
239.7481995
 20
-60.2502708
 30
0.0
 11
239.7481995
 21
-89.2496872
 31
0.0
 62
     4
  0
ARC
  8
WORKLAYER
  6
CONTINUOUS
 62
     4
 10
234.7481995
 20
-60.2502708
 30
0.0
 40
5.0000000
 50
0.0000000
 51
8.6300659
  0
ENDBLK
  0
BLOCK
  8
WORKLAYER
  2
DXF185
 70
    64
 10
0.0
 20
0.0
 30
0.0
  3
DXF185
  0
LINE
  8
WORKLAYER
  6
CONTINUOUS
 62
     4
 10
238.4456024
 20
-93.7100830
 30
0.0
 11
239.4467010
 21
-90.9597778
 31
0.0
 62
     4
  0
ARC
  8
WORKLAYER
  6
CONTINUOUS
 62
     4
 10
233.7471924
 20
-91.9999771
 30
0.0
 40
5.0000000
 50
270.0000000
 51
340.0000000
  0
ARC
  8
WORKLAYER
  6
CONTINUOUS
 62
     4
 10
234.7481995
 20
-89.2496872
 30
0.0
 40
5.0000000
 50
339.9995117
 51
360.0000000
  0
ENDBLK
  0
BLOCK
  8
WORKLAYER
  2
DXF186
 70
    64
 10
0.0
 20
0.0
 30
0.0
  3
DXF186
  0
LINE
  8
WORKLAYER
  6
CONTINUOUS
 62
     4
 10
286.0508118
 20
-93.7100830
 30
0.0
 11
285.0497131
 21
-90.9596863
 31
0.0
 62
     4
  0
ARC
  8
WORKLAYER
  6
CONTINUOUS
 62
     4
 10
290.7492065
 20
-91.9999771
 30
0.0
 40
5.0000000
 50
200.0000000
 51
270.0000000
  0
ARC
  8
WORKLAYER
  6
CONTINUOUS
 62
     4
 10
289.7481995
 20
-89.2495728
 30
0.0
 40
5.0000000
 50
180.0000000
 51
200.0001068
  0
ENDBLK
  0
BLOCK
  8
WORKLAYER
  2
DXF187
 70
    64
 10
0.0
 20
0.0
 30
0.0
  3
DXF187
  0
LINE
  8
WORKLAYER
  6
CONTINUOUS
 62
     4
 10
324.7481995
 20
-115.0000000
 30
0.0
 11
324.7481995
 21
-98.9999771
 31
0.0
 62
     4
  0
LINE
  8
WORKLAYER
  6
CONTINUOUS
 62
     4
 10
322.7481995
 20
-96.9999771
 30
0.0
 11
262.2481995
 21
-96.9999771
 31
0.0
 62
     4
  0
LINE
  8
WORKLAYER
  6
CONTINUOUS
 62
     4
 10
262.2481995
 20
-96.9999771
 30
0.0
 11
201.7481995
 21
-96.9999771
 31
0.0
 62
     4
  0
LINE
  8
WORKLAYER
  6
CONTINUOUS
 62
     4
 10
199.7481995
 20
-98.9999771
 30
0.0
 11
199.7481995
 21
-115.0000000
 31
0.0
 62
     4
  0
LINE
  8
WORKLAYER
  6
CONTINUOUS
 62
     4
 10
199.7481995
 20
-115.0000000
 30
0.0
 11
324.7481995
 21
-115.0000000
 31
0.0
 62
     4
  0
ARC
  8
WORKLAYER
  6
CONTINUOUS
 62
     4
 10
201.7481995
 20
-98.9999771
 30
0.0
 40
2.0000000
 50
90.0000000
 51
180.0000000
  0
ARC
  8
WORKLAYER
  6
CONTINUOUS
 62
     4
 10
322.7481995
 20
-98.9999771
 30
0.0
 40
2.0000000
 50
360.0000000
 51
90.0000000
  0
ENDBLK
  0
BLOCK
  8
WORKLAYER
  2
DXF188
 70
    64
 10
0.0
 20
0.0
 30
0.0
  3
DXF188
  0
LINE
  8
WORKLAYER
  6
CONTINUOUS
 62
     4
 10
300.2481995
 20
-50.5000000
 30
0.0
 11
300.2481995
 21
-49.6210594
 31
0.0
 62
     4
  0
LINE
  8
WORKLAYER
  6
CONTINUOUS
 62
     4
 10
224.2481995
 20
-49.6210594
 30
0.0
 11
224.2481995
 21
-50.5000000
 31
0.0
 62
     4
  0
LINE
  8
WORKLAYER
  6
CONTINUOUS
 62
     4
 10
226.2481995
 20
-52.5000000
 30
0.0
 11
228.3365021
 21
-52.5000000
 31
0.0
 62
     4
  0
LINE
  8
WORKLAYER
  6
CONTINUOUS
 62
     4
 10
296.1597900
 20
-52.5000000
 30
0.0
 11
298.2481995
 21
-52.5000000
 31
0.0
 62
     4
  0
ARC
  8
WORKLAYER
  6
CONTINUOUS
 62
     4
 10
226.2481995
 20
-50.5000000
 30
0.0
 40
2.0000000
 50
180.0000000
 51
270.0000000
  0
ARC
  8
WORKLAYER
  6
CONTINUOUS
 62
     4
 10
298.2481995
 20
-50.5000000
 30
0.0
 40
2.0000000
 50
270.0000000
 51
0.0000000
  0
ENDBLK
  0
BLOCK
  8
0
  2
DXF190
 70
    64
 10
0.0
 20
0.0
 30
0.0
  3
DXF190
  0
LINE
  8
0
  6
CONTINUOUS
 62
     4
 10
19.7842693
 20
-59.5000000
 30
0.0
 11
18.4693203
 21
-58.7408104
 31
0.0
 62
     4
  0
LINE
  8
0
  6
CONTINUOUS
 62
     4
 10
23.2842693
 20
-37.5000000
 30
0.0
 11
23.2842693
 21
-33.5000000
 31
0.0
 62
     4
  0
LINE
  8
0
  6
CONTINUOUS
 62
     4
 10
33.2842712
 20
-37.5000000
 30
0.0
 11
33.2842712
 21
-33.5000000
 31
0.0
 62
     4
  0
LINE
  8
0
  6
CONTINUOUS
 62
     4
 10
38.0992203
 20
-52.5000000
 30
0.0
 11
18.4693203
 21
-52.5000000
 31
0.0
 62
     4
  0
LINE
  8
0
  6
CONTINUOUS
 62
     4
 10
36.7842598
 20
-59.5000000
 30
0.0
 11
19.7842693
 21
-59.5000000
 31
0.0
 62
     4
  0
LINE
  8
0
  6
CONTINUOUS
 62
     4
 10
18.4693203
 20
-58.7408104
 30
0.0
 11
18.4693203
 21
-52.5000000
 31
0.0
 62
     4
  0
LINE
  8
0
  6
CONTINUOUS
 62
     4
 10
38.0992203
 20
-58.7408104
 30
0.0
 11
38.0992203
 21
-52.5000000
 31
0.0
 62
     4
  0
LINE
  8
0
  6
CONTINUOUS
 62
     4
 10
36.7842712
 20
-59.5000000
 30
0.0
 11
38.0992203
 21
-58.7408104
 31
0.0
 62
     4
  0
ARC
  8
0
  6
CONTINUOUS
 62
     4
 10
28.2842693
 20
-44.7775688
 30
0.0
 40
14.7224302
 50
610.5288086
 51
289.4711914
  0
LINE
  8
0
  6
CONTINUOUS
 62
     4
 10
33.1917381
 20
-58.6580086
 30
0.0
 11
33.1917381
 21
-52.5000000
 31
0.0
 62
     4
  0
LINE
  8
0
  6
CONTINUOUS
 62
     4
 10
23.3767891
 20
-58.6580086
 30
0.0
 11
23.3767891
 21
-52.5000000
 31
0.0
 62
     4
  0
ARC
  8
0
  6
CONTINUOUS
 62
     4
 10
36.7842598
 20
-51.4148903
 30
0.0
 40
8.0851116
 50
603.6190186
 51
270.0000000
  0
ARC
  8
0
  6
CONTINUOUS
 62
     4
 10
19.7842693
 20
-51.4148903
 30
0.0
 40
8.0851116
 50
270.0000000
 51
296.3810120
  0
ENDBLK
  0
BLOCK
  8
0
  2
DXF191
 70
    64
 10
0.0
 20
0.0
 30
0.0
  3
DXF191
  0
LINE
  8
0
  6
CONTINUOUS
 62
     4
 10
-19.7842693
 20
-59.5000000
 30
0.0
 11
-18.4693203
 21
-58.7408104
 31
0.0
 62
     4
  0
LINE
  8
0
  6
CONTINUOUS
 62
     4
 10
-23.2842693
 20
-37.5000000
 30
0.0
 11
-23.2842693
 21
-33.5000000
 31
0.0
 62
     4
  0
LINE
  8
0
  6
CONTINUOUS
 62
     4
 10
-33.2842712
 20
-37.5000000
 30
0.0
 11
-33.2842712
 21
-33.5000000
 31
0.0
 62
     4
  0
LINE
  8
0
  6
CONTINUOUS
 62
     4
 10
-38.0992203
 20
-52.5000000
 30
0.0
 11
-18.4693203
 21
-52.5000000
 31
0.0
 62
     4
  0
LINE
  8
0
  6
CONTINUOUS
 62
     4
 10
-36.7842598
 20
-59.5000000
 30
0.0
 11
-19.7842693
 21
-59.5000000
 31
0.0
 62
     4
  0
LINE
  8
0
  6
CONTINUOUS
 62
     4
 10
-18.4693203
 20
-58.7408104
 30
0.0
 11
-18.4693203
 21
-52.5000000
 31
0.0
 62
     4
  0
LINE
  8
0
  6
CONTINUOUS
 62
     4
 10
-38.0992203
 20
-58.7408104
 30
0.0
 11
-38.0992203
 21
-52.5000000
 31
0.0
 62
     4
  0
LINE
  8
0
  6
CONTINUOUS
 62
     4
 10
-36.7842712
 20
-59.5000000
 30
0.0
 11
-38.0992203
 21
-58.7408104
 31
0.0
 62
     4
  0
ARC
  8
0
  6
CONTINUOUS
 62
     4
 10
-28.2842693
 20
-44.7775688
 30
0.0
 40
14.7224302
 50
250.5287933
 51
289.4711914
  0
LINE
  8
0
  6
CONTINUOUS
 62
     4
 10
-33.1917381
 20
-58.6580086
 30
0.0
 11
-33.1917381
 21
-52.5000000
 31
0.0
 62
     4
  0
LINE
  8
0
  6
CONTINUOUS
 62
     4
 10
-23.3767891
 20
-58.6580086
 30
0.0
 11
-23.3767891
 21
-52.5000000
 31
0.0
 62
     4
  0
ARC
  8
0
  6
CONTINUOUS
 62
     4
 10
-36.7842598
 20
-51.4148903
 30
0.0
 40
8.0851116
 50
270.0000000
 51
296.3810120
  0
ARC
  8
0
  6
CONTINUOUS
 62
     4
 10
-19.7842693
 20
-51.4148903
 30
0.0
 40
8.0851116
 50
243.6190033
 51
270.0000000
  0
ENDBLK
  0
BLOCK
  8
0
  2
DXF192
 70
    64
 10
0.0
 20
0.0
 30
0.0
  3
DXF192
  0
LINE
  8
0
  6
CONTINUOUS
 62
     4
 10
282.0325012
 20
-59.5000000
 30
0.0
 11
281.7969971
 21
-59.3640709
 31
0.0
 62
     4
  0
LINE
  8
0
  6
CONTINUOUS
 62
     4
 10
300.3474121
 20
-52.5000000
 30
0.0
 11
296.1599121
 21
-52.5000000
 31
0.0
 62
     4
  0
LINE
  8
0
  6
CONTINUOUS
 62
     4
 10
299.0325012
 20
-59.5000000
 30
0.0
 11
282.0325012
 21
-59.5000000
 31
0.0
 62
     4
  0
LINE
  8
0
  6
CONTINUOUS
 62
     4
 10
300.3474121
 20
-58.7408104
 30
0.0
 11
300.3474121
 21
-52.5000000
 31
0.0
 62
     4
  0
LINE
  8
0
  6
CONTINUOUS
 62
     4
 10
299.0325012
 20
-59.5000000
 30
0.0
 11
300.3474121
 21
-58.7408104
 31
0.0
 62
     4
  0
ARC
  8
0
  6
CONTINUOUS
 62
     4
 10
290.5325012
 20
-44.7775688
 30
0.0
 40
14.7224302
 50
250.5287933
 51
289.4711914
  0
LINE
  8
0
  6
CONTINUOUS
 62
     4
 10
295.4399109
 20
-58.6580086
 30
0.0
 11
295.4399109
 21
-52.9580803
 31
0.0
 62
     4
  0
LINE
  8
0
  6
CONTINUOUS
 62
     4
 10
285.6250000
 20
-58.6580086
 30
0.0
 11
285.6250000
 21
-57.9635696
 31
0.0
 62
     4
  0
ARC
  8
0
  6
CONTINUOUS
 62
     4
 10
299.0325012
 20
-51.4148903
 30
0.0
 40
8.0851116
 50
243.6190033
 51
270.0000000
  0
ARC
  8
0
  6
CONTINUOUS
 62
     4
 10
282.0325012
 20
-51.4148903
 30
0.0
 40
8.0851116
 50
270.0000000
 51
296.3810120
  0
ENDBLK
  0
BLOCK
  8
0
  2
DXF193
 70
    64
 10
0.0
 20
0.0
 30
0.0
  3
DXF193
  0
LINE
  8
0
  6
CONTINUOUS
 62
     4
 10
242.4638977
 20
-59.5000000
 30
0.0
 11
242.6994019
 21
-59.3640709
 31
0.0
 62
     4
  0
LINE
  8
0
  6
CONTINUOUS
 62
     4
 10
224.1490021
 20
-52.5000000
 30
0.0
 11
228.3365021
 21
-52.5000000
 31
0.0
 62
     4
  0
LINE
  8
0
  6
CONTINUOUS
 62
     4
 10
225.4638977
 20
-59.5000000
 30
0.0
 11
242.4638977
 21
-59.5000000
 31
0.0
 62
     4
  0
LINE
  8
0
  6
CONTINUOUS
 62
     4
 10
224.1490021
 20
-58.7408104
 30
0.0
 11
224.1490021
 21
-52.5000000
 31
0.0
 62
     4
  0
LINE
  8
0
  6
CONTINUOUS
 62
     4
 10
225.4638977
 20
-59.5000000
 30
0.0
 11
224.1490021
 21
-58.7408104
 31
0.0
 62
     4
  0
ARC
  8
0
  6
CONTINUOUS
 62
     4
 10
233.9638977
 20
-44.7775688
 30
0.0
 40
14.7224302
 50
250.5287933
 51
289.4711914
  0
LINE
  8
0
  6
CONTINUOUS
 62
     4
 10
229.0565033
 20
-58.6580086
 30
0.0
 11
229.0565033
 21
-52.9580803
 31
0.0
 62
     4
  0
LINE
  8
0
  6
CONTINUOUS
 62
     4
 10
238.8713989
 20
-58.6580086
 30
0.0
 11
238.8713989
 21
-57.9635696
 31
0.0
 62
     4
  0
ARC
  8
0
  6
CONTINUOUS
 62
     4
 10
225.4638977
 20
-51.4148903
 30
0.0
 40
8.0851116
 50
270.0000000
 51
296.3810120
  0
ARC
  8
0
  6
CONTINUOUS
 62
     4
 10
242.4638977
 20
-51.4148903
 30
0.0
 40
8.0851116
 50
243.6190033
 51
270.0000000
  0
ENDBLK
  0
ENDSEC
  0
SECTION
  2
ENTITIES
  0
INSERT
  8
WORKLAYER
  2
DXF1
 10
0.0
 20
0.0
 30
0.0
  0
INSERT
  8
WORKLAYER
  2
DXF2
 10
0.0
 20
0.0
 30
0.0
  0
INSERT
  8
WORKLAYER
  2
DXF3
 10
0.0
 20
0.0
 30
0.0
  0
INSERT
  8
WORKLAYER
  2
DXF4
 10
0.0
 20
0.0
 30
0.0
  0
INSERT
  8
WORKLAYER
  2
DXF5
 10
0.0
 20
0.0
 30
0.0
  0
INSERT
  8
WORKLAYER
  2
DXF6
 10
0.0
 20
0.0
 30
0.0
  0
LINE
  8
WORKLAYER
  6
CENTER
 62
     2
 10
262.2481995
 20
184.2920074
 30
0.0
 11
262.2481995
 21
-119.1325989
 31
0.0
 62
     2
  0
CIRCLE
  8
WORKLAYER
  6
CONTINUOUS
 62
     4
 10
262.2481995
 20
0.0000000
 30
0.0
 40
62.5000000
  0
CIRCLE
  8
WORKLAYER
  6
CENTER
 62
     2
 10
262.2481995
 20
0.0000000
 30
0.0
 40
45.0000000
  0
LINE
  8
WORKLAYER
  6
CENTER
 62
     2
 10
190.4880981
 20
0.0000000
 30
0.0
 11
336.2508850
 21
0.0000000
 31
0.0
 62
     2
  0
LINE
  8
WORKLAYER
  6
CENTER
 62
     2
 10
211.5061035
 20
-50.7420387
 30
0.0
 11
314.5759888
 21
52.3278389
 31
0.0
 62
     2
  0
LINE
  8
WORKLAYER
  6
CENTER
 62
     2
 10
211.5061035
 20
50.7420387
 30
0.0
 11
314.5759888
 21
-52.3278389
 31
0.0
 62
     2
  0
CIRCLE
  8
WORKLAYER
  6
CONTINUOUS
 62
     4
 10
230.4284058
 20
31.8198109
 30
0.0
 40
9.5000000
  0
CIRCLE
  8
WORKLAYER
  6
CONTINUOUS
 62
     4
 10
294.0679932
 20
31.8198109
 30
0.0
 40
9.5000000
  0
CIRCLE
  8
WORKLAYER
  6
CONTINUOUS
 62
     4
 10
294.0679932
 20
-31.8198109
 30
0.0
 40
9.5000000
  0
CIRCLE
  8
WORKLAYER
  6
CONTINUOUS
 62
     4
 10
230.4284058
 20
-31.8198109
 30
0.0
 40
9.5000000
  0
LINE
  8
AREA
  6
CONTINUOUS
 62
     4
 10
279.6482849
 20
119.0000000
 30
0.0
 11
262.2481995
 21
119.0000000
 31
0.0
 62
     4
  0
LINE
  8
AREA
  6
CONTINUOUS
 62
     4
 10
279.6482849
 20
101.5000000
 30
0.0
 11
262.2481995
 21
101.5000000
 31
0.0
 62
     4
  0
LINE
  8
AREA
  6
CONTINUOUS
 62
     4
 10
279.6482849
 20
92.5000000
 30
0.0
 11
262.2481995
 21
92.5000000
 31
0.0
 62
     4
  0
LINE
  8
AREA
  6
CONTINUOUS
 62
     4
 10
279.6482849
 20
87.9999084
 30
0.0
 11
262.2481995
 21
87.9999084
 31
0.0
 62
     4
  0
LINE
  8
AREA
  6
CONTINUOUS
 62
     4
 10
284.7467957
 20
68.0000000
 30
0.0
 11
262.2481995
 21
68.0000000
 31
0.0
 62
     4
  0
LINE
  8
AREA
  6
CONTINUOUS
 62
     4
 10
278.6482849
 20
120.0000000
 30
0.0
 11
262.2481995
 21
120.0000000
 31
0.0
 62
     4
  0
INSERT
  8
AREA
  2
DXF23
 10
0.0
 20
0.0
 30
0.0
  0
LINE
  8
AREA
  6
CONTINUOUS
 62
     4
 10
279.6482849
 20
101.5000000
 30
0.0
 11
278.1784973
 21
94.3000183
 31
0.0
 62
     4
  0
ARC
  8
AREA
  6
CONTINUOUS
 62
     4
 10
279.6482849
 20
94.0000000
 30
0.0
 40
1.5000000
 50
168.4635010
 51
270.0000000
  0
LINE
  8
AREA
  6
CONTINUOUS
 62
     4
 10
279.6482849
 20
92.5000000
 30
0.0
 11
279.6482849
 21
87.9999084
 31
0.0
 62
     4
  0
LINE
  8
AREA
  6
CONTINUOUS
 62
     4
 10
285.2481995
 20
87.9999084
 30
0.0
 11
279.6482849
 21
87.9999084
 31
0.0
 62
     4
  0
INSERT
  8
AREA
  2
DXF28
 10
0.0
 20
0.0
 30
0.0
  0
ARC
  8
AREA
  6
CONTINUOUS
 62
     4
 10
286.2481995
 20
62.9999084
 30
0.0
 40
5.0000000
 50
115.3768997
 51
180.0000000
  0
LINE
  8
AREA
  6
CONTINUOUS
 62
     4
 10
244.8480072
 20
119.0000000
 30
0.0
 11
262.2481995
 21
119.0000000
 31
0.0
 62
     4
  0
LINE
  8
AREA
  6
CONTINUOUS
 62
     4
 10
244.8480072
 20
101.5000000
 30
0.0
 11
262.2481995
 21
101.5000000
 31
0.0
 62
     4
  0
LINE
  8
AREA
  6
CONTINUOUS
 62
     4
 10
244.8480072
 20
92.5000000
 30
0.0
 11
262.2481995
 21
92.5000000
 31
0.0
 62
     4
  0
LINE
  8
AREA
  6
CONTINUOUS
 62
     4
 10
244.8480072
 20
87.9999084
 30
0.0
 11
262.2481995
 21
87.9999084
 31
0.0
 62
     4
  0
LINE
  8
AREA
  6
CONTINUOUS
 62
     4
 10
239.7494965
 20
68.0000000
 30
0.0
 11
262.2478943
 21
68.0000000
 31
0.0
 62
     4
  0
LINE
  8
AREA
  6
CONTINUOUS
 62
     4
 10
245.8480072
 20
120.0000000
 30
0.0
 11
262.2478943
 21
120.0000000
 31
0.0
 62
     4
  0
INSERT
  8
AREA
  2
DXF36
 10
0.0
 20
0.0
 30
0.0
  0
LINE
  8
AREA
  6
CONTINUOUS
 62
     4
 10
244.8480072
 20
101.5000000
 30
0.0
 11
246.3175964
 21
94.3000183
 31
0.0
 62
     4
  0
ARC
  8
AREA
  6
CONTINUOUS
 62
     4
 10
244.8480072
 20
94.0000000
 30
0.0
 40
1.5000000
 50
270.0000000
 51
11.5365000
  0
LINE
  8
AREA
  6
CONTINUOUS
 62
     4
 10
244.8480072
 20
92.5000000
 30
0.0
 11
244.8480072
 21
87.9999084
 31
0.0
 62
     4
  0
LINE
  8
AREA
  6
CONTINUOUS
 62
     4
 10
239.2478943
 20
87.9999084
 30
0.0
 11
244.8480072
 21
87.9999084
 31
0.0
 62
     4
  0
INSERT
  8
AREA
  2
DXF41
 10
0.0
 20
0.0
 30
0.0
  0
ARC
  8
AREA
  6
CONTINUOUS
 62
     4
 10
238.2478943
 20
62.9999084
 30
0.0
 40
5.0000000
 50
0.0000000
 51
64.6231079
  0
LINE
  8
AREA
  6
CONTINUOUS
 62
     4
 10
243.2478943
 20
62.9999084
 30
0.0
 11
243.2478943
 21
59.5419006
 31
0.0
 62
     4
  0
LINE
  8
AREA
  6
CONTINUOUS
 62
     4
 10
281.2481995
 20
62.9999084
 30
0.0
 11
281.2481995
 21
59.5419006
 31
0.0
 62
     4
  0
CIRCLE
  8
WORKLAYER
  6
CONTINUOUS
 62
     4
 10
262.2481995
 20
0.0000000
 30
0.0
 40
12.5000000
  0
INSERT
  8
WORKLAYER
  2
DXF46
 10
0.0
 20
0.0
 30
0.0
  0
INSERT
  8
WORKLAYER
  2
DXF47
 10
0.0
 20
0.0
 30
0.0
  0
INSERT
  8
WORKLAYER
  2
DXF48
 10
0.0
 20
0.0
 30
0.0
  0
LINE
  8
WORKLAYER
  6
CENTER
 62
     2
 10
45.0000000
 20
-94.0000916
 30
0.0
 11
45.0000000
 21
-118.0000992
 31
0.0
 62
     2
  0
LINE
  8
WORKLAYER
  6
CENTER
 62
     2
 10
-45.0000000
 20
-94.0000916
 30
0.0
 11
-45.0000000
 21
-118.0000992
 31
0.0
 62
     2
  0
INSERT
  8
WORKLAYER
  2
DXF51
 10
0.0
 20
0.0
 30
0.0
  0
INSERT
  8
WORKLAYER
  2
DXF52
 10
0.0
 20
0.0
 30
0.0
  0
INSERT
  8
WORKLAYER
  2
DXF53
 10
0.0
 20
0.0
 30
0.0
  0
INSERT
  8
WORKLAYER
  2
DXF54
 10
0.0
 20
0.0
 30
0.0
  0
ARC
  8
WORKLAYER
  6
CONTINUOUS
 62
     4
 10
27.5000000
 20
-60.2504883
 30
0.0
 40
5.0000000
 50
171.3674011
 51
180.0000000
  0
INSERT
  8
WORKLAYER
  2
DXF56
 10
0.0
 20
0.0
 30
0.0
  0
LINE
  8
AREA
  6
CONTINUOUS
 62
     4
 10
17.4001198
 20
119.0000000
 30
0.0
 11
0.0000000
 21
119.0000000
 31
0.0
 62
     4
  0
LINE
  8
AREA
  6
CONTINUOUS
 62
     4
 10
17.4001198
 20
101.5000000
 30
0.0
 11
0.0000000
 21
101.5000000
 31
0.0
 62
     4
  0
LINE
  8
AREA
  6
CONTINUOUS
 62
     4
 10
17.4001198
 20
92.5000000
 30
0.0
 11
0.0000000
 21
92.5000000
 31
0.0
 62
     4
  0
LINE
  8
AREA
  6
CONTINUOUS
 62
     4
 10
17.4001198
 20
87.9999084
 30
0.0
 11
0.0000000
 21
87.9999084
 31
0.0
 62
     4
  0
LINE
  8
AREA
  6
CONTINUOUS
 62
     4
 10
22.4986000
 20
68.0000000
 30
0.0
 11
0.0000000
 21
68.0000000
 31
0.0
 62
     4
  0
LINE
  8
AREA
  6
CONTINUOUS
 62
     4
 10
16.4001198
 20
120.0000000
 30
0.0
 11
0.0000000
 21
120.0000000
 31
0.0
 62
     4
  0
INSERT
  8
AREA
  2
DXF63
 10
0.0
 20
0.0
 30
0.0
  0
LINE
  8
AREA
  6
CONTINUOUS
 62
     4
 10
17.4001198
 20
101.5000000
 30
0.0
 11
15.9302998
 21
94.3000183
 31
0.0
 62
     4
  0
ARC
  8
AREA
  6
CONTINUOUS
 62
     4
 10
17.4001198
 20
94.0000000
 30
0.0
 40
1.5000000
 50
528.4635010
 51
270.0000000
  0
LINE
  8
AREA
  6
CONTINUOUS
 62
     4
 10
17.4001198
 20
92.5000000
 30
0.0
 11
17.4001198
 21
87.9999084
 31
0.0
 62
     4
  0
LINE
  8
AREA
  6
CONTINUOUS
 62
     4
 10
23.0000000
 20
87.9999084
 30
0.0
 11
17.4001198
 21
87.9999084
 31
0.0
 62
     4
  0
INSERT
  8
AREA
  2
DXF68
 10
0.0
 20
0.0
 30
0.0
  0
ARC
  8
AREA
  6
CONTINUOUS
 62
     4
 10
24.0000000
 20
62.9999084
 30
0.0
 40
5.0000000
 50
475.3768921
 51
180.0000000
  0
INSERT
  8
AREA
  2
DXF70
 10
0.0
 20
0.0
 30
0.0
  0
LINE
  8
AREA
  6
CONTINUOUS
 62
     4
 10
-17.4002094
 20
119.0000000
 30
0.0
 11
0.0000000
 21
119.0000000
 31
0.0
 62
     4
  0
LINE
  8
AREA
  6
CONTINUOUS
 62
     4
 10
-17.4002094
 20
101.5000000
 30
0.0
 11
0.0000000
 21
101.5000000
 31
0.0
 62
     4
  0
LINE
  8
AREA
  6
CONTINUOUS
 62
     4
 10
-17.4002094
 20
92.5000000
 30
0.0
 11
0.0000000
 21
92.5000000
 31
0.0
 62
     4
  0
LINE
  8
AREA
  6
CONTINUOUS
 62
     4
 10
-17.4002094
 20
87.9999084
 30
0.0
 11
0.0000000
 21
87.9999084
 31
0.0
 62
     4
  0
LINE
  8
AREA
  6
CONTINUOUS
 62
     4
 10
-22.4986897
 20
68.0000000
 30
0.0
 11
-0.0003052
 21
68.0000000
 31
0.0
 62
     4
  0
LINE
  8
AREA
  6
CONTINUOUS
 62
     4
 10
-16.4002094
 20
120.0000000
 30
0.0
 11
-0.0003052
 21
120.0000000
 31
0.0
 62
     4
  0
INSERT
  8
AREA
  2
DXF77
 10
0.0
 20
0.0
 30
0.0
  0
LINE
  8
AREA
  6
CONTINUOUS
 62
     4
 10
-17.4002094
 20
101.5000000
 30
0.0
 11
-15.9306002
 21
94.3000183
 31
0.0
 62
     4
  0
ARC
  8
AREA
  6
CONTINUOUS
 62
     4
 10
-17.4002094
 20
94.0000000
 30
0.0
 40
1.5000000
 50
270.0000000
 51
371.5364990
  0
LINE
  8
AREA
  6
CONTINUOUS
 62
     4
 10
-17.4002094
 20
92.5000000
 30
0.0
 11
-17.4002094
 21
87.9999084
 31
0.0
 62
     4
  0
LINE
  8
AREA
  6
CONTINUOUS
 62
     4
 10
-23.0003109
 20
87.9999084
 30
0.0
 11
-17.4002094
 21
87.9999084
 31
0.0
 62
     4
  0
INSERT
  8
AREA
  2
DXF82
 10
0.0
 20
0.0
 30
0.0
  0
ARC
  8
AREA
  6
CONTINUOUS
 62
     4
 10
-24.0003109
 20
62.9999084
 30
0.0
 40
5.0000000
 50
360.0000000
 51
424.6231079
  0
INSERT
  8
AREA
  2
DXF84
 10
0.0
 20
0.0
 30
0.0
  0
INSERT
  8
WORKLAYER
  2
DXF85
 10
0.0
 20
0.0
 30
0.0
  0
INSERT
  8
AREA
  2
DXF86
 10
0.0
 20
0.0
 30
0.0
  0
INSERT
  8
WORKLAYER
  2
DXF87
 10
0.0
 20
0.0
 30
0.0
  0
LINE
  8
AREA
  6
CONTINUOUS
 62
     4
 10
1.5000000
 20
-15.0000000
 30
0.0
 11
-1.5000000
 21
-15.0000000
 31
0.0
 62
     4
  0
LINE
  8
WORKLAYER
  6
CENTER
 62
     2
 10
-71.0000000
 20
45.0000000
 30
0.0
 11
-95.0000000
 21
45.0000000
 31
0.0
 62
     2
  0
LINE
  8
WORKLAYER
  6
CENTER
 62
     2
 10
-71.0000000
 20
-45.0000000
 30
0.0
 11
-95.0000000
 21
-45.0000000
 31
0.0
 62
     2
  0
LINE
  8
WORKLAYER
  6
CENTER
 62
     2
 10
71.0000000
 20
-45.0000000
 30
0.0
 11
95.0000305
 21
-45.0000000
 31
0.0
 62
     2
  0
LINE
  8
WORKLAYER
  6
CENTER
 62
     2
 10
71.0000000
 20
45.0000000
 30
0.0
 11
95.0000305
 21
45.0000000
 31
0.0
 62
     2
  0
ARC
  8
AREA
  6
CONTINUOUS
 62
     4
 10
-63.9845009
 20
3.8965149
 30
0.0
 40
37.0000000
 50
373.5975037
 51
406.5694885
  0
INSERT
  8
WORKLAYER
  2
DXF94
 10
0.0
 20
0.0
 30
0.0
  0
INSERT
  8
WORKLAYER
  2
DXF95
 10
0.0
 20
0.0
 30
0.0
  0
LINE
  8
AREA
  6
CONTINUOUS
 62
     4
 10
58.0000000
 20
-9.8873901
 30
0.0
 11
58.0000000
 21
-8.6373901
 31
0.0
 62
     4
  0
LINE
  8
AREA
  6
CONTINUOUS
 62
     4
 10
49.5000000
 20
-13.3873901
 30
0.0
 11
54.5000000
 21
-13.3873901
 31
0.0
 62
     4
  0
LINE
  8
AREA
  6
CONTINUOUS
 62
     4
 10
49.5000000
 20
1.6126100
 30
0.0
 11
54.5000000
 21
1.6126100
 31
0.0
 62
     4
  0
INSERT
  8
AREA
  2
DXF99
 10
0.0
 20
0.0
 30
0.0
  0
LINE
  8
AREA
  6
CONTINUOUS
 62
     4
 10
-48.5661011
 20
2.4652100
 30
0.0
 11
-47.0000000
 21
2.4652100
 31
0.0
 62
     4
  0
LINE
  8
AREA
  6
CONTINUOUS
 62
     4
 10
-51.5000000
 20
17.4652100
 30
0.0
 11
-56.0000000
 21
2.4652100
 31
0.0
 62
     4
  0
INSERT
  8
AREA
  2
DXF102
 10
0.0
 20
0.0
 30
0.0
  0
LINE
  8
AREA
  6
CONTINUOUS
 62
     4
 10
-53.5340004
 20
5.4652100
 30
0.0
 11
-49.4660912
 21
5.4652100
 31
0.0
 62
     4
  0
LINE
  8
AREA
  6
CONTINUOUS
 62
     4
 10
-53.0841103
 20
6.9652100
 30
0.0
 11
-49.9161987
 21
6.9652100
 31
0.0
 62
     4
  0
LINE
  8
AREA
  6
CONTINUOUS
 62
     4
 10
-54.4338989
 20
2.4652100
 30
0.0
 11
-56.0000000
 21
2.4652100
 31
0.0
 62
     4
  0
LINE
  8
AREA
  6
CONTINUOUS
 62
     4
 10
-51.5000000
 20
17.4652100
 30
0.0
 11
-47.0000000
 21
2.4652100
 31
0.0
 62
     4
  0
LINE
  8
AREA
  6
CONTINUOUS
 62
     4
 10
41.5588989
 20
-13.3873901
 30
0.0
 11
40.0000000
 21
-13.3873901
 31
0.0
 62
     4
  0
LINE
  8
WORKLAYER
  6
CONTINUOUS
 62
     4
 10
49.5000000
 20
-13.3873901
 30
0.0
 11
49.5000000
 21
1.6126100
 31
0.0
 62
     4
  0
LINE
  8
AREA
  6
CONTINUOUS
 62
     4
 10
46.9407997
 20
-13.3873901
 30
0.0
 11
48.5000000
 21
-13.3873901
 31
0.0
 62
     4
  0
LINE
  8
AREA
  6
CONTINUOUS
 62
     4
 10
44.2500000
 20
1.6126100
 30
0.0
 11
40.0000000
 21
-13.3873901
 31
0.0
 62
     4
  0
INSERT
  8
AREA
  2
DXF111
 10
0.0
 20
0.0
 30
0.0
  0
LINE
  8
AREA
  6
CONTINUOUS
 62
     4
 10
42.4090004
 20
-10.3873901
 30
0.0
 11
46.0909996
 21
-10.3873901
 31
0.0
 62
     4
  0
LINE
  8
AREA
  6
CONTINUOUS
 62
     4
 10
42.8340111
 20
-8.8873901
 30
0.0
 11
45.6658897
 21
-8.8873901
 31
0.0
 62
     4
  0
INSERT
  8
AREA
  2
DXF114
 10
0.0
 20
0.0
 30
0.0
  0
LINE
  8
AREA
  6
CONTINUOUS
 62
     4
 10
44.2500000
 20
1.6126100
 30
0.0
 11
48.5000000
 21
-13.3873901
 31
0.0
 62
     4
  0
INSERT
  8
WORKLAYER
  2
DXF116
 10
0.0
 20
0.0
 30
0.0
  0
INSERT
  8
WORKLAYER
  2
DXF117
 10
0.0
 20
0.0
 30
0.0
  0
LINE
  8
AREA
  6
CONTINUOUS
 62
     4
 10
51.0000000
 20
-11.8873901
 30
0.0
 11
54.5000000
 21
-11.8873901
 31
0.0
 62
     4
  0
LINE
  8
AREA
  6
CONTINUOUS
 62
     4
 10
51.0000000
 20
0.1126099
 30
0.0
 11
54.5000000
 21
0.1126099
 31
0.0
 62
     4
  0
INSERT
  8
AREA
  2
DXF120
 10
0.0
 20
0.0
 30
0.0
  0
LINE
  8
AREA
  6
CONTINUOUS
 62
     4
 10
51.0000000
 20
-5.1373901
 30
0.0
 11
54.5000000
 21
-5.1373901
 31
0.0
 62
     4
  0
ARC
  8
WORKLAYER
  6
CONTINUOUS
 62
     4
 10
54.5000000
 20
-1.8873900
 30
0.0
 40
2.0000000
 50
360.0000000
 51
450.0000000
  0
ARC
  8
WORKLAYER
  6
CONTINUOUS
 62
     4
 10
54.5000000
 20
-3.1373899
 30
0.0
 40
2.0000000
 50
270.0000000
 51
360.0000000
  0
LINE
  8
WORKLAYER
  6
CONTINUOUS
 62
     4
 10
56.5000000
 20
-1.8873900
 30
0.0
 11
56.5000000
 21
-3.1373899
 31
0.0
 62
     4
  0
LINE
  8
AREA
  6
CONTINUOUS
 62
     4
 10
-24.0000896
 20
4.9999080
 30
0.0
 11
17.4230995
 21
4.9999080
 31
0.0
 62
     4
  0
LINE
  8
WORKLAYER
  6
CENTER
 62
     2
 10
-9.0000000
 20
55.0000000
 30
0.0
 11
9.0000000
 21
55.0000000
 31
0.0
 62
     2
  0
ARC
  8
WORKLAYER
  6
CONTINUOUS
 62
     4
 10
61.7980995
 20
9.1415100
 30
0.0
 40
37.0000000
 50
189.4362030
 51
225.0749054
  0
INSERT
  8
WORKLAYER
  2
DXF128
 10
0.0
 20
0.0
 30
0.0
  0
INSERT
  8
WORKLAYER
  2
DXF129
 10
0.0
 20
0.0
 30
0.0
  0
LINE
  8
WORKLAYER
  6
CONTINUOUS
 62
     4
 10
-69.0000000
 20
-28.0000000
 30
0.0
 11
-42.8373985
 21
-28.0000000
 31
0.0
 62
     4
  0
INSERT
  8
WORKLAYER
  2
DXF131
 10
0.0
 20
0.0
 30
0.0
  0
INSERT
  8
WORKLAYER
  2
DXF132
 10
0.0
 20
0.0
 30
0.0
  0
LINE
  8
WORKLAYER
  6
CONTINUOUS
 62
     4
 10
-59.0000000
 20
-14.2505798
 30
0.0
 11
-71.5194092
 21
-21.5529804
 31
0.0
 62
     4
  0
ARC
  8
WORKLAYER
  6
CONTINUOUS
 62
     4
 10
36.0000000
 20
-20.9640808
 30
0.0
 40
2.0000000
 50
360.0000000
 51
401.4096069
  0
INSERT
  8
WORKLAYER
  2
DXF135
 10
0.0
 20
0.0
 30
0.0
  0
ARC
  8
WORKLAYER
  6
CONTINUOUS
 62
     4
 10
69.0000000
 20
27.9999104
 30
0.0
 40
5.0000000
 50
270.0000000
 51
360.0000000
  0
LINE
  8
WORKLAYER
  6
CONTINUOUS
 62
     4
 10
38.0000000
 20
-31.5000000
 30
0.0
 11
38.0000000
 21
-20.9640808
 31
0.0
 62
     4
  0
ARC
  8
WORKLAYER
  6
CONTINUOUS
 62
     4
 10
29.3472900
 20
27.9999104
 30
0.0
 40
5.0000000
 50
193.5352020
 51
270.0000000
  0
LINE
  8
WORKLAYER
  6
CONTINUOUS
 62
     4
 10
-59.0000000
 20
26.8894005
 30
0.0
 11
-67.7562027
 21
24.6190205
 31
0.0
 62
     4
  0
LINE
  8
WORKLAYER
  6
CONTINUOUS
 62
     4
 10
-59.0003090
 20
-14.2507000
 30
0.0
 11
-40.4975891
 21
-5.2562871
 31
0.0
 62
     4
  0
LINE
  8
WORKLAYER
  6
CONTINUOUS
 62
     4
 10
69.0000000
 20
23.0000000
 30
0.0
 11
29.3472900
 21
23.0000000
 31
0.0
 62
     4
  0
ARC
  8
WORKLAYER
  6
CONTINUOUS
 62
     4
 10
39.0000000
 20
-18.3183899
 30
0.0
 40
2.0000000
 50
180.0000000
 51
221.4096069
  0
ARC
  8
WORKLAYER
  6
CONTINUOUS
 62
     4
 10
-69.0000000
 20
-25.8719807
 30
0.0
 40
5.0000000
 50
480.2546997
 51
180.0000000
  0
ARC
  8
WORKLAYER
  6
CONTINUOUS
 62
     4
 10
-42.8373985
 20
-33.0000000
 30
0.0
 40
5.0000000
 50
372.3738098
 51
450.0000000
  0
ARC
  8
WORKLAYER
  6
CONTINUOUS
 62
     4
 10
-69.0000000
 20
-33.0000000
 30
0.0
 40
5.0000000
 50
450.0000000
 51
180.0000000
  0
LINE
  8
WORKLAYER
  6
CONTINUOUS
 62
     4
 10
41.6998901
 20
-26.9917908
 30
0.0
 11
56.3624916
 21
-23.0679893
 31
0.0
 62
     4
  0
INSERT
  8
WORKLAYER
  2
DXF147
 10
0.0
 20
0.0
 30
0.0
  0
INSERT
  8
WORKLAYER
  2
DXF148
 10
0.0
 20
0.0
 30
0.0
  0
LINE
  8
WORKLAYER
  6
CONTINUOUS
 62
     4
 10
71.1293869
 20
21.6487999
 30
0.0
 11
59.0000000
 21
15.9397297
 31
0.0
 62
     4
  0
ARC
  8
WORKLAYER
  6
CONTINUOUS
 62
     4
 10
-69.0000000
 20
29.4618206
 30
0.0
 40
5.0000000
 50
180.0000000
 51
284.5364075
  0
INSERT
  8
WORKLAYER
  2
DXF151
 10
0.0
 20
0.0
 30
0.0
  0
ARC
  8
WORKLAYER
  6
CONTINUOUS
 62
     4
 10
69.0000000
 20
-28.0000000
 30
0.0
 40
5.0000000
 50
360.0000000
 51
450.0000000
  0
ARC
  8
WORKLAYER
  6
CONTINUOUS
 62
     4
 10
69.0000000
 20
26.1727009
 30
0.0
 40
5.0000000
 50
295.2059021
 51
360.0000000
  0
ARC
  8
WORKLAYER
  6
CONTINUOUS
 62
     4
 10
42.9924889
 20
-31.8218994
 30
0.0
 40
5.0000000
 50
464.9815979
 51
537.3646851
  0
ARC
  8
WORKLAYER
  6
CONTINUOUS
 62
     4
 10
-34.0000000
 20
-13.2518902
 30
0.0
 40
5.0000000
 50
285.0000916
 51
360.0000000
  0
INSERT
  8
WORKLAYER
  2
DXF156
 10
0.0
 20
0.0
 30
0.0
  0
LINE
  8
WORKLAYER
  6
CONTINUOUS
 62
     4
 10
-59.0000916
 20
26.8894005
 30
0.0
 11
-33.8024902
 21
39.1383095
 31
0.0
 62
     4
  0
LINE
  8
WORKLAYER
  6
CONTINUOUS
 62
     4
 10
-74.0000000
 20
-60.5000916
 30
0.0
 11
-74.0000000
 21
60.5000000
 31
0.0
 62
     4
  0
LINE
  8
WORKLAYER
  6
CONTINUOUS
 62
     4
 10
74.0000000
 20
-60.5000916
 30
0.0
 11
74.0000000
 21
60.5000000
 31
0.0
 62
     4
  0
LINE
  8
WORKLAYER
  6
CONTINUOUS
 62
     4
 10
-36.0000000
 20
-33.5000000
 30
0.0
 11
36.0000000
 21
-33.5000000
 31
0.0
 62
     4
  0
LINE
  8
WORKLAYER
  6
CONTINUOUS
 62
     4
 10
-36.0000000
 20
-19.5000000
 30
0.0
 11
36.0000000
 21
-19.5000000
 31
0.0
 62
     4
  0
LINE
  8
WORKLAYER
  6
CONTINUOUS
 62
     4
 10
-59.0000000
 20
-13.2505798
 30
0.0
 11
-59.0000000
 21
25.8894005
 31
0.0
 62
     4
  0
LINE
  8
WORKLAYER
  6
CONTINUOUS
 62
     4
 10
58.9999084
 20
14.9396095
 30
0.0
 11
58.9999084
 21
-22.0000000
 31
0.0
 62
     4
  0
INSERT
  8
WORKLAYER
  2
DXF164
 10
0.0
 20
0.0
 30
0.0
  0
INSERT
  8
WORKLAYER
  2
DXF165
 10
0.0
 20
0.0
 30
0.0
  0
INSERT
  8
SSYMB
  2
DXF166
 10
0.0
 20
0.0
 30
0.0
  0
INSERT
  8
SSYMB
  2
DXF167
 10
0.0
 20
0.0
 30
0.0
  0
INSERT
  8
SSYMB
  2
DXF168
 10
0.0
 20
0.0
 30
0.0
  0
INSERT
  8
SSYMB
  2
DXF169
 10
0.0
 20
0.0
 30
0.0
  0
LINE
  8
WORKLAYER
  6
CONTINUOUS
 62
     4
 10
23.2842693
 20
-35.0000000
 30
0.0
 11
-23.2842693
 21
-35.0000000
 31
0.0
 62
     4
  0
LINE
  8
WORKLAYER
  6
CENTER
 62
     2
 10
0.0000000
 20
-132.1044006
 30
0.0
 11
0.0000000
 21
183.1595001
 31
0.0
 62
     2
  0
ARC
  8
0
  6
CONTINUOUS
 62
     4
 10
0.3970947
 20
57.8011208
 30
0.0
 40
2.8010869
 50
630.0000000
 51
360.0000000
  0
LINE
  8
0
  6
CONTINUOUS
 62
     4
 10
-10.0068998
 20
63.0032005
 30
0.0
 11
-2.8041990
 21
63.0032005
 31
0.0
 62
     4
  0
LINE
  8
0
  6
CONTINUOUS
 62
     4
 10
-2.8041990
 20
63.0032005
 30
0.0
 11
-2.8041990
 21
55.0000000
 31
0.0
 62
     4
  0
LINE
  8
0
  6
CONTINUOUS
 62
     4
 10
-10.0068998
 20
63.0032005
 30
0.0
 11
-2.8041990
 21
55.0000000
 31
0.0
 62
     4
  0
LINE
  8
0
  6
CONTINUOUS
 62
     4
 10
3.1982119
 20
63.0032005
 30
0.0
 11
3.1982119
 21
57.8011208
 31
0.0
 62
     4
  0
LINE
  8
0
  6
CONTINUOUS
 62
     4
 10
0.3970947
 20
55.0000000
 30
0.0
 11
-2.2038879
 21
55.0000000
 31
0.0
 62
     4
  0
LINE
  8
0
  6
CONTINUOUS
 62
     4
 10
-8.2062988
 20
46.9969215
 30
0.0
 11
-2.2038879
 21
55.0000000
 31
0.0
 62
     4
  0
LINE
  8
0
  6
CONTINUOUS
 62
     4
 10
-8.2062988
 20
46.9969215
 30
0.0
 11
-1.2034910
 21
46.9969215
 31
0.0
 62
     4
  0
LINE
  8
0
  6
CONTINUOUS
 62
     4
 10
10.6011000
 20
63.0032005
 30
0.0
 11
3.1982119
 21
63.0032005
 31
0.0
 62
     4
  0
LINE
  8
0
  6
CONTINUOUS
 62
     4
 10
10.6011000
 20
63.0032005
 30
0.0
 11
-1.2034910
 21
46.9969215
 31
0.0
 62
     4
  0
INSERT
  8
WORKLAYER
  2
DXF182
 10
0.0
 20
0.0
 30
0.0
  0
LINE
  8
WORKLAYER
  6
CENTER
 62
     2
 10
307.2481995
 20
-94.0000916
 30
0.0
 11
307.2481995
 21
-118.0000992
 31
0.0
 62
     2
  0
LINE
  8
WORKLAYER
  6
CENTER
 62
     2
 10
217.2481995
 20
-94.0000916
 30
0.0
 11
217.2481995
 21
-118.0000992
 31
0.0
 62
     2
  0
INSERT
  8
WORKLAYER
  2
DXF185
 10
0.0
 20
0.0
 30
0.0
  0
INSERT
  8
WORKLAYER
  2
DXF186
 10
0.0
 20
0.0
 30
0.0
  0
INSERT
  8
WORKLAYER
  2
DXF187
 10
0.0
 20
0.0
 30
0.0
  0
INSERT
  8
WORKLAYER
  2
DXF188
 10
0.0
 20
0.0
 30
0.0
  0
ARC
  8
WORKLAYER
  6
CONTINUOUS
 62
     4
 10
289.7481995
 20
-60.2504883
 30
0.0
 40
5.0000000
 50
171.3674011
 51
180.0000000
  0
INSERT
  8
0
  2
DXF190
 10
0.0
 20
0.0
 30
0.0
  0
INSERT
  8
0
  2
DXF191
 10
0.0
 20
0.0
 30
0.0
  0
INSERT
  8
0
  2
DXF192
 10
0.0
 20
0.0
 30
0.0
  0
INSERT
  8
0
  2
DXF193
 10
0.0
 20
0.0
 30
0.0
  0
ENDSEC
  0
EOF
