  0
SECTION
  2
HEADER
  9
$ACADVER
  1
AC1006
  9
$INSBASE
 10
0.0
 20
0.0
 30
0.0
  9
$EXTMIN
 10
-140.9998016
 20
-236.2635040
  9
$EXTMAX
 10
147.3433990
 20
521.0173950
  9
$LIMMIN
 10
0.0
 20
0.0
  9
$LIMMAX
 10
12.0
 20
9.0
  9
$ORTHOMODE
 70
     0
  9
$REGENMODE
 70
     1
  9
$FILLMODE
 70
     1
  9
$QTEXTMODE
 70
     0
  9
$MIRRTEXT
 70
     1
  9
$DRAGMODE
 70
     2
  9
$LTSCALE
 40
5.0000000
  9
$OSMODE
 70
     0
  9
$ATTMODE
 70
     1
  9
$TEXTSIZE
 40
4.0
  9
$TRACEWID
 40
0.05
  9
$TEXTSTYLE
  7
STANDARD
  9
$CLAYER
  8
0
  9
$CELTYPE
  6
BYLAYER
  9
$CECOLOR
 62
   256
  9
$DIMSCALE
 40
1.0000000
  9
$DIMASZ
 40
0.18
  9
$DIMEXO
 40
0.0625
  9
$DIMDLI
 40
0.38
  9
$DIMRND
 40
0.0
  9
$DIMDLE
 40
0.0
  9
$DIMEXE
 40
0.18
  9
$DIMTP
 40
0.0
  9
$DIMTM
 40
0.0
  9
$DIMTXT
 40
0.18
  9
$DIMCEN
 40
0.09
  9
$DIMTSZ
 40
0.0
  9
$DIMTOL
 70
     0
  9
$DIMLIM
 70
     0
  9
$DIMTIH
 70
     1
  9
$DIMTOH
 70
     1
  9
$DIMSE1
 70
     0
  9
$DIMSE2
 70
     0
  9
$DIMTAD
 70
     0
  9
$DIMZIN
 70
     0
  9
$DIMBLK
  1

  9
$DIMASO
 70
     1
  9
$DIMSHO
 70
     0
  9
$DIMPOST
  1

  9
$DIMAPOST
  1

  9
$DIMALT
 70
     0
  9
$DIMALTD
 70
     2
  9
$DIMALTF
 40
25.4
  9
$DIMLFAC
 40
1.0
  9
$DIMTOFL
 70
     0
  9
$DIMTVP
 40
0.0
  9
$DIMTIX
 70
     0
  9
$DIMSOXD
 70
     0
  9
$DIMSAH
 70
     0
  9
$DIMBLK1
  1

  9
$DIMBLK2
  1

  9
$LUNITS
 70
     2
  9
$LUPREC
 70
     4
  9
$AXISMODE
 70
     0
  9
$AXISUNIT
 10
0.0
 20
0.0
  9
$SKETCHINC
 40
0.1
  9
$FILLETRAD
 40
0.0
  9
$AUNITS
 70
     0
  9
$AUPREC
 70
     0
  9
$MENU
  1
acad
  9
$ELEVATION
 40
0.0
  9
$THICKNESS
 40
0.0
  9
$LIMCHECK
 70
     0
  9
$BLIPMODE
 70
     1
  9
$CHAMFERA
 40
0.0
  9
$CHAMFERB
 40
0.0
  9
$SKPOLY
 70
     0
  9
$TDCREATE
 40
2448026.6008101851
  9
$TDUPDATE
 40
2448026.6181597221
  9
$TDINDWG
 40
0.0173495370
  9
$TDUSRTIMER
 40
0.0173495370
  9
$USRTIMER
 70
     1
  9
$ANGBASE
 50
0.0
  9
$ANGDIR
 70
     0
  9
$PDMODE
 70
     0
  9
$PDSIZE
 40
0.0
  9
$PLINEWID
 40
0.0
  9
$COORDS
 70
     2
  9
$SPLFRAME
 70
     0
  9
$SPLINETYPE
 70
     6
  9
$SPLINESEGS
 70
     8
  9
$ATTDIA
 70
     0
  9
$ATTREQ
 70
     1
  9
$HANDLING
 70
     0
  9
$HANDSEED
  5
B
  9
$SURFTAB1
 70
     6
  9
$SURFTAB2
 70
     6
  9
$SURFTYPE
 70
     6
  9
$SURFU
 70
     6
  9
$SURFV
 70
     6
  9
$FLATLAND
 70
     0
  9
$UCSNAME
  2

  9
$UCSORG
 10
0.0
 20
0.0
 30
0.0
  9
$UCSXDIR
 10
1.0
 20
0.0
 30
0.0
  9
$UCSYDIR
 10
0.0
 20
1.0
 30
0.0
  9
$USERI1
 70
     0
  9
$USERI2
 70
     0
  9
$USERI3
 70
     0
  9
$USERI4
 70
     0
  9
$USERI5
 70
     0
  9
$USERR1
 40
0.0
  9
$USERR2
 40
0.0
  9
$USERR3
 40
0.0
  9
$USERR4
 40
0.0
  9
$USERR5
 40
0.0
  9
$WORLDVIEW
 70
     1
  0
ENDSEC
  0
SECTION
  2
TABLES
  0
TABLE
  2
VPORT
 70
     2
  0
VPORT
  2
*ACTIVE
 70
     0
 10
0.0
 20
0.0
 11
1.0
 21
1.0
 12
3.1717987
 22
142.3769455
 13
0.0
 23
0.0
 14
1.0
 24
1.0
 15
0.0
 25
0.0
 16
0.0
 26
0.0
 36
1.0
 17
0.0
 27
0.0
 37
0.0
 40
757.2808990
 41
0.3807612
 42
50.0
 43
0.0
 44
0.0
 50
0.0
 51
0.0
 71
     0
 72
   100
 73
     1
 74
     1
 75
     1
 76
     0
 77
     0
 78
     0
  0
ENDTAB
  0
TABLE
  2
LTYPE
 70
     5
  0
LTYPE
  2
CONTINUOUS
 70
    64
  3
________________________
 72
    65
 73
     0
 40
0.0
  0
LTYPE
  2
HIDDEN
 70
    64
  3
_ _ _ _ _ _ _ _ _ _ _ _
 72
    65
 73
     2
 40
0.375
 49
0.25
 49
-0.125
  0
LTYPE
  2
DASHED
 70
    64
  3
__ __ __ __ __ __ __ __
 72
    65
 73
     2
 40
0.75
 49
0.5
 49
-0.25
  0
LTYPE
  2
CENTER
 70
    64
  3
____ _ ____ _ ____ _ ___
 72
    65
 73
     4
 40
2.0
 49
1.25
 49
-0.25
 49
0.25
 49
-0.25
  0
LTYPE
  2
PHANTOM
 70
    64
  3
_____ _ _ _____ _ _ ____
 72
    65
 73
     6
 40
2.5
 49
1.25
 49
-0.25
 49
0.25
 49
-0.25
 49
0.25
 49
-0.25
  0
ENDTAB
  0
TABLE
  2
LAYER
 70
     6
  0
LAYER
  2
0
 70
 64
 62
  7
  6
CONTINUOUS
  0
LAYER
  2
WORKLAYER
 70
 64
 62
  7
  6
CONTINUOUS
  0
LAYER
  2
VIEW
 70
 64
 62
  7
  6
CONTINUOUS
  0
LAYER
  2
AREA
 70
 64
 62
  7
  6
CONTINUOUS
  0
LAYER
  2
SSYMB
 70
 64
 62
  7
  6
CONTINUOUS
  0
ENDTAB
  0
TABLE
  2
STYLE
 70
     3
  0
STYLE
  2
STANDARD
 70
    64
 40
0.0
 41
1.0
 50
0.0
 71
     0
 42
4.0
  3
txt
  4

  0
STYLE
  2
KANJI
 70
    64
 40
0.0
 41
1.0
 50
0.0
 71
     0
 42
2.0
  3
TXT
  4
BIGFONT
  0
STYLE
  2
TATEGAKI
 70
    68
 40
0.0
 41
1.0
 50
0.0
 71
     0
 42
4.0
  3
MONOTXT
  4
BIGFONT
  0
ENDTAB
  0
TABLE
  2
VIEW
 70
     0
  0
ENDTAB
  0
TABLE
  2
UCS
 70
     0
  0
ENDTAB
  0
TABLE
  2
DWGMGR
 70
     0
  0
ENDTAB
  0
ENDSEC
  0
SECTION
  2
BLOCKS
  0
BLOCK
  8
VIEW
  2
DXF2
 70
    64
 10
129.6000061
 20
283.7999878
 30
0.0
  3
DXF2
  0
ARC
  8
VIEW
  6
CONTINUOUS
 62
     4
 10
54.4847412
 20
305.5000000
 30
0.0
 40
1.3000000
 50
16.4503899
 51
90.0000000
  0
LINE
  8
VIEW
  6
CONTINUOUS
 62
     4
 10
53.5000000
 20
306.7999878
 30
0.0
 11
54.4847412
 21
306.7999878
 31
0.0
  0
LINE
  8
VIEW
  6
CONTINUOUS
 62
     4
 10
53.5000000
 20
299.7999878
 30
0.0
 11
54.4731407
 21
299.7999878
 31
0.0
  0
ARC
  8
VIEW
  6
CONTINUOUS
 62
     4
 10
47.0999794
 20
303.3194885
 30
0.0
 40
9.0000000
 50
343.2471924
 51
0.0000000
  0
ARC
  8
VIEW
  6
CONTINUOUS
 62
     4
 10
47.0999794
 20
303.3194885
 30
0.0
 40
9.0000000
 50
0.0000000
 51
16.4503899
  0
ARC
  8
VIEW
  6
CONTINUOUS
 62
     4
 10
54.4731407
 20
301.1000061
 30
0.0
 40
1.3000000
 50
270.0000000
 51
343.2471924
  0
ENDBLK
  8
VIEW
  0
BLOCK
  8
0
  2
DXF3
 70
    64
 10
-76.9456177
 20
273.2466125
 30
0.0
  3
DXF3
  0
LINE
  8
0
  6
CONTINUOUS
 62
     4
 10
58.0000000
 20
308.0000000
 30
0.0
 11
57.3812904
 21
307.6427002
 31
0.0
  0
LINE
  8
0
  6
CONTINUOUS
 62
     4
 10
59.5000000
 20
280.7999878
 30
0.0
 11
59.5000000
 21
278.3999939
 31
0.0
  0
LINE
  8
0
  6
CONTINUOUS
 62
     4
 10
64.5000000
 20
280.7999878
 30
0.0
 11
64.5000000
 21
278.3999939
 31
0.0
  0
LINE
  8
0
  6
CONTINUOUS
 62
     4
 10
64.5000000
 20
278.3999939
 30
0.0
 11
63.5999794
 21
277.5000000
 31
0.0
  0
LINE
  8
0
  6
CONTINUOUS
 62
     4
 10
66.6187668
 20
304.5000000
 30
0.0
 11
57.3812904
 21
304.5000000
 31
0.0
  0
LINE
  8
0
  6
CONTINUOUS
 62
     4
 10
63.5999794
 20
277.5000000
 30
0.0
 11
60.4000893
 21
277.5000000
 31
0.0
  0
LINE
  8
0
  6
CONTINUOUS
 62
     4
 10
60.4000893
 20
277.5000000
 30
0.0
 11
59.5000000
 21
278.3999939
 31
0.0
  0
LINE
  8
0
  6
CONTINUOUS
 62
     4
 10
66.0000000
 20
308.0000000
 30
0.0
 11
58.0000000
 21
308.0000000
 31
0.0
  0
LINE
  8
0
  6
CONTINUOUS
 62
     4
 10
57.3812904
 20
307.6427002
 30
0.0
 11
57.3812904
 21
304.5000000
 31
0.0
  0
LINE
  8
0
  6
CONTINUOUS
 62
     4
 10
66.6187668
 20
307.6427002
 30
0.0
 11
66.6187668
 21
304.5000000
 31
0.0
  0
LINE
  8
0
  6
CONTINUOUS
 62
     4
 10
66.0000000
 20
308.0000000
 30
0.0
 11
66.6187668
 21
307.6427002
 31
0.0
  0
ARC
  8
0
  6
CONTINUOUS
 62
     4
 10
59.6907997
 20
301.0718079
 30
0.0
 40
6.9282041
 50
70.5288010
 51
90.0000000
  0
LINE
  8
0
  6
CONTINUOUS
 62
     4
 10
62.0000000
 20
307.6037903
 30
0.0
 11
62.0000000
 21
304.5000000
 31
0.0
  0
LINE
  8
0
  6
CONTINUOUS
 62
     4
 10
63.5999794
 20
280.7999878
 30
0.0
 11
63.5999794
 21
277.5000000
 31
0.0
  0
LINE
  8
0
  6
CONTINUOUS
 62
     4
 10
60.4000893
 20
280.7999878
 30
0.0
 11
60.4000893
 21
277.5000000
 31
0.0
  0
LINE
  8
0
  6
CONTINUOUS
 62
     4
 10
64.5000000
 20
278.3999939
 30
0.0
 11
59.5000000
 21
278.3999939
 31
0.0
  0
ARC
  8
0
  6
CONTINUOUS
 62
     4
 10
64.3093872
 20
301.0718079
 30
0.0
 40
6.9282041
 50
90.0000000
 51
109.4711990
  0
ENDBLK
  8
0
  0
BLOCK
  8
0
  2
DXF4
 70
    64
 10
-69.0426025
 20
275.6236877
 30
0.0
  3
DXF4
  0
LINE
  8
0
  6
CONTINUOUS
 62
     4
 10
58.0000000
 20
280.7999878
 30
0.0
 11
57.3812904
 21
281.1571960
 31
0.0
  0
LINE
  8
0
  6
CONTINUOUS
 62
     4
 10
66.0000000
 20
280.7999878
 30
0.0
 11
58.0000000
 21
280.7999878
 31
0.0
  0
LINE
  8
0
  6
CONTINUOUS
 62
     4
 10
66.0000000
 20
280.7999878
 30
0.0
 11
66.6187668
 21
281.1571960
 31
0.0
  0
LINE
  8
0
  6
CONTINUOUS
 62
     4
 10
58.0000000
 20
284.7999878
 30
0.0
 11
57.3812904
 21
284.4428101
 31
0.0
  0
LINE
  8
0
  6
CONTINUOUS
 62
     4
 10
66.0000000
 20
284.7999878
 30
0.0
 11
58.0000000
 21
284.7999878
 31
0.0
  0
LINE
  8
0
  6
CONTINUOUS
 62
     4
 10
57.3812904
 20
284.4428101
 30
0.0
 11
57.3812904
 21
281.1571960
 31
0.0
  0
LINE
  8
0
  6
CONTINUOUS
 62
     4
 10
66.6187668
 20
284.4428101
 30
0.0
 11
66.6187668
 21
281.1571960
 31
0.0
  0
LINE
  8
0
  6
CONTINUOUS
 62
     4
 10
66.0000000
 20
284.7999878
 30
0.0
 11
66.6187668
 21
284.4428101
 31
0.0
  0
ARC
  8
0
  6
CONTINUOUS
 62
     4
 10
64.3093872
 20
277.8717957
 30
0.0
 40
6.9282041
 50
90.0000000
 51
109.4711990
  0
LINE
  8
0
  6
CONTINUOUS
 62
     4
 10
62.0000000
 20
284.4038086
 30
0.0
 11
62.0000000
 21
281.1962891
 31
0.0
  0
ARC
  8
0
  6
CONTINUOUS
 62
     4
 10
59.6905518
 20
277.8717957
 30
0.0
 40
6.9282041
 50
70.5288010
 51
90.0000000
  0
ARC
  8
0
  6
CONTINUOUS
 62
     4
 10
59.6905518
 20
287.7282104
 30
0.0
 40
6.9282041
 50
270.0000000
 51
289.4711914
  0
ARC
  8
0
  6
CONTINUOUS
 62
     4
 10
64.3093872
 20
287.7282104
 30
0.0
 40
6.9282041
 50
250.5287933
 51
270.0000000
  0
ENDBLK
  8
0
  0
BLOCK
  8
VIEW
  2
DXF5
 70
    64
 10
966.8145142
 20
349.4765015
 30
0.0
  3
DXF5
  0
LINE
  8
VIEW
  6
CONTINUOUS
 62
     4
 10
56.0222816
 20
304.5000000
 30
0.0
 11
71.5000000
 21
304.5000000
 31
0.0
  0
LINE
  8
VIEW
  6
CONTINUOUS
 62
     4
 10
71.5000000
 20
304.5000000
 30
0.0
 11
71.5000000
 21
294.2999878
 31
0.0
  0
ENDBLK
  8
VIEW
  0
BLOCK
  8
VIEW
  2
DXF6
 70
    64
 10
348.7846069
 20
414.3327026
 30
0.0
  3
DXF6
  0
LINE
  8
VIEW
  6
CONTINUOUS
 62
     4
 10
0.0000000
 20
294.2999878
 30
0.0
 11
70.5000000
 21
294.2999878
 31
0.0
  0
LINE
  8
VIEW
  6
CONTINUOUS
 62
     4
 10
53.4189491
 20
284.7999878
 30
0.0
 11
70.5000000
 21
284.7999878
 31
0.0
  0
LINE
  8
VIEW
  6
CONTINUOUS
 62
     4
 10
71.5000000
 20
293.2999878
 30
0.0
 11
71.5000000
 21
285.7999878
 31
0.0
  0
ARC
  8
VIEW
  6
CONTINUOUS
 62
     4
 10
70.5000000
 20
285.7999878
 30
0.0
 40
1.0000000
 50
270.0000000
 51
0.0000000
  0
ARC
  8
VIEW
  6
CONTINUOUS
 62
     4
 10
70.5000000
 20
293.2999878
 30
0.0
 40
1.0000000
 50
0.0000000
 51
90.0000000
  0
ENDBLK
  8
VIEW
  0
BLOCK
  8
WORKLAYER
  2
DXF11
 70
    64
 10
-9.0001221
 20
149.0000000
 30
0.0
  3
DXF11
  0
LINE
  8
WORKLAYER
  6
CONTINUOUS
 62
     4
 10
-11.5001202
 20
183.5000000
 30
0.0
 11
0.0000000
 21
183.5000000
 31
0.0
  0
LINE
  8
WORKLAYER
  6
CONTINUOUS
 62
     4
 10
0.0000000
 20
183.5000000
 30
0.0
 11
11.4998798
 21
183.5000000
 31
0.0
  0
LINE
  8
WORKLAYER
  6
CONTINUOUS
 62
     4
 10
-12.0001202
 20
178.5000000
 30
0.0
 11
0.0000000
 21
178.5000000
 31
0.0
  0
LINE
  8
WORKLAYER
  6
CONTINUOUS
 62
     4
 10
0.0000000
 20
178.5000000
 30
0.0
 11
11.9998798
 21
178.5000000
 31
0.0
  0
LINE
  8
WORKLAYER
  6
CONTINUOUS
 62
     4
 10
-12.0001202
 20
178.5000000
 30
0.0
 11
-13.0001202
 21
177.5000000
 31
0.0
  0
LINE
  8
WORKLAYER
  6
CONTINUOUS
 62
     4
 10
-13.0001202
 20
177.5000000
 30
0.0
 11
-13.0001202
 21
177.0000000
 31
0.0
  0
LINE
  8
WORKLAYER
  6
CONTINUOUS
 62
     4
 10
12.9998798
 20
177.5000000
 30
0.0
 11
12.9998798
 21
177.0000000
 31
0.0
  0
LINE
  8
WORKLAYER
  6
CONTINUOUS
 62
     4
 10
12.9998798
 20
177.5000000
 30
0.0
 11
11.9998798
 21
178.5000000
 31
0.0
  0
LINE
  8
WORKLAYER
  6
CONTINUOUS
 62
     2
 10
-12.1881104
 20
178.5000000
 30
0.0
 11
-12.1881104
 21
177.0000000
 31
0.0
  0
LINE
  8
WORKLAYER
  6
CONTINUOUS
 62
     2
 10
12.1879902
 20
178.5000000
 30
0.0
 11
12.1879902
 21
177.0000000
 31
0.0
  0
LINE
  8
WORKLAYER
  6
CONTINUOUS
 62
     4
 10
11.4998798
 20
183.5000000
 30
0.0
 11
11.4998798
 21
178.5000000
 31
0.0
  0
LINE
  8
WORKLAYER
  6
CONTINUOUS
 62
     4
 10
-11.5001202
 20
183.5000000
 30
0.0
 11
-11.5001202
 21
178.5000000
 31
0.0
  0
ENDBLK
  8
WORKLAYER
  0
BLOCK
  8
WORKLAYER
  2
DXF12
 70
    64
 10
-5.0001221
 20
3.2680049
 30
0.0
  3
DXF12
  0
LINE
  8
WORKLAYER
  6
CONTINUOUS
 62
     4
 10
4.9998779
 20
183.5000000
 30
0.0
 11
4.9998779
 21
184.5359955
 31
0.0
  0
LINE
  8
WORKLAYER
  6
CONTINUOUS
 62
     4
 10
-5.0001221
 20
184.5359955
 30
0.0
 11
-5.0001221
 21
183.5000000
 31
0.0
  0
LINE
  8
WORKLAYER
  6
CONTINUOUS
 62
     4
 10
-4.0001221
 20
188.2680054
 30
0.0
 11
-5.0001221
 21
184.5359955
 31
0.0
  0
LINE
  8
WORKLAYER
  6
CONTINUOUS
 62
     4
 10
3.9998779
 20
188.2680054
 30
0.0
 11
4.9998779
 21
184.5359955
 31
0.0
  0
LINE
  8
WORKLAYER
  6
CONTINUOUS
 62
     2
 10
3.9998779
 20
188.2680054
 30
0.0
 11
-4.0001221
 21
188.2680054
 31
0.0
  0
LINE
  8
WORKLAYER
  6
CONTINUOUS
 62
     2
 10
3.9998779
 20
191.2680054
 30
0.0
 11
-4.0001221
 21
191.2680054
 31
0.0
  0
LINE
  8
WORKLAYER
  6
CONTINUOUS
 62
     4
 10
-4.0001221
 20
193.3977051
 30
0.0
 11
-4.0001221
 21
188.2680054
 31
0.0
  0
LINE
  8
WORKLAYER
  6
CONTINUOUS
 62
     4
 10
3.9998779
 20
188.2680054
 30
0.0
 11
3.9998779
 21
193.3977051
 31
0.0
  0
LINE
  8
WORKLAYER
  6
CONTINUOUS
 62
     2
 10
-5.0001221
 20
184.5359955
 30
0.0
 11
4.9998779
 21
184.5359955
 31
0.0
  0
LINE
  8
WORKLAYER
  6
CONTINUOUS
 62
     2
 10
-4.0001221
 20
189.5359955
 30
0.0
 11
-3.0001221
 21
191.2680054
 31
0.0
  0
LINE
  8
WORKLAYER
  6
CONTINUOUS
 62
     2
 10
3.9998779
 20
189.5359955
 30
0.0
 11
2.9998779
 21
191.2680054
 31
0.0
  0
LINE
  8
WORKLAYER
  6
CONTINUOUS
 62
     2
 10
-3.0001221
 20
193.3977051
 30
0.0
 11
-3.0001221
 21
191.2680054
 31
0.0
  0
LINE
  8
WORKLAYER
  6
CONTINUOUS
 62
     2
 10
2.9998779
 20
191.2680054
 30
0.0
 11
2.9998779
 21
193.3977051
 31
0.0
  0
ENDBLK
  8
WORKLAYER
  0
BLOCK
  8
0
  2
DXF13
 70
    64
 10
-14.9457998
 20
162.1443024
 30
0.0
  3
DXF13
  0
LINE
  8
0
  6
CONTINUOUS
 62
     4
 10
8.4932861
 20
200.5843964
 30
0.0
 11
9.8071899
 21
199.8258057
 31
0.0
  0
LINE
  8
0
  6
CONTINUOUS
 62
     4
 10
-8.4934082
 20
193.3977051
 30
0.0
 11
8.4932861
 21
193.3977051
 31
0.0
  0
LINE
  8
0
  6
CONTINUOUS
 62
     4
 10
-8.4934082
 20
200.5843964
 30
0.0
 11
8.4932861
 21
200.5843964
 31
0.0
  0
LINE
  8
0
  6
CONTINUOUS
 62
     4
 10
9.8071899
 20
199.8258057
 30
0.0
 11
9.8071899
 21
194.1562958
 31
0.0
  0
LINE
  8
0
  6
CONTINUOUS
 62
     4
 10
-9.8073120
 20
199.8258057
 30
0.0
 11
-9.8073120
 21
194.1562958
 31
0.0
  0
LINE
  8
0
  6
CONTINUOUS
 62
     4
 10
-8.4934082
 20
200.5843964
 30
0.0
 11
-9.8073120
 21
199.8258057
 31
0.0
  0
ARC
  8
0
  6
CONTINUOUS
 62
     4
 10
0.0000000
 20
185.8735046
 30
0.0
 40
14.7108898
 50
70.5288086
 51
109.4711990
  0
LINE
  8
0
  6
CONTINUOUS
 62
     4
 10
-4.9038091
 20
199.7431030
 30
0.0
 11
-4.9038091
 21
194.2389984
 31
0.0
  0
LINE
  8
0
  6
CONTINUOUS
 62
     4
 10
4.9034419
 20
199.7431030
 30
0.0
 11
4.9034419
 21
194.2389984
 31
0.0
  0
ARC
  8
0
  6
CONTINUOUS
 62
     4
 10
-8.4934082
 20
192.5056000
 30
0.0
 40
8.0787697
 50
63.6189919
 51
90.0000000
  0
ARC
  8
0
  6
CONTINUOUS
 62
     4
 10
8.4932861
 20
192.5056000
 30
0.0
 40
8.0787697
 50
90.0000000
 51
116.3809967
  0
LINE
  8
0
  6
CONTINUOUS
 62
     4
 10
8.4932861
 20
193.3977051
 30
0.0
 11
9.8071899
 21
194.1562958
 31
0.0
  0
LINE
  8
0
  6
CONTINUOUS
 62
     4
 10
-8.4934082
 20
200.5843964
 30
0.0
 11
8.4932861
 21
200.5843964
 31
0.0
  0
LINE
  8
0
  6
CONTINUOUS
 62
     4
 10
-8.4934082
 20
193.3977051
 30
0.0
 11
-9.8073120
 21
194.1562958
 31
0.0
  0
ARC
  8
0
  6
CONTINUOUS
 62
     4
 10
0.0000000
 20
208.1085968
 30
0.0
 40
14.7108898
 50
250.5287933
 51
289.4711914
  0
ARC
  8
0
  6
CONTINUOUS
 62
     4
 10
-8.4934082
 20
201.4763947
 30
0.0
 40
8.0787697
 50
270.0000000
 51
296.3810120
  0
ARC
  8
0
  6
CONTINUOUS
 62
     4
 10
8.4932861
 20
201.4763947
 30
0.0
 40
8.0787697
 50
243.6190033
 51
270.0000000
  0
ENDBLK
  8
0
  0
BLOCK
  8
VIEW
  2
DXF14
 70
    64
 10
148.8000031
 20
431.2999878
 30
0.0
  3
DXF14
  0
LINE
  8
VIEW
  6
CONTINUOUS
 62
     4
 10
-1.2373050
 20
285.0374146
 30
0.0
 11
1.2374880
 21
282.5625916
 31
0.0
  0
LINE
  8
VIEW
  6
CONTINUOUS
 62
     4
 10
-1.2373050
 20
282.5625916
 30
0.0
 11
1.2374880
 21
285.0374146
 31
0.0
  0
CIRCLE
  8
VIEW
  6
CONTINUOUS
 62
     4
 10
0.0000000
 20
283.7999878
 30
0.0
 40
2.7500000
  0
ENDBLK
  8
VIEW
  0
BLOCK
  8
VIEW
  2
DXF15
 70
    64
 10
148.8000031
 20
431.2999878
 30
0.0
  3
DXF15
  0
LINE
  8
VIEW
  6
CONTINUOUS
 62
     4
 10
-1.2373050
 20
264.0625916
 30
0.0
 11
1.2374880
 21
266.5374146
 31
0.0
  0
LINE
  8
VIEW
  6
CONTINUOUS
 62
     4
 10
-1.2373050
 20
266.5374146
 30
0.0
 11
1.2374880
 21
264.0625916
 31
0.0
  0
CIRCLE
  8
VIEW
  6
CONTINUOUS
 62
     4
 10
0.0000000
 20
265.2999878
 30
0.0
 40
2.7500000
  0
ENDBLK
  8
VIEW
  0
BLOCK
  8
VIEW
  2
DXF17
 70
    64
 10
129.6000061
 20
283.7999878
 30
0.0
  3
DXF17
  0
ARC
  8
VIEW
  6
CONTINUOUS
 62
     2
 10
0.0000000
 20
379.2999878
 30
0.0
 40
24.0000000
 50
75.0000000
 51
105.0000000
  0
LINE
  8
VIEW
  6
CONTINUOUS
 62
     2
 10
7.7645869
 20
408.2778015
 30
0.0
 11
6.2115479
 21
402.4822083
 31
0.0
  0
LINE
  8
VIEW
  6
CONTINUOUS
 62
     2
 10
-6.2116089
 20
402.4822083
 30
0.0
 11
-7.7646480
 21
408.2778015
 31
0.0
  0
ARC
  8
VIEW
  6
CONTINUOUS
 62
     2
 10
0.0000000
 20
379.2999878
 30
0.0
 40
30.0000000
 50
75.0000000
 51
105.0000000
  0
ENDBLK
  8
VIEW
  0
BLOCK
  8
VIEW
  2
DXF18
 70
    64
 10
129.6000061
 20
283.7999878
 30
0.0
  3
DXF18
  0
ARC
  8
VIEW
  6
CONTINUOUS
 62
     4
 10
-54.4847984
 20
305.5000000
 30
0.0
 40
1.3000000
 50
90.0000000
 51
163.5496063
  0
LINE
  8
VIEW
  6
CONTINUOUS
 62
     4
 10
-53.5000000
 20
306.7999878
 30
0.0
 11
-54.4847984
 21
306.7999878
 31
0.0
  0
LINE
  8
VIEW
  6
CONTINUOUS
 62
     4
 10
-53.5000000
 20
299.7999878
 30
0.0
 11
-54.4732094
 21
299.7999878
 31
0.0
  0
ARC
  8
VIEW
  6
CONTINUOUS
 62
     4
 10
-47.0999107
 20
303.3194885
 30
0.0
 40
9.0000000
 50
180.0000000
 51
196.7528076
  0
ARC
  8
VIEW
  6
CONTINUOUS
 62
     4
 10
-47.0999107
 20
303.3194885
 30
0.0
 40
9.0000000
 50
163.5496063
 51
180.0000000
  0
ARC
  8
VIEW
  6
CONTINUOUS
 62
     4
 10
-54.4732094
 20
301.1000061
 30
0.0
 40
1.3000000
 50
196.7528076
 51
270.0000000
  0
ENDBLK
  8
VIEW
  0
BLOCK
  8
0
  2
DXF19
 70
    64
 10
-76.9456177
 20
273.2466125
 30
0.0
  3
DXF19
  0
LINE
  8
0
  6
CONTINUOUS
 62
     4
 10
-58.0000000
 20
308.0000000
 30
0.0
 11
-57.3810997
 21
307.6427002
 31
0.0
  0
LINE
  8
0
  6
CONTINUOUS
 62
     4
 10
-59.5000000
 20
280.7999878
 30
0.0
 11
-59.5000000
 21
278.3999939
 31
0.0
  0
LINE
  8
0
  6
CONTINUOUS
 62
     4
 10
-64.5000000
 20
280.7999878
 30
0.0
 11
-64.5000000
 21
278.3999939
 31
0.0
  0
LINE
  8
0
  6
CONTINUOUS
 62
     4
 10
-64.5000000
 20
278.3999939
 30
0.0
 11
-63.5999107
 21
277.5000000
 31
0.0
  0
LINE
  8
0
  6
CONTINUOUS
 62
     4
 10
-66.6187134
 20
304.5000000
 30
0.0
 11
-57.3810997
 21
304.5000000
 31
0.0
  0
LINE
  8
0
  6
CONTINUOUS
 62
     4
 10
-63.5999107
 20
277.5000000
 30
0.0
 11
-60.3998985
 21
277.5000000
 31
0.0
  0
LINE
  8
0
  6
CONTINUOUS
 62
     4
 10
-60.3998985
 20
277.5000000
 30
0.0
 11
-59.5000000
 21
278.3999939
 31
0.0
  0
LINE
  8
0
  6
CONTINUOUS
 62
     4
 10
-66.0000000
 20
308.0000000
 30
0.0
 11
-58.0000000
 21
308.0000000
 31
0.0
  0
LINE
  8
0
  6
CONTINUOUS
 62
     4
 10
-57.3810997
 20
307.6427002
 30
0.0
 11
-57.3810997
 21
304.5000000
 31
0.0
  0
LINE
  8
0
  6
CONTINUOUS
 62
     4
 10
-66.6187134
 20
307.6427002
 30
0.0
 11
-66.6187134
 21
304.5000000
 31
0.0
  0
LINE
  8
0
  6
CONTINUOUS
 62
     4
 10
-66.0000000
 20
308.0000000
 30
0.0
 11
-66.6187134
 21
307.6427002
 31
0.0
  0
ARC
  8
0
  6
CONTINUOUS
 62
     4
 10
-59.6906090
 20
301.0718079
 30
0.0
 40
6.9282041
 50
90.0000000
 51
109.4711990
  0
LINE
  8
0
  6
CONTINUOUS
 62
     4
 10
-62.0000000
 20
307.6037903
 30
0.0
 11
-62.0000000
 21
304.5000000
 31
0.0
  0
LINE
  8
0
  6
CONTINUOUS
 62
     4
 10
-63.5999107
 20
280.7999878
 30
0.0
 11
-63.5999107
 21
277.5000000
 31
0.0
  0
LINE
  8
0
  6
CONTINUOUS
 62
     4
 10
-60.3998985
 20
280.7999878
 30
0.0
 11
-60.3998985
 21
277.5000000
 31
0.0
  0
LINE
  8
0
  6
CONTINUOUS
 62
     4
 10
-64.5000000
 20
278.3999939
 30
0.0
 11
-59.5000000
 21
278.3999939
 31
0.0
  0
ARC
  8
0
  6
CONTINUOUS
 62
     4
 10
-64.3091965
 20
301.0718079
 30
0.0
 40
6.9282041
 50
70.5288086
 51
90.0000000
  0
ENDBLK
  8
0
  0
BLOCK
  8
VIEW
  2
DXF20
 70
    64
 10
148.8000031
 20
288.5000000
 30
0.0
  3
DXF20
  0
LINE
  8
VIEW
  6
CONTINUOUS
 62
     2
 10
-32.5000000
 20
323.7999878
 30
0.0
 11
-25.1667500
 21
323.7999878
 31
0.0
  0
LINE
  8
VIEW
  6
CONTINUOUS
 62
     2
 10
-29.0000000
 20
321.2999878
 30
0.0
 11
-28.1667500
 21
319.7921143
 31
0.0
  0
LINE
  8
VIEW
  6
CONTINUOUS
 62
     2
 10
-27.3333092
 20
321.2999878
 30
0.0
 11
-25.3333092
 21
321.2999878
 31
0.0
  0
LINE
  8
VIEW
  6
CONTINUOUS
 62
     2
 10
-28.1667500
 20
319.7921143
 30
0.0
 11
-27.3333092
 21
321.2999878
 31
0.0
  0
LINE
  8
VIEW
  6
CONTINUOUS
 62
     2
 10
-31.0000000
 20
321.2999878
 30
0.0
 11
-29.0000000
 21
321.2999878
 31
0.0
  0
LINE
  8
VIEW
  6
CONTINUOUS
 62
     2
 10
-23.8333092
 20
313.7999878
 30
0.0
 11
-23.8333092
 21
322.4667053
 31
0.0
  0
LINE
  8
VIEW
  6
CONTINUOUS
 62
     2
 10
-23.8333092
 20
313.7999878
 30
0.0
 11
-31.1667500
 21
313.7999878
 31
0.0
  0
LINE
  8
VIEW
  6
CONTINUOUS
 62
     2
 10
-32.5000000
 20
323.7999878
 30
0.0
 11
-32.5000000
 21
315.1333008
 31
0.0
  0
LINE
  8
VIEW
  6
CONTINUOUS
 62
     2
 10
-31.0000000
 20
321.7999878
 30
0.0
 11
-25.3333092
 21
321.7999878
 31
0.0
  0
LINE
  8
VIEW
  6
CONTINUOUS
 62
     2
 10
-25.3333092
 20
321.7999878
 30
0.0
 11
-25.3333092
 21
322.7999878
 31
0.0
  0
LINE
  8
VIEW
  6
CONTINUOUS
 62
     2
 10
-25.3333092
 20
322.7999878
 30
0.0
 11
-31.0000000
 21
322.7999878
 31
0.0
  0
LINE
  8
VIEW
  6
CONTINUOUS
 62
     2
 10
-31.0000000
 20
322.7999878
 30
0.0
 11
-31.0000000
 21
321.7999878
 31
0.0
  0
LINE
  8
VIEW
  6
CONTINUOUS
 62
     2
 10
-31.0000000
 20
314.7999878
 30
0.0
 11
-25.3333092
 21
314.7999878
 31
0.0
  0
LINE
  8
VIEW
  6
CONTINUOUS
 62
     2
 10
-25.3333092
 20
314.7999878
 30
0.0
 11
-25.3333092
 21
315.7999878
 31
0.0
  0
LINE
  8
VIEW
  6
CONTINUOUS
 62
     2
 10
-25.3333092
 20
315.7999878
 30
0.0
 11
-31.0000000
 21
315.7999878
 31
0.0
  0
LINE
  8
VIEW
  6
CONTINUOUS
 62
     2
 10
-31.0000000
 20
315.7999878
 30
0.0
 11
-31.0000000
 21
314.7999878
 31
0.0
  0
LINE
  8
VIEW
  6
CONTINUOUS
 62
     2
 10
-29.2500000
 20
318.1333008
 30
0.0
 11
-29.2500000
 21
316.1333008
 31
0.0
  0
LINE
  8
VIEW
  6
CONTINUOUS
 62
     2
 10
-27.0833092
 20
318.1333008
 30
0.0
 11
-27.0833092
 21
316.1333008
 31
0.0
  0
LINE
  8
VIEW
  6
CONTINUOUS
 62
     2
 10
-29.2500000
 20
316.1333008
 30
0.0
 11
-27.0833092
 21
316.1333008
 31
0.0
  0
LINE
  8
VIEW
  6
CONTINUOUS
 62
     2
 10
-31.0000000
 20
321.2999878
 30
0.0
 11
-29.2500000
 21
318.1333008
 31
0.0
  0
LINE
  8
VIEW
  6
CONTINUOUS
 62
     2
 10
-27.0833092
 20
318.1333008
 30
0.0
 11
-25.3333092
 21
321.2999878
 31
0.0
  0
ARC
  8
VIEW
  6
CONTINUOUS
 62
     2
 10
-31.1667500
 20
315.1333008
 30
0.0
 40
1.3333330
 50
180.0000000
 51
270.0000000
  0
ARC
  8
VIEW
  6
CONTINUOUS
 62
     2
 10
-25.1667500
 20
322.4667053
 30
0.0
 40
1.3333330
 50
0.0000000
 51
90.0000000
  0
ENDBLK
  8
VIEW
  0
BLOCK
  8
VIEW
  2
DXF21
 70
    64
 10
148.8000031
 20
288.5000000
 30
0.0
  3
DXF21
  0
LINE
  8
VIEW
  6
CONTINUOUS
 62
     4
 10
51.0000000
 20
429.2999878
 30
0.0
 11
-51.0000000
 21
429.2999878
 31
0.0
  0
LINE
  8
VIEW
  6
CONTINUOUS
 62
     4
 10
-52.5000000
 20
427.7999878
 30
0.0
 11
-52.5000000
 21
288.2999878
 31
0.0
  0
LINE
  8
VIEW
  6
CONTINUOUS
 62
     4
 10
52.5000000
 20
288.2999878
 30
0.0
 11
52.5000000
 21
427.7999878
 31
0.0
  0
LINE
  8
VIEW
  6
CONTINUOUS
 62
     4
 10
53.5000000
 20
428.2999878
 30
0.0
 11
53.5000000
 21
288.2999878
 31
0.0
  0
LINE
  8
VIEW
  6
CONTINUOUS
 62
     4
 10
-53.5000000
 20
428.2999878
 30
0.0
 11
-53.5000000
 21
288.2999878
 31
0.0
  0
LINE
  8
VIEW
  6
CONTINUOUS
 62
     4
 10
-52.5000000
 20
428.2999878
 30
0.0
 11
-52.5000000
 21
427.7999878
 31
0.0
  0
LINE
  8
VIEW
  6
CONTINUOUS
 62
     4
 10
-52.5000000
 20
428.2999878
 30
0.0
 11
-53.5000000
 21
428.2999878
 31
0.0
  0
LINE
  8
VIEW
  6
CONTINUOUS
 62
     4
 10
52.5000000
 20
428.2999878
 30
0.0
 11
52.5000000
 21
427.7999878
 31
0.0
  0
LINE
  8
VIEW
  6
CONTINUOUS
 62
     4
 10
52.5000000
 20
428.2999878
 30
0.0
 11
53.5000000
 21
428.2999878
 31
0.0
  0
ARC
  8
VIEW
  6
CONTINUOUS
 62
     4
 10
-51.0000000
 20
427.7999878
 30
0.0
 40
1.5000000
 50
90.0000000
 51
180.0000000
  0
ARC
  8
VIEW
  6
CONTINUOUS
 62
     4
 10
51.0000000
 20
427.7999878
 30
0.0
 40
1.5000000
 50
0.0000000
 51
90.0000000
  0
LINE
  8
VIEW
  6
CONTINUOUS
 62
     4
 10
-52.5000000
 20
288.2999878
 30
0.0
 11
52.5000000
 21
288.2999878
 31
0.0
  0
ENDBLK
  8
VIEW
  0
BLOCK
  8
VIEW
  2
DXF22
 70
    64
 10
-11.4059401
 20
313.7999878
 30
0.0
  3
DXF22
  0
LINE
  8
VIEW
  6
CONTINUOUS
 62
     2
 10
-10.0000000
 20
326.2999878
 30
0.0
 11
-10.0000000
 21
330.2999878
 31
0.0
  0
LINE
  8
VIEW
  6
CONTINUOUS
 62
     2
 10
-10.0000000
 20
330.2999878
 30
0.0
 11
20.0000000
 21
330.2999878
 31
0.0
  0
LINE
  8
VIEW
  6
CONTINUOUS
 62
     2
 10
20.0000000
 20
326.2999878
 30
0.0
 11
-10.0000000
 21
326.2999878
 31
0.0
  0
LINE
  8
VIEW
  6
CONTINUOUS
 62
     2
 10
20.0000000
 20
330.2999878
 30
0.0
 11
20.0000000
 21
326.2999878
 31
0.0
  0
ENDBLK
  8
VIEW
  0
BLOCK
  8
VIEW
  2
DXF23
 70
    64
 10
-11.4059401
 20
313.7999878
 30
0.0
  3
DXF23
  0
LINE
  8
VIEW
  6
CONTINUOUS
 62
     2
 10
17.7416992
 20
363.1373901
 30
0.0
 11
22.4282799
 21
359.3760071
 31
0.0
  0
LINE
  8
VIEW
  6
CONTINUOUS
 62
     2
 10
24.3060894
 20
361.7156067
 30
0.0
 11
19.6194496
 21
365.4769897
 31
0.0
  0
ARC
  8
VIEW
  6
CONTINUOUS
 62
     2
 10
0.0000000
 20
379.2999878
 30
0.0
 40
30.0000000
 50
318.3840027
 51
324.1159973
  0
ARC
  8
VIEW
  6
CONTINUOUS
 62
     2
 10
0.0000000
 20
379.2999878
 30
0.0
 40
24.0000000
 50
317.6666870
 51
324.8333130
  0
ENDBLK
  8
VIEW
  0
BLOCK
  8
VIEW
  2
DXF25
 70
    64
 10
-11.4059401
 20
313.7999878
 30
0.0
  3
DXF25
  0
LINE
  8
VIEW
  6
CONTINUOUS
 62
     2
 10
-35.5000000
 20
309.7999878
 30
0.0
 11
35.5000000
 21
309.7999878
 31
0.0
  0
ARC
  8
VIEW
  6
CONTINUOUS
 62
     2
 10
-32.5000000
 20
306.7999878
 30
0.0
 40
3.0000000
 50
180.0000000
 51
270.0000000
  0
LINE
  8
VIEW
  6
CONTINUOUS
 62
     2
 10
-35.5000000
 20
309.7999878
 30
0.0
 11
-35.5000000
 21
306.7999878
 31
0.0
  0
LINE
  8
VIEW
  6
CONTINUOUS
 62
     2
 10
-32.5000000
 20
303.7999878
 30
0.0
 11
32.5000000
 21
303.7999878
 31
0.0
  0
LINE
  8
VIEW
  6
CONTINUOUS
 62
     2
 10
35.5000000
 20
306.7999878
 30
0.0
 11
35.5000000
 21
309.7999878
 31
0.0
  0
ARC
  8
VIEW
  6
CONTINUOUS
 62
     2
 10
32.5000000
 20
306.7999878
 30
0.0
 40
3.0000000
 50
270.0000000
 51
0.0000000
  0
CIRCLE
  8
VIEW
  6
CONTINUOUS
 62
     2
 10
-32.5000000
 20
306.7999878
 30
0.0
 40
2.0000000
  0
CIRCLE
  8
VIEW
  6
CONTINUOUS
 62
     2
 10
32.5000000
 20
306.7999878
 30
0.0
 40
2.0000000
  0
ENDBLK
  8
VIEW
  0
BLOCK
  8
VIEW
  2
DXF27
 70
    64
 10
-11.4059401
 20
313.7999878
 30
0.0
  3
DXF27
  0
LINE
  8
VIEW
  6
CONTINUOUS
 62
     2
 10
19.6194496
 20
393.1229858
 30
0.0
 11
24.3060894
 21
396.8843994
 31
0.0
  0
LINE
  8
VIEW
  6
CONTINUOUS
 62
     2
 10
22.4282799
 20
399.2239990
 30
0.0
 11
17.7416992
 21
395.4625854
 31
0.0
  0
ARC
  8
VIEW
  6
CONTINUOUS
 62
     2
 10
0.0000000
 20
379.2999878
 30
0.0
 40
30.0000000
 50
35.8840103
 51
41.6159897
  0
ARC
  8
VIEW
  6
CONTINUOUS
 62
     2
 10
0.0000000
 20
379.2999878
 30
0.0
 40
24.0000000
 50
35.1666794
 51
42.3333206
  0
ENDBLK
  8
VIEW
  0
BLOCK
  8
VIEW
  2
DXF29
 70
    64
 10
148.8000031
 20
431.2999878
 30
0.0
  3
DXF29
  0
LINE
  8
VIEW
  6
CONTINUOUS
 62
     4
 10
-21.0000000
 20
237.8000031
 30
0.0
 11
-21.0000000
 21
253.8000031
 31
0.0
  0
LINE
  8
VIEW
  6
CONTINUOUS
 62
     4
 10
-6.2765498
 20
252.8000031
 30
0.0
 11
-6.2765498
 21
237.8000031
 31
0.0
  0
LINE
  8
VIEW
  6
CONTINUOUS
 62
     4
 10
21.0000000
 20
253.8000031
 30
0.0
 11
21.0000000
 21
237.8000031
 31
0.0
  0
LINE
  8
VIEW
  6
CONTINUOUS
 62
     4
 10
21.0000000
 20
237.8000031
 30
0.0
 11
6.2764888
 21
237.8000031
 31
0.0
  0
LINE
  8
VIEW
  6
CONTINUOUS
 62
     4
 10
-6.2765498
 20
237.8000031
 30
0.0
 11
-14.6201200
 21
237.8000031
 31
0.0
  0
LINE
  8
VIEW
  6
CONTINUOUS
 62
     4
 10
6.2764888
 20
252.8000031
 30
0.0
 11
6.2764888
 21
237.8000031
 31
0.0
  0
LINE
  8
VIEW
  6
CONTINUOUS
 62
     4
 10
6.2764888
 20
237.8000031
 30
0.0
 11
-6.2765498
 21
237.8000031
 31
0.0
  0
LINE
  8
VIEW
  6
CONTINUOUS
 62
     4
 10
-14.6201200
 20
252.8000031
 30
0.0
 11
-14.6201200
 21
237.8000031
 31
0.0
  0
LINE
  8
VIEW
  6
CONTINUOUS
 62
     4
 10
-14.6201200
 20
237.8000031
 30
0.0
 11
-21.0000000
 21
237.8000031
 31
0.0
  0
LINE
  8
VIEW
  6
CONTINUOUS
 62
     4
 10
14.6201801
 20
237.8000031
 30
0.0
 11
14.6201801
 21
252.8000031
 31
0.0
  0
ENDBLK
  8
VIEW
  0
BLOCK
  8
VIEW
  2
DXF30
 70
    64
 10
148.8000031
 20
288.5000000
 30
0.0
  3
DXF30
  0
LINE
  8
VIEW
  6
CONTINUOUS
 62
     2
 10
-1.4848020
 20
380.7849121
 30
0.0
 11
1.4849850
 21
377.8150940
 31
0.0
  0
LINE
  8
VIEW
  6
CONTINUOUS
 62
     2
 10
-1.4848020
 20
377.8150940
 30
0.0
 11
1.4849850
 21
380.7849121
 31
0.0
  0
LINE
  8
VIEW
  6
CONTINUOUS
 62
     2
 10
7.7645869
 20
350.3222046
 30
0.0
 11
6.2115479
 21
356.1177979
 31
0.0
  0
LINE
  8
VIEW
  6
CONTINUOUS
 62
     2
 10
-6.2116089
 20
356.1177979
 30
0.0
 11
-7.7646480
 21
350.3222046
 31
0.0
  0
LINE
  8
VIEW
  6
CONTINUOUS
 62
     2
 10
-2.5999150
 20
354.2999878
 30
0.0
 11
2.6000979
 21
354.2999878
 31
0.0
  0
LINE
  8
VIEW
  6
CONTINUOUS
 62
     2
 10
-5.4624019
 20
378.6581116
 30
0.0
 11
-2.5999150
 21
354.2999878
 31
0.0
  0
LINE
  8
VIEW
  6
CONTINUOUS
 62
     2
 10
2.6000979
 20
354.2999878
 30
0.0
 11
5.4623408
 21
378.6581116
 31
0.0
  0
ARC
  8
VIEW
  6
CONTINUOUS
 62
     2
 10
0.0000000
 20
379.2999878
 30
0.0
 40
24.0000000
 50
276.5456848
 51
285.0000000
  0
ARC
  8
VIEW
  6
CONTINUOUS
 62
     2
 10
0.0000000
 20
379.2999878
 30
0.0
 40
30.0000000
 50
255.0000000
 51
285.0000000
  0
ARC
  8
VIEW
  6
CONTINUOUS
 62
     2
 10
0.0000000
 20
379.2999878
 30
0.0
 40
24.0000000
 50
255.0000000
 51
263.4543152
  0
ARC
  8
VIEW
  6
CONTINUOUS
 62
     2
 10
0.0000000
 20
379.2999878
 30
0.0
 40
5.5000000
 50
353.2976990
 51
186.7023010
  0
CIRCLE
  8
VIEW
  6
CONTINUOUS
 62
     2
 10
0.0000000
 20
379.2999878
 30
0.0
 40
4.1500001
  0
ENDBLK
  8
VIEW
  0
BLOCK
  8
WORKLAYER
  2
DXF31
 70
    64
 10
-20.0000000
 20
316.9765015
 30
0.0
  3
DXF31
  0
LINE
  8
WORKLAYER
  6
CONTINUOUS
 62
     2
 10
20.0000000
 20
313.7999878
 30
0.0
 11
-20.0000000
 21
313.7999878
 31
0.0
  0
LINE
  8
WORKLAYER
  6
CONTINUOUS
 62
     2
 10
-20.0000000
 20
313.7999878
 30
0.0
 11
-20.0000000
 21
316.9765015
 31
0.0
  0
LINE
  8
WORKLAYER
  6
CONTINUOUS
 62
     2
 10
-20.0000000
 20
316.9765015
 30
0.0
 11
20.0000000
 21
316.9765015
 31
0.0
  0
LINE
  8
WORKLAYER
  6
CONTINUOUS
 62
     2
 10
20.0000000
 20
316.9765015
 30
0.0
 11
20.0000000
 21
313.7999878
 31
0.0
  0
ENDBLK
  8
WORKLAYER
  0
BLOCK
  8
VIEW
  2
DXF32
 70
    64
 10
-11.4059401
 20
313.7999878
 30
0.0
  3
DXF32
  0
LINE
  8
VIEW
  6
CONTINUOUS
 62
     2
 10
-22.4284096
 20
399.2239990
 30
0.0
 11
-17.7418194
 21
395.4625854
 31
0.0
  0
LINE
  8
VIEW
  6
CONTINUOUS
 62
     2
 10
-19.6195107
 20
393.1229858
 30
0.0
 11
-24.3062096
 21
396.8843994
 31
0.0
  0
ARC
  8
VIEW
  6
CONTINUOUS
 62
     2
 10
0.0000000
 20
379.2999878
 30
0.0
 40
24.0000000
 50
137.6667023
 51
144.8332977
  0
ARC
  8
VIEW
  6
CONTINUOUS
 62
     2
 10
0.0000000
 20
379.2999878
 30
0.0
 40
30.0000000
 50
138.3840027
 51
144.1159973
  0
ENDBLK
  8
VIEW
  0
BLOCK
  8
VIEW
  2
DXF33
 70
    64
 10
-11.4059401
 20
313.7999878
 30
0.0
  3
DXF33
  0
LINE
  8
VIEW
  6
CONTINUOUS
 62
     2
 10
32.5000000
 20
414.7999878
 30
0.0
 11
-32.5000000
 21
414.7999878
 31
0.0
  0
LINE
  8
VIEW
  6
CONTINUOUS
 62
     2
 10
35.5000000
 20
341.2999878
 30
0.0
 11
35.5000000
 21
411.7999878
 31
0.0
  0
LINE
  8
VIEW
  6
CONTINUOUS
 62
     2
 10
-35.5000000
 20
341.2999878
 30
0.0
 11
35.5000000
 21
341.2999878
 31
0.0
  0
LINE
  8
VIEW
  6
CONTINUOUS
 62
     2
 10
-35.5000000
 20
411.7999878
 30
0.0
 11
-35.5000000
 21
341.2999878
 31
0.0
  0
ARC
  8
VIEW
  6
CONTINUOUS
 62
     2
 10
32.5000000
 20
411.7999878
 30
0.0
 40
3.0000000
 50
0.0000000
 51
90.0000000
  0
ARC
  8
VIEW
  6
CONTINUOUS
 62
     2
 10
-32.5000000
 20
411.7999878
 30
0.0
 40
3.0000000
 50
90.0000000
 51
180.0000000
  0
CIRCLE
  8
VIEW
  6
CONTINUOUS
 62
     2
 10
32.5000000
 20
411.7999878
 30
0.0
 40
2.0000000
  0
CIRCLE
  8
VIEW
  6
CONTINUOUS
 62
     2
 10
-32.5000000
 20
411.7999878
 30
0.0
 40
2.0000000
  0
ENDBLK
  8
VIEW
  0
BLOCK
  8
0
  2
DXF34
 70
    64
 10
-69.0426025
 20
275.6236877
 30
0.0
  3
DXF34
  0
LINE
  8
0
  6
CONTINUOUS
 62
     4
 10
-58.0000000
 20
280.7999878
 30
0.0
 11
-57.3810997
 21
281.1571960
 31
0.0
  0
LINE
  8
0
  6
CONTINUOUS
 62
     4
 10
-66.0000000
 20
280.7999878
 30
0.0
 11
-58.0000000
 21
280.7999878
 31
0.0
  0
LINE
  8
0
  6
CONTINUOUS
 62
     4
 10
-66.0000000
 20
280.7999878
 30
0.0
 11
-66.6187134
 21
281.1571960
 31
0.0
  0
LINE
  8
0
  6
CONTINUOUS
 62
     4
 10
-58.0000000
 20
284.7999878
 30
0.0
 11
-57.3810997
 21
284.4428101
 31
0.0
  0
LINE
  8
0
  6
CONTINUOUS
 62
     4
 10
-66.0000000
 20
284.7999878
 30
0.0
 11
-58.0000000
 21
284.7999878
 31
0.0
  0
LINE
  8
0
  6
CONTINUOUS
 62
     4
 10
-57.3810997
 20
284.4428101
 30
0.0
 11
-57.3810997
 21
281.1571960
 31
0.0
  0
LINE
  8
0
  6
CONTINUOUS
 62
     4
 10
-66.6187134
 20
284.4428101
 30
0.0
 11
-66.6187134
 21
281.1571960
 31
0.0
  0
LINE
  8
0
  6
CONTINUOUS
 62
     4
 10
-66.0000000
 20
284.7999878
 30
0.0
 11
-66.6187134
 21
284.4428101
 31
0.0
  0
ARC
  8
0
  6
CONTINUOUS
 62
     4
 10
-64.3091965
 20
277.8717957
 30
0.0
 40
6.9282041
 50
70.5288086
 51
90.0000000
  0
LINE
  8
0
  6
CONTINUOUS
 62
     4
 10
-62.0000000
 20
284.4038086
 30
0.0
 11
-62.0000000
 21
281.1962891
 31
0.0
  0
ARC
  8
0
  6
CONTINUOUS
 62
     4
 10
-59.6906090
 20
277.8717957
 30
0.0
 40
6.9282041
 50
90.0000000
 51
109.4711990
  0
ARC
  8
0
  6
CONTINUOUS
 62
     4
 10
-59.6906090
 20
287.7282104
 30
0.0
 40
6.9282041
 50
250.5287933
 51
270.0000000
  0
ARC
  8
0
  6
CONTINUOUS
 62
     4
 10
-64.3091965
 20
287.7282104
 30
0.0
 40
6.9282041
 50
270.0000000
 51
289.4711914
  0
ENDBLK
  8
0
  0
BLOCK
  8
VIEW
  2
DXF35
 70
    64
 10
-11.4059401
 20
313.7999878
 30
0.0
  3
DXF35
  0
LINE
  8
VIEW
  6
CONTINUOUS
 62
     4
 10
-24.0000000
 20
288.2999878
 30
0.0
 11
-24.0000000
 21
253.8000031
 31
0.0
  0
LINE
  8
VIEW
  6
CONTINUOUS
 62
     4
 10
2.0000000
 20
254.3000031
 30
0.0
 11
2.0000000
 21
255.3999939
 31
0.0
  0
LINE
  8
VIEW
  6
CONTINUOUS
 62
     4
 10
2.0000000
 20
255.3999939
 30
0.0
 11
2.0000000
 21
257.7999878
 31
0.0
  0
LINE
  8
VIEW
  6
CONTINUOUS
 62
     4
 10
-3.5000000
 20
260.7999878
 30
0.0
 11
3.5000000
 21
260.7999878
 31
0.0
  0
LINE
  8
VIEW
  6
CONTINUOUS
 62
     4
 10
3.5000000
 20
260.7999878
 30
0.0
 11
3.5000000
 21
288.2999878
 31
0.0
  0
LINE
  8
VIEW
  6
CONTINUOUS
 62
     4
 10
-2.0000000
 20
255.3999939
 30
0.0
 11
2.0000000
 21
255.3999939
 31
0.0
  0
LINE
  8
VIEW
  6
CONTINUOUS
 62
     4
 10
24.0000000
 20
288.2999878
 30
0.0
 11
24.0000000
 21
253.8000031
 31
0.0
  0
LINE
  8
VIEW
  6
CONTINUOUS
 62
     4
 10
3.7999880
 20
288.2999878
 30
0.0
 11
3.7999880
 21
253.8000031
 31
0.0
  0
ARC
  8
VIEW
  6
CONTINUOUS
 62
     4
 10
0.0000000
 20
257.7999878
 30
0.0
 40
2.0000000
 50
0.0000000
 51
90.0000000
  0
LINE
  8
VIEW
  6
CONTINUOUS
 62
     4
 10
-3.8000491
 20
254.3000031
 30
0.0
 11
-2.0000000
 21
254.3000031
 31
0.0
  0
LINE
  8
VIEW
  6
CONTINUOUS
 62
     4
 10
-2.0000000
 20
255.3999939
 30
0.0
 11
-2.0000000
 21
257.7999878
 31
0.0
  0
LINE
  8
VIEW
  6
CONTINUOUS
 62
     4
 10
-2.0000000
 20
254.3000031
 30
0.0
 11
-2.0000000
 21
255.3999939
 31
0.0
  0
LINE
  8
VIEW
  6
CONTINUOUS
 62
     4
 10
2.0000000
 20
254.3000031
 30
0.0
 11
3.7999880
 21
254.3000031
 31
0.0
  0
LINE
  8
VIEW
  6
CONTINUOUS
 62
     4
 10
-3.5000000
 20
288.2999878
 30
0.0
 11
-3.5000000
 21
260.7999878
 31
0.0
  0
LINE
  8
VIEW
  6
CONTINUOUS
 62
     4
 10
24.0000000
 20
253.8000031
 30
0.0
 11
3.7999880
 21
253.8000031
 31
0.0
  0
LINE
  8
VIEW
  6
CONTINUOUS
 62
     4
 10
-24.0000000
 20
253.8000031
 30
0.0
 11
-3.8000491
 21
253.8000031
 31
0.0
  0
LINE
  8
VIEW
  6
CONTINUOUS
 62
     4
 10
-3.8000491
 20
288.2999878
 30
0.0
 11
-3.8000491
 21
253.8000031
 31
0.0
  0
ARC
  8
VIEW
  6
CONTINUOUS
 62
     4
 10
0.0000000
 20
257.7999878
 30
0.0
 40
2.0000000
 50
90.0000000
 51
180.0000000
  0
LINE
  8
VIEW
  6
CONTINUOUS
 62
     4
 10
19.0000000
 20
253.8000031
 30
0.0
 11
19.0000000
 21
252.8000031
 31
0.0
  0
LINE
  8
VIEW
  6
CONTINUOUS
 62
     4
 10
18.7500000
 20
253.8000031
 30
0.0
 11
18.7500000
 21
252.8000031
 31
0.0
  0
LINE
  8
VIEW
  6
CONTINUOUS
 62
     4
 10
-19.0000000
 20
252.8000031
 30
0.0
 11
-19.0000000
 21
253.8000031
 31
0.0
  0
LINE
  8
VIEW
  6
CONTINUOUS
 62
     4
 10
19.0000000
 20
252.8000031
 30
0.0
 11
6.2764888
 21
252.8000031
 31
0.0
  0
LINE
  8
VIEW
  6
CONTINUOUS
 62
     4
 10
-14.6201200
 20
252.8000031
 30
0.0
 11
-19.0000000
 21
252.8000031
 31
0.0
  0
LINE
  8
VIEW
  6
CONTINUOUS
 62
     4
 10
18.7500000
 20
252.8000031
 30
0.0
 11
-18.7500000
 21
252.8000031
 31
0.0
  0
LINE
  8
VIEW
  6
CONTINUOUS
 62
     4
 10
-18.7500000
 20
252.8000031
 30
0.0
 11
-18.7500000
 21
253.8000031
 31
0.0
  0
ENDBLK
  8
VIEW
  0
BLOCK
  8
VIEW
  2
DXF36
 70
    64
 10
-11.4059401
 20
313.7999878
 30
0.0
  3
DXF36
  0
LINE
  8
VIEW
  6
CONTINUOUS
 62
     4
 10
32.5000000
 20
416.7999878
 30
0.0
 11
-32.5000000
 21
416.7999878
 31
0.0
  0
LINE
  8
VIEW
  6
CONTINUOUS
 62
     4
 10
-37.5000000
 20
411.7999878
 30
0.0
 11
-37.5000000
 21
306.7999878
 31
0.0
  0
LINE
  8
VIEW
  6
CONTINUOUS
 62
     4
 10
37.5000000
 20
306.7999878
 30
0.0
 11
37.5000000
 21
411.7999878
 31
0.0
  0
LINE
  8
VIEW
  6
CONTINUOUS
 62
     4
 10
-32.5000000
 20
301.7999878
 30
0.0
 11
32.5000000
 21
301.7999878
 31
0.0
  0
ARC
  8
VIEW
  6
CONTINUOUS
 62
     4
 10
32.5000000
 20
411.7999878
 30
0.0
 40
5.0000000
 50
0.0000000
 51
90.0000000
  0
ARC
  8
VIEW
  6
CONTINUOUS
 62
     4
 10
32.5000000
 20
306.7999878
 30
0.0
 40
5.0000000
 50
270.0000000
 51
0.0000000
  0
ARC
  8
VIEW
  6
CONTINUOUS
 62
     4
 10
-32.5000000
 20
306.7999878
 30
0.0
 40
5.0000000
 50
180.0000000
 51
270.0000000
  0
ARC
  8
VIEW
  6
CONTINUOUS
 62
     4
 10
-32.5000000
 20
411.7999878
 30
0.0
 40
5.0000000
 50
90.0000000
 51
180.0000000
  0
ENDBLK
  8
VIEW
  0
BLOCK
  8
VIEW
  2
DXF37
 70
    64
 10
-11.4059401
 20
313.7999878
 30
0.0
  3
DXF37
  0
LINE
  8
VIEW
  6
CONTINUOUS
 62
     2
 10
23.9529400
 20
377.7999878
 30
0.0
 11
29.9623394
 21
377.7999878
 31
0.0
  0
LINE
  8
VIEW
  6
CONTINUOUS
 62
     2
 10
29.9623394
 20
380.7999878
 30
0.0
 11
23.9529400
 21
380.7999878
 31
0.0
  0
ARC
  8
VIEW
  6
CONTINUOUS
 62
     2
 10
0.0000000
 20
379.2999878
 30
0.0
 40
30.0000000
 50
357.1340027
 51
2.8659840
  0
ARC
  8
VIEW
  6
CONTINUOUS
 62
     2
 10
0.0000000
 20
379.2999878
 30
0.0
 40
24.0000000
 50
356.4166870
 51
3.5833220
  0
ENDBLK
  8
VIEW
  0
BLOCK
  8
VIEW
  2
DXF39
 70
    64
 10
-11.4059401
 20
313.7999878
 30
0.0
  3
DXF39
  0
LINE
  8
VIEW
  6
CONTINUOUS
 62
     2
 10
-24.3062096
 20
361.7156067
 30
0.0
 11
-19.6195107
 21
365.4769897
 31
0.0
  0
LINE
  8
VIEW
  6
CONTINUOUS
 62
     2
 10
-17.7418194
 20
363.1373901
 30
0.0
 11
-22.4284096
 21
359.3760071
 31
0.0
  0
ARC
  8
VIEW
  6
CONTINUOUS
 62
     2
 10
0.0000000
 20
379.2999878
 30
0.0
 40
30.0000000
 50
215.8840027
 51
221.6159973
  0
ARC
  8
VIEW
  6
CONTINUOUS
 62
     2
 10
0.0000000
 20
379.2999878
 30
0.0
 40
24.0000000
 50
215.1667023
 51
222.3332977
  0
ENDBLK
  8
VIEW
  0
BLOCK
  8
VIEW
  2
DXF40
 70
    64
 10
129.6000061
 20
283.7999878
 30
0.0
  3
DXF40
  0
ARC
  8
VIEW
  6
CONTINUOUS
 62
     4
 10
0.0000000
 20
245.8000031
 30
0.0
 40
5.0000000
 50
9.2068958
 51
170.7931061
  0
LINE
  8
VIEW
  6
CONTINUOUS
 62
     4
 10
-5.0000000
 20
246.6000061
 30
0.0
 11
-4.9356079
 21
246.6000061
 31
0.0
  0
LINE
  8
VIEW
  6
CONTINUOUS
 62
     4
 10
0.0000000
 20
251.5735016
 30
0.0
 11
-5.0000000
 21
248.6867065
 31
0.0
  0
LINE
  8
VIEW
  6
CONTINUOUS
 62
     4
 10
-5.0000000
 20
248.6867065
 30
0.0
 11
-5.0000000
 21
246.6000061
 31
0.0
  0
LINE
  8
VIEW
  6
CONTINUOUS
 62
     4
 10
5.0000000
 20
242.9132996
 30
0.0
 11
5.0000000
 21
245.0000000
 31
0.0
  0
LINE
  8
VIEW
  6
CONTINUOUS
 62
     4
 10
5.0000000
 20
248.6867065
 30
0.0
 11
0.0000000
 21
251.5735016
 31
0.0
  0
LINE
  8
VIEW
  6
CONTINUOUS
 62
     4
 10
0.0000000
 20
240.0265045
 30
0.0
 11
5.0000000
 21
242.9132996
 31
0.0
  0
LINE
  8
VIEW
  6
CONTINUOUS
 62
     4
 10
-5.0000000
 20
246.6000061
 30
0.0
 11
-5.0000000
 21
245.0000000
 31
0.0
  0
LINE
  8
VIEW
  6
CONTINUOUS
 62
     4
 10
-4.9356079
 20
246.6000061
 30
0.0
 11
4.9355469
 21
246.6000061
 31
0.0
  0
LINE
  8
VIEW
  6
CONTINUOUS
 62
     4
 10
5.0000000
 20
246.6000061
 30
0.0
 11
5.0000000
 21
248.6867065
 31
0.0
  0
LINE
  8
VIEW
  6
CONTINUOUS
 62
     4
 10
4.9355469
 20
245.0000000
 30
0.0
 11
-4.9356079
 21
245.0000000
 31
0.0
  0
LINE
  8
VIEW
  6
CONTINUOUS
 62
     4
 10
-4.9356079
 20
245.0000000
 30
0.0
 11
-5.0000000
 21
245.0000000
 31
0.0
  0
LINE
  8
VIEW
  6
CONTINUOUS
 62
     4
 10
-5.0000000
 20
245.0000000
 30
0.0
 11
-5.0000000
 21
242.9132996
 31
0.0
  0
LINE
  8
VIEW
  6
CONTINUOUS
 62
     4
 10
0.0000000
 20
240.0265045
 30
0.0
 11
-5.0000000
 21
242.9132996
 31
0.0
  0
ARC
  8
VIEW
  6
CONTINUOUS
 62
     4
 10
0.0000000
 20
245.8000031
 30
0.0
 40
5.0000000
 50
189.2068939
 51
350.7930908
  0
LINE
  8
VIEW
  6
CONTINUOUS
 62
     4
 10
5.0000000
 20
245.0000000
 30
0.0
 11
5.0000000
 21
246.6000061
 31
0.0
  0
ENDBLK
  8
VIEW
  0
BLOCK
  8
VIEW
  2
DXF41
 70
    64
 10
148.8000031
 20
431.2999878
 30
0.0
  3
DXF41
  0
LINE
  8
VIEW
  6
CONTINUOUS
 62
     4
 10
53.5000000
 20
306.7999878
 30
0.0
 11
54.4730797
 21
306.7999878
 31
0.0
  0
ARC
  8
VIEW
  6
CONTINUOUS
 62
     4
 10
47.0999794
 20
303.2804871
 30
0.0
 40
9.0000000
 50
0.0000000
 51
16.7528191
  0
LINE
  8
VIEW
  6
CONTINUOUS
 62
     4
 10
53.5000000
 20
299.7999878
 30
0.0
 11
54.4847412
 21
299.7999878
 31
0.0
  0
ARC
  8
VIEW
  6
CONTINUOUS
 62
     4
 10
47.0999794
 20
303.2804871
 30
0.0
 40
9.0000000
 50
343.5495911
 51
0.0000000
  0
ARC
  8
VIEW
  6
CONTINUOUS
 62
     4
 10
54.4730797
 20
305.5000000
 30
0.0
 40
1.3000000
 50
16.7528191
 51
90.0000000
  0
ARC
  8
VIEW
  6
CONTINUOUS
 62
     4
 10
54.4847412
 20
301.1000061
 30
0.0
 40
1.3000000
 50
270.0000000
 51
343.5495911
  0
ENDBLK
  8
VIEW
  0
BLOCK
  8
VIEW
  2
DXF42
 70
    64
 10
-11.4059401
 20
313.7999878
 30
0.0
  3
DXF42
  0
LINE
  8
VIEW
  6
CONTINUOUS
 62
     2
 10
-29.9624004
 20
380.7999878
 30
0.0
 11
-23.9529991
 21
380.7999878
 31
0.0
  0
LINE
  8
VIEW
  6
CONTINUOUS
 62
     2
 10
-23.9529991
 20
377.7999878
 30
0.0
 11
-29.9624004
 21
377.7999878
 31
0.0
  0
ARC
  8
VIEW
  6
CONTINUOUS
 62
     2
 10
0.0000000
 20
379.2999878
 30
0.0
 40
30.0000000
 50
177.1340027
 51
182.8659973
  0
ARC
  8
VIEW
  6
CONTINUOUS
 62
     2
 10
0.0000000
 20
379.2999878
 30
0.0
 40
24.0000000
 50
176.4167023
 51
183.5832977
  0
ENDBLK
  8
VIEW
  0
BLOCK
  8
VIEW
  2
DXF43
 70
    64
 10
148.8000031
 20
431.2999878
 30
0.0
  3
DXF43
  0
LINE
  8
VIEW
  6
CONTINUOUS
 62
     4
 10
-26.6223106
 20
140.0000000
 30
0.0
 11
-26.6223106
 21
151.0104980
 31
0.0
  0
LINE
  8
VIEW
  6
CONTINUOUS
 62
     4
 10
26.6222496
 20
151.0104980
 30
0.0
 11
26.6222496
 21
140.0000000
 31
0.0
  0
LINE
  8
VIEW
  6
CONTINUOUS
 62
     4
 10
26.6222496
 20
140.0000000
 30
0.0
 11
17.0000000
 21
140.0000000
 31
0.0
  0
LINE
  8
VIEW
  6
CONTINUOUS
 62
     4
 10
-26.6223106
 20
140.0000000
 30
0.0
 11
-17.0000000
 21
140.0000000
 31
0.0
  0
LINE
  8
VIEW
  6
CONTINUOUS
 62
     4
 10
17.0000000
 20
160.0000000
 30
0.0
 11
17.0000000
 21
140.0000000
 31
0.0
  0
LINE
  8
VIEW
  6
CONTINUOUS
 62
     4
 10
-17.0000000
 20
160.0000000
 30
0.0
 11
-17.0000000
 21
140.0000000
 31
0.0
  0
LINE
  8
VIEW
  6
CONTINUOUS
 62
     4
 10
-22.0000000
 20
165.0000000
 30
0.0
 11
-52.5000000
 21
165.0000000
 31
0.0
  0
LINE
  8
VIEW
  6
CONTINUOUS
 62
     4
 10
-23.0576191
 20
147.3952026
 30
0.0
 11
-35.4883995
 21
164.4521027
 31
0.0
  0
LINE
  8
VIEW
  6
CONTINUOUS
 62
     4
 10
-23.4519005
 20
147.0923004
 30
0.0
 11
-37.4983482
 21
164.4521027
 31
0.0
  0
LINE
  8
VIEW
  6
CONTINUOUS
 62
     4
 10
-22.7696495
 20
164.2303925
 30
0.0
 11
-22.7696495
 21
147.3952026
 31
0.0
  0
LINE
  8
VIEW
  6
CONTINUOUS
 62
     4
 10
-52.5000000
 20
177.0000000
 30
0.0
 11
52.5000000
 21
177.0000000
 31
0.0
  0
LINE
  8
VIEW
  6
CONTINUOUS
 62
     4
 10
-38.2199097
 20
168.0000000
 30
0.0
 11
38.2200890
 21
168.0000000
 31
0.0
  0
LINE
  8
VIEW
  6
CONTINUOUS
 62
     4
 10
-39.4663086
 20
176.0348969
 30
0.0
 11
-39.2194214
 21
168.9651031
 31
0.0
  0
LINE
  8
VIEW
  6
CONTINUOUS
 62
     4
 10
-52.5000000
 20
165.0000000
 30
0.0
 11
-52.5000000
 21
177.0000000
 31
0.0
  0
ARC
  8
VIEW
  6
CONTINUOUS
 62
     4
 10
-38.6465492
 20
163.5229950
 30
0.0
 40
1.4769900
 50
38.9773407
 51
90.0000000
  0
ARC
  8
VIEW
  6
CONTINUOUS
 62
     4
 10
-22.0000000
 20
164.2303925
 30
0.0
 40
0.7695855
 50
90.0000000
 51
180.0000000
  0
ARC
  8
VIEW
  6
CONTINUOUS
 62
     4
 10
-40.4657593
 20
176.0000000
 30
0.0
 40
1.0000000
 50
2.0000000
 51
90.0000000
  0
ARC
  8
VIEW
  6
CONTINUOUS
 62
     4
 10
-38.2199097
 20
169.0000000
 30
0.0
 40
1.0000000
 50
182.0000000
 51
270.0000000
  0
ARC
  8
VIEW
  6
CONTINUOUS
 62
     4
 10
-22.0000000
 20
160.0000000
 30
0.0
 40
5.0000000
 50
0.0000000
 51
90.0000000
  0
LINE
  8
VIEW
  6
CONTINUOUS
 62
     4
 10
37.4982910
 20
164.4521027
 30
0.0
 11
23.4520893
 21
147.0923004
 31
0.0
  0
LINE
  8
VIEW
  6
CONTINUOUS
 62
     4
 10
35.4883385
 20
164.4521027
 30
0.0
 11
23.0575600
 21
147.3952026
 31
0.0
  0
LINE
  8
VIEW
  6
CONTINUOUS
 62
     4
 10
22.7695904
 20
147.3952026
 30
0.0
 11
22.7695904
 21
164.2303925
 31
0.0
  0
LINE
  8
VIEW
  6
CONTINUOUS
 62
     4
 10
22.0000000
 20
165.0000000
 30
0.0
 11
52.5000000
 21
165.0000000
 31
0.0
  0
LINE
  8
VIEW
  6
CONTINUOUS
 62
     4
 10
39.2194786
 20
168.9651031
 30
0.0
 11
39.4662514
 21
176.0348969
 31
0.0
  0
LINE
  8
VIEW
  6
CONTINUOUS
 62
     4
 10
52.5000000
 20
177.0000000
 30
0.0
 11
52.5000000
 21
165.0000000
 31
0.0
  0
ARC
  8
VIEW
  6
CONTINUOUS
 62
     4
 10
38.6464806
 20
163.5229950
 30
0.0
 40
1.4769900
 50
90.0000000
 51
141.0227051
  0
ARC
  8
VIEW
  6
CONTINUOUS
 62
     4
 10
22.0000000
 20
164.2303925
 30
0.0
 40
0.7695855
 50
0.0000000
 51
90.0000000
  0
ARC
  8
VIEW
  6
CONTINUOUS
 62
     4
 10
38.2200890
 20
169.0000000
 30
0.0
 40
1.0000000
 50
270.0000000
 51
358.0000000
  0
ARC
  8
VIEW
  6
CONTINUOUS
 62
     4
 10
22.0000000
 20
160.0000000
 30
0.0
 40
5.0000000
 50
90.0000000
 51
180.0000000
  0
LINE
  8
VIEW
  6
CONTINUOUS
 62
     4
 10
23.2585392
 20
147.0000000
 30
0.0
 11
23.1647892
 21
147.0000000
 31
0.0
  0
LINE
  8
VIEW
  6
CONTINUOUS
 62
     4
 10
-23.1648598
 20
147.0000000
 30
0.0
 11
-23.2586098
 21
147.0000000
 31
0.0
  0
ARC
  8
VIEW
  6
CONTINUOUS
 62
     4
 10
23.1647892
 20
147.3952026
 30
0.0
 40
0.3952397
 50
180.0000000
 51
270.0000000
  0
ARC
  8
VIEW
  6
CONTINUOUS
 62
     4
 10
23.2585392
 20
147.2487030
 30
0.0
 40
0.2487391
 50
270.0000000
 51
321.0226135
  0
ARC
  8
VIEW
  6
CONTINUOUS
 62
     4
 10
-23.2586098
 20
147.2487030
 30
0.0
 40
0.2487391
 50
218.9772949
 51
270.0000000
  0
ARC
  8
VIEW
  6
CONTINUOUS
 62
     4
 10
-23.1648598
 20
147.3952026
 30
0.0
 40
0.3952397
 50
270.0000000
 51
0.0000000
  0
ARC
  8
VIEW
  6
CONTINUOUS
 62
     4
 10
40.4656982
 20
176.0000000
 30
0.0
 40
1.0000000
 50
90.0000000
 51
178.0000000
  0
ENDBLK
  8
VIEW
  0
BLOCK
  8
VIEW
  2
DXF44
 70
    64
 10
-15.3929396
 20
283.7882996
 30
0.0
  3
DXF44
  0
ARC
  8
VIEW
  6
CONTINUOUS
 62
     4
 10
-6.1928101
 20
237.4945068
 30
0.0
 40
3.0000000
 50
303.6702881
 51
5.6514821
  0
LINE
  8
VIEW
  6
CONTINUOUS
 62
     4
 10
-12.1928101
 20
226.4882965
 30
0.0
 11
-12.1928101
 21
227.6441040
 31
0.0
  0
LINE
  8
VIEW
  6
CONTINUOUS
 62
     4
 10
-8.5473022
 20
228.4851074
 30
0.0
 11
-2.7555540
 21
232.3433990
 31
0.0
  0
LINE
  8
VIEW
  6
CONTINUOUS
 62
     4
 10
-10.3214102
 20
231.1394958
 30
0.0
 11
-4.5296021
 21
234.9978027
 31
0.0
  0
LINE
  8
VIEW
  6
CONTINUOUS
 62
     4
 10
-8.9929199
 20
227.6528931
 30
0.0
 11
-8.9929199
 21
226.4882965
 31
0.0
  0
LINE
  8
VIEW
  6
CONTINUOUS
 62
     4
 10
-7.9929199
 20
225.4882965
 30
0.0
 11
-4.3499150
 21
225.4882965
 31
0.0
  0
LINE
  8
VIEW
  6
CONTINUOUS
 62
     4
 10
-7.9929199
 20
222.2882996
 30
0.0
 11
-4.3499150
 21
222.2882996
 31
0.0
  0
ARC
  8
VIEW
  6
CONTINUOUS
 62
     4
 10
-7.9929199
 20
226.4882965
 30
0.0
 40
1.0000000
 50
180.0000000
 51
270.0000000
  0
ARC
  8
VIEW
  6
CONTINUOUS
 62
     4
 10
-7.9929199
 20
227.6528931
 30
0.0
 40
1.0000000
 50
123.6703033
 51
180.0000000
  0
ARC
  8
VIEW
  6
CONTINUOUS
 62
     4
 10
-6.1928101
 20
237.5032959
 30
0.0
 40
6.1999998
 50
303.6702881
 51
2.7428570
  0
ARC
  8
VIEW
  6
CONTINUOUS
 62
     4
 10
-7.9929199
 20
226.4882965
 30
0.0
 40
4.1999998
 50
180.0000000
 51
270.0000000
  0
ARC
  8
VIEW
  6
CONTINUOUS
 62
     4
 10
-7.9929199
 20
227.6441040
 30
0.0
 40
4.1999998
 50
123.6703033
 51
180.0000000
  0
ENDBLK
  8
VIEW
  0
BLOCK
  8
VIEW
  2
DXF45
 70
    64
 10
-12.9995098
 20
283.8118896
 30
0.0
  3
DXF45
  0
ARC
  8
VIEW
  6
CONTINUOUS
 62
     4
 10
6.1940918
 20
237.5182037
 30
0.0
 40
3.0000000
 50
174.3484955
 51
236.3296967
  0
LINE
  8
VIEW
  6
CONTINUOUS
 62
     4
 10
12.1940899
 20
226.5119019
 30
0.0
 11
12.1940899
 21
227.6676941
 31
0.0
  0
LINE
  8
VIEW
  6
CONTINUOUS
 62
     4
 10
8.5483398
 20
228.5086975
 30
0.0
 11
2.7565920
 21
232.3670959
 31
0.0
  0
LINE
  8
VIEW
  6
CONTINUOUS
 62
     4
 10
10.3224497
 20
231.1631927
 30
0.0
 11
4.5308838
 21
235.0214996
 31
0.0
  0
LINE
  8
VIEW
  6
CONTINUOUS
 62
     4
 10
8.9939585
 20
227.6764984
 30
0.0
 11
8.9939585
 21
226.5119019
 31
0.0
  0
LINE
  8
VIEW
  6
CONTINUOUS
 62
     4
 10
7.9939580
 20
225.5119019
 30
0.0
 11
4.3500981
 21
225.5119019
 31
0.0
  0
LINE
  8
VIEW
  6
CONTINUOUS
 62
     4
 10
7.9939580
 20
222.3119049
 30
0.0
 11
4.3500981
 21
222.3119049
 31
0.0
  0
ARC
  8
VIEW
  6
CONTINUOUS
 62
     4
 10
7.9939580
 20
226.5119019
 30
0.0
 40
1.0000000
 50
270.0000000
 51
0.0000000
  0
ARC
  8
VIEW
  6
CONTINUOUS
 62
     4
 10
7.9939580
 20
227.6764984
 30
0.0
 40
1.0000000
 50
0.0000000
 51
56.3297005
  0
ARC
  8
VIEW
  6
CONTINUOUS
 62
     4
 10
6.1940918
 20
237.5269012
 30
0.0
 40
6.1999998
 50
177.4759064
 51
236.3296967
  0
ARC
  8
VIEW
  6
CONTINUOUS
 62
     4
 10
7.9939580
 20
226.5119019
 30
0.0
 40
4.1999998
 50
270.0000000
 51
0.0000000
  0
ARC
  8
VIEW
  6
CONTINUOUS
 62
     4
 10
7.9939580
 20
227.6676941
 30
0.0
 40
4.1999998
 50
0.0000000
 51
56.3297005
  0
ENDBLK
  8
VIEW
  0
BLOCK
  8
VIEW
  2
DXF46
 70
    64
 10
348.7846069
 20
414.3327026
 30
0.0
  3
DXF46
  0
LINE
  8
VIEW
  6
CONTINUOUS
 62
     4
 10
0.0000000
 20
294.2999878
 30
0.0
 11
-70.5000000
 21
294.2999878
 31
0.0
  0
LINE
  8
VIEW
  6
CONTINUOUS
 62
     4
 10
-53.4190102
 20
284.7999878
 30
0.0
 11
-70.5000000
 21
284.7999878
 31
0.0
  0
LINE
  8
VIEW
  6
CONTINUOUS
 62
     4
 10
-71.5000000
 20
293.2999878
 30
0.0
 11
-71.5000000
 21
285.7999878
 31
0.0
  0
ARC
  8
VIEW
  6
CONTINUOUS
 62
     4
 10
-70.5000000
 20
285.7999878
 30
0.0
 40
1.0000000
 50
180.0000000
 51
270.0000000
  0
ARC
  8
VIEW
  6
CONTINUOUS
 62
     4
 10
-70.5000000
 20
293.2999878
 30
0.0
 40
1.0000000
 50
90.0000000
 51
180.0000000
  0
LINE
  8
VIEW
  6
CONTINUOUS
 62
     4
 10
52.0000000
 20
287.2557983
 30
0.0
 11
53.4398804
 21
287.2557983
 31
0.0
  0
LINE
  8
VIEW
  6
CONTINUOUS
 62
     4
 10
-53.4399414
 20
287.2557983
 30
0.0
 11
-52.0000000
 21
287.2557983
 31
0.0
  0
LINE
  8
VIEW
  6
CONTINUOUS
 62
     4
 10
52.0000000
 20
288.2999878
 30
0.0
 11
52.0000000
 21
287.2557983
 31
0.0
  0
LINE
  8
VIEW
  6
CONTINUOUS
 62
     4
 10
-52.0000000
 20
288.2999878
 30
0.0
 11
-52.0000000
 21
287.2557983
 31
0.0
  0
LINE
  8
VIEW
  6
CONTINUOUS
 62
     4
 10
-53.4489098
 20
288.2999878
 30
0.0
 11
-52.5000000
 21
177.0000000
 31
0.0
  0
LINE
  8
VIEW
  6
CONTINUOUS
 62
     4
 10
53.4487915
 20
288.2999878
 30
0.0
 11
52.5000000
 21
177.0000000
 31
0.0
  0
LINE
  8
VIEW
  6
CONTINUOUS
 62
     4
 10
-24.0000000
 20
253.8000031
 30
0.0
 11
-33.9210205
 21
253.8000031
 31
0.0
  0
LINE
  8
VIEW
  6
CONTINUOUS
 62
     4
 10
52.5000000
 20
177.0000000
 30
0.0
 11
39.5000000
 21
177.0000000
 31
0.0
  0
LINE
  8
VIEW
  6
CONTINUOUS
 62
     4
 10
-39.5000000
 20
177.0000000
 30
0.0
 11
-52.5000000
 21
177.0000000
 31
0.0
  0
LINE
  8
VIEW
  6
CONTINUOUS
 62
     4
 10
36.9191895
 20
250.9046936
 30
0.0
 11
39.5000000
 21
177.0000000
 31
0.0
  0
LINE
  8
VIEW
  6
CONTINUOUS
 62
     4
 10
-39.5000000
 20
177.0000000
 30
0.0
 11
-36.9192505
 21
250.9046936
 31
0.0
  0
ARC
  8
VIEW
  6
CONTINUOUS
 62
     4
 10
-33.9210205
 20
250.8000031
 30
0.0
 40
3.0000000
 50
90.0000000
 51
178.0000000
  0
ARC
  8
VIEW
  6
CONTINUOUS
 62
     4
 10
33.9210815
 20
250.8000031
 30
0.0
 40
3.0000000
 50
2.0000000
 51
90.0000000
  0
LINE
  8
VIEW
  6
CONTINUOUS
 62
     4
 10
33.9210815
 20
253.8000031
 30
0.0
 11
24.0000000
 21
253.8000031
 31
0.0
  0
ENDBLK
  8
VIEW
  0
BLOCK
  8
0
  2
DXF47
 70
    64
 10
283.2445984
 20
373.7792969
 30
0.0
  3
DXF47
  0
LINE
  8
0
  6
CONTINUOUS
 62
     4
 10
57.9998817
 20
308.0000000
 30
0.0
 11
57.3810387
 21
307.6427002
 31
0.0
  0
LINE
  8
0
  6
CONTINUOUS
 62
     4
 10
59.4998817
 20
280.7999878
 30
0.0
 11
59.4998817
 21
278.3999939
 31
0.0
  0
LINE
  8
0
  6
CONTINUOUS
 62
     4
 10
60.3998413
 20
277.5000000
 30
0.0
 11
59.4998817
 21
278.3999939
 31
0.0
  0
LINE
  8
0
  6
CONTINUOUS
 62
     4
 10
57.3810387
 20
307.6427002
 30
0.0
 11
57.3810387
 21
304.5000000
 31
0.0
  0
ARC
  8
0
  6
CONTINUOUS
 62
     4
 10
59.6904907
 20
301.0718079
 30
0.0
 40
6.9282041
 50
70.5288086
 51
90.0000000
  0
LINE
  8
0
  6
CONTINUOUS
 62
     4
 10
61.9998817
 20
307.6037903
 30
0.0
 11
61.9998817
 21
304.5000000
 31
0.0
  0
LINE
  8
0
  6
CONTINUOUS
 62
     4
 10
60.3998413
 20
280.7999878
 30
0.0
 11
60.3998413
 21
277.5000000
 31
0.0
  0
ENDBLK
  8
0
  0
BLOCK
  8
0
  2
DXF48
 70
    64
 10
291.1485901
 20
376.1564941
 30
0.0
  3
DXF48
  0
LINE
  8
0
  6
CONTINUOUS
 62
     4
 10
57.9998817
 20
280.7999878
 30
0.0
 11
57.3810387
 21
281.1571960
 31
0.0
  0
LINE
  8
0
  6
CONTINUOUS
 62
     4
 10
57.9998817
 20
284.7999878
 30
0.0
 11
57.3810387
 21
284.4428101
 31
0.0
  0
LINE
  8
0
  6
CONTINUOUS
 62
     4
 10
57.3810387
 20
284.4428101
 30
0.0
 11
57.3810387
 21
281.1571960
 31
0.0
  0
LINE
  8
0
  6
CONTINUOUS
 62
     4
 10
61.9998817
 20
284.4038086
 30
0.0
 11
61.9998817
 21
281.1962891
 31
0.0
  0
ARC
  8
0
  6
CONTINUOUS
 62
     4
 10
59.6904907
 20
277.8717957
 30
0.0
 40
6.9282041
 50
70.5288086
 51
90.0000000
  0
ARC
  8
0
  6
CONTINUOUS
 62
     4
 10
59.6904907
 20
287.7282104
 30
0.0
 40
6.9282041
 50
270.0000000
 51
289.4711914
  0
ENDBLK
  8
0
  0
BLOCK
  8
VIEW
  2
DXF49
 70
    64
 10
-39.7000084
 20
414.2999878
 30
0.0
  3
DXF49
  0
ARC
  8
VIEW
  6
CONTINUOUS
 62
     4
 10
36.4000893
 20
462.8482056
 30
0.0
 40
12.6517897
 50
70.8515472
 51
109.1484985
  0
LINE
  8
VIEW
  6
CONTINUOUS
 62
     4
 10
32.2443810
 20
474.7811890
 30
0.0
 11
40.5434608
 21
474.7811890
 31
0.0
  0
LINE
  8
VIEW
  6
CONTINUOUS
 62
     4
 10
32.2500000
 20
474.7999878
 30
0.0
 11
32.2500000
 21
473.1000061
 31
0.0
  0
LINE
  8
VIEW
  6
CONTINUOUS
 62
     4
 10
40.5499916
 20
473.1000061
 30
0.0
 11
40.5499916
 21
474.7999878
 31
0.0
  0
ENDBLK
  8
VIEW
  0
BLOCK
  8
VIEW
  2
DXF50
 70
    64
 10
-39.7000084
 20
414.2999878
 30
0.0
  3
DXF50
  0
ARC
  8
VIEW
  6
CONTINUOUS
 62
     4
 10
-42.5000000
 20
468.2999878
 30
0.0
 40
4.0000000
 50
90.0000000
 51
180.0000000
  0
LINE
  8
VIEW
  6
CONTINUOUS
 62
     4
 10
46.5000000
 20
468.2999878
 30
0.0
 11
46.5000000
 21
429.2999878
 31
0.0
  0
LINE
  8
VIEW
  6
CONTINUOUS
 62
     4
 10
-42.5000000
 20
472.2999878
 30
0.0
 11
42.5000000
 21
472.2999878
 31
0.0
  0
LINE
  8
VIEW
  6
CONTINUOUS
 62
     4
 10
-46.5000000
 20
429.2999878
 30
0.0
 11
-46.5000000
 21
468.2999878
 31
0.0
  0
ARC
  8
VIEW
  6
CONTINUOUS
 62
     4
 10
42.5000000
 20
468.2999878
 30
0.0
 40
4.0000000
 50
0.0000000
 51
90.0000000
  0
LINE
  8
VIEW
  6
CONTINUOUS
 62
     4
 10
-30.3999004
 20
473.1000061
 30
0.0
 11
-42.3998985
 21
473.1000061
 31
0.0
  0
ARC
  8
VIEW
  6
CONTINUOUS
 62
     4
 10
-43.3949585
 20
473.2012939
 30
0.0
 40
1.0000000
 50
284.0649109
 51
354.1857910
  0
ARC
  8
VIEW
  6
CONTINUOUS
 62
     4
 10
-29.5999107
 20
473.1000061
 30
0.0
 40
0.8000000
 50
180.0000000
 51
270.0000000
  0
LINE
  8
VIEW
  6
CONTINUOUS
 62
     4
 10
30.4000893
 20
473.1000061
 30
0.0
 11
42.4000893
 21
473.1000061
 31
0.0
  0
ARC
  8
VIEW
  6
CONTINUOUS
 62
     4
 10
43.3945885
 20
473.2037048
 30
0.0
 40
1.0000000
 50
185.9501038
 51
270.9385071
  0
ARC
  8
VIEW
  6
CONTINUOUS
 62
     4
 10
29.6000996
 20
473.1000061
 30
0.0
 40
0.8000000
 50
270.0000000
 51
0.0000000
  0
ENDBLK
  8
VIEW
  0
BLOCK
  8
VIEW
  2
DXF51
 70
    64
 10
-39.7000084
 20
414.2999878
 30
0.0
  3
DXF51
  0
ARC
  8
VIEW
  6
CONTINUOUS
 62
     4
 10
-36.3998985
 20
462.8482056
 30
0.0
 40
12.6517897
 50
70.8515472
 51
109.1484985
  0
LINE
  8
VIEW
  6
CONTINUOUS
 62
     4
 10
-40.5454102
 20
474.7840881
 30
0.0
 11
-32.2564087
 21
474.7840881
 31
0.0
  0
LINE
  8
VIEW
  6
CONTINUOUS
 62
     4
 10
-32.2500000
 20
473.1000061
 30
0.0
 11
-32.2500000
 21
474.7999878
 31
0.0
  0
LINE
  8
VIEW
  6
CONTINUOUS
 62
     4
 10
-40.5500488
 20
474.7999878
 30
0.0
 11
-40.5500488
 21
473.1000061
 31
0.0
  0
ENDBLK
  8
VIEW
  0
BLOCK
  8
VIEW
  2
DXF52
 70
    64
 10
966.8145142
 20
349.4765015
 30
0.0
  3
DXF52
  0
LINE
  8
VIEW
  6
CONTINUOUS
 62
     4
 10
-56.0222206
 20
304.5000000
 30
0.0
 11
-71.5000000
 21
304.5000000
 31
0.0
  0
LINE
  8
VIEW
  6
CONTINUOUS
 62
     4
 10
-71.5000000
 20
304.5000000
 30
0.0
 11
-71.5000000
 21
294.2999878
 31
0.0
  0
ENDBLK
  8
VIEW
  0
BLOCK
  8
WORKLAYER
  2
DXF53
 70
    64
 10
-9.8000488
 20
200.5843964
 30
0.0
  3
DXF53
  0
LINE
  8
WORKLAYER
  6
CONTINUOUS
 62
     4
 10
-9.8000488
 20
200.5843964
 30
0.0
 11
9.7999878
 21
200.5843964
 31
0.0
  0
LINE
  8
WORKLAYER
  6
CONTINUOUS
 62
     4
 10
3.5499880
 20
228.5843964
 30
0.0
 11
-3.5500491
 21
228.5843964
 31
0.0
  0
LINE
  8
WORKLAYER
  6
CONTINUOUS
 62
     4
 10
-9.8000488
 20
219.1378021
 30
0.0
 11
-9.8000488
 21
200.5843964
 31
0.0
  0
ARC
  8
WORKLAYER
  6
CONTINUOUS
 62
     4
 10
0.0000000
 20
212.9832001
 30
0.0
 40
16.0000000
 50
102.8191986
 51
115.9445038
  0
LINE
  8
WORKLAYER
  6
CONTINUOUS
 62
     4
 10
-9.8000488
 20
219.1378021
 30
0.0
 11
-4.3499150
 21
222.2843933
 31
0.0
  0
ARC
  8
WORKLAYER
  6
CONTINUOUS
 62
     4
 10
0.0000000
 20
240.8856049
 30
0.0
 40
16.0000000
 50
244.0554962
 51
254.2241058
  0
LINE
  8
WORKLAYER
  6
CONTINUOUS
 62
     4
 10
-7.0000000
 20
227.3706970
 30
0.0
 11
-7.0000000
 21
226.4980927
 31
0.0
  0
LINE
  8
WORKLAYER
  6
CONTINUOUS
 62
     4
 10
-4.3499150
 20
225.4882965
 30
0.0
 11
-4.3499150
 21
222.2843933
 31
0.0
  0
ARC
  8
WORKLAYER
  6
CONTINUOUS
 62
     4
 10
0.0000000
 20
212.9832001
 30
0.0
 40
16.0000000
 50
64.0555191
 51
77.1808167
  0
LINE
  8
WORKLAYER
  6
CONTINUOUS
 62
     4
 10
9.7999878
 20
219.1378021
 30
0.0
 11
4.3500981
 21
222.2843933
 31
0.0
  0
ARC
  8
WORKLAYER
  6
CONTINUOUS
 62
     4
 10
0.0000000
 20
240.8856049
 30
0.0
 40
16.0000000
 50
285.7759094
 51
295.9444885
  0
LINE
  8
WORKLAYER
  6
CONTINUOUS
 62
     4
 10
7.0000000
 20
227.3706970
 30
0.0
 11
7.0000000
 21
226.4980927
 31
0.0
  0
LINE
  8
WORKLAYER
  6
CONTINUOUS
 62
     4
 10
4.3500981
 20
225.4882965
 30
0.0
 11
4.3500981
 21
222.2843933
 31
0.0
  0
LINE
  8
WORKLAYER
  6
CONTINUOUS
 62
     4
 10
9.7999878
 20
219.1378021
 30
0.0
 11
9.7999878
 21
200.5843964
 31
0.0
  0
LINE
  8
WORKLAYER
  6
CONTINUOUS
 62
     4
 10
-4.3499150
 20
222.2843933
 30
0.0
 11
4.3500981
 21
222.2843933
 31
0.0
  0
LINE
  8
WORKLAYER
  6
CONTINUOUS
 62
     4
 10
-4.3499150
 20
225.4882965
 30
0.0
 11
4.3500981
 21
225.4882965
 31
0.0
  0
LINE
  8
WORKLAYER
  6
CONTINUOUS
 62
     3
 10
-7.0000000
 20
227.3706970
 30
0.0
 11
7.0000000
 21
227.3706970
 31
0.0
  0
LINE
  8
WORKLAYER
  6
CONTINUOUS
 62
     3
 10
7.0000000
 20
226.4980927
 30
0.0
 11
-7.0000000
 21
226.4980927
 31
0.0
  0
ARC
  8
WORKLAYER
  6
CONTINUOUS
 62
     4
 10
0.0000000
 20
209.8289032
 30
0.0
 40
10.5197802
 50
62.2386894
 51
117.7612991
  0
LINE
  8
WORKLAYER
  6
CONTINUOUS
 62
     4
 10
-4.8999019
 20
219.1378021
 30
0.0
 11
-4.8999019
 21
200.5843964
 31
0.0
  0
LINE
  8
WORKLAYER
  6
CONTINUOUS
 62
     4
 10
4.8998408
 20
219.1378021
 30
0.0
 11
4.8998408
 21
200.5843964
 31
0.0
  0
ARC
  8
WORKLAYER
  6
CONTINUOUS
 62
     4
 10
-7.3499150
 20
214.8943024
 30
0.0
 40
4.9000049
 50
60.0000000
 51
120.0000000
  0
ARC
  8
WORKLAYER
  6
CONTINUOUS
 62
     4
 10
7.3500981
 20
214.8943024
 30
0.0
 40
4.9000049
 50
60.0000000
 51
120.0000000
  0
ENDBLK
  8
WORKLAYER
  0
BLOCK
  8
WORKLAYER
  2
DXF54
 70
    64
 10
53.0000610
 20
-110.0000000
 30
0.0
  3
DXF54
  0
LINE
  8
WORKLAYER
  6
CONTINUOUS
 62
     4
 10
52.8896484
 20
-111.0000000
 30
0.0
 11
6.0000000
 21
-111.0000000
 31
0.0
  0
LINE
  8
WORKLAYER
  6
CONTINUOUS
 62
     4
 10
-6.0000000
 20
-111.0000000
 30
0.0
 11
-52.9998207
 21
-111.0000000
 31
0.0
  0
ENDBLK
  8
WORKLAYER
  0
BLOCK
  8
WORKLAYER
  2
DXF57
 70
    64
 10
13.0000000
 20
-52.5000114
 30
0.0
  3
DXF57
  0
LINE
  8
WORKLAYER
  6
CONTINUOUS
 62
     4
 10
25.0000000
 20
-52.5000114
 30
0.0
 11
17.0000000
 21
-52.5000114
 31
0.0
  0
LINE
  8
WORKLAYER
  6
CONTINUOUS
 62
     4
 10
17.0000000
 20
-52.5000114
 30
0.0
 11
-23.0000000
 21
-52.5000114
 31
0.0
  0
ENDBLK
  8
WORKLAYER
  0
BLOCK
  8
WORKLAYER
  2
DXF58
 70
    64
 10
13.0000000
 20
-56.5000114
 30
0.0
  3
DXF58
  0
LINE
  8
WORKLAYER
  6
CONTINUOUS
 62
     4
 10
25.0000000
 20
-56.5000114
 30
0.0
 11
17.0000000
 21
-56.5000114
 31
0.0
  0
LINE
  8
WORKLAYER
  6
CONTINUOUS
 62
     4
 10
5.3381958
 20
-56.5000114
 30
0.0
 11
-23.0000000
 21
-56.5000114
 31
0.0
  0
ENDBLK
  8
WORKLAYER
  0
BLOCK
  8
WORKLAYER
  2
DXF60
 70
    64
 10
2.0000000
 20
-113.0000000
 30
0.0
  3
DXF60
  0
LINE
  8
WORKLAYER
  6
CONTINUOUS
 62
     4
 10
2.0000000
 20
-73.5000076
 30
0.0
 11
2.0000000
 21
-71.5000076
 31
0.0
  0
ARC
  8
WORKLAYER
  6
CONTINUOUS
 62
     4
 10
17.0000000
 20
-71.5000076
 30
0.0
 40
15.0000000
 50
450.0000000
 51
180.0000000
  0
ENDBLK
  8
WORKLAYER
  0
BLOCK
  8
WORKLAYER
  2
DXF61
 70
    64
 10
-2.0000000
 20
-113.0000000
 30
0.0
  3
DXF61
  0
LINE
  8
WORKLAYER
  6
CONTINUOUS
 62
     4
 10
-2.0000000
 20
-73.5000076
 30
0.0
 11
-2.0000000
 21
-71.5000076
 31
0.0
  0
ARC
  8
WORKLAYER
  6
CONTINUOUS
 62
     4
 10
17.0000000
 20
-71.5000076
 30
0.0
 40
19.0000000
 50
487.8637085
 51
180.0000000
  0
ENDBLK
  8
WORKLAYER
  0
BLOCK
  8
WORKLAYER
  2
DXF64
 70
    64
 10
25.0000000
 20
-113.0000000
 30
0.0
  3
DXF64
  0
LINE
  8
WORKLAYER
  6
CONTINUOUS
 62
     4
 10
25.0000000
 20
-57.5000114
 30
0.0
 11
25.0000000
 21
-56.5000114
 31
0.0
  0
LINE
  8
WORKLAYER
  6
CONTINUOUS
 62
     4
 10
25.0000000
 20
-52.5000114
 30
0.0
 11
25.0000000
 21
-51.5000114
 31
0.0
  0
ENDBLK
  8
WORKLAYER
  0
BLOCK
  8
AREA
  2
DXF76
 70
    64
 10
0.0000000
 20
-24.2500000
 30
0.0
  3
DXF76
  0
LINE
  8
AREA
  6
CONTINUOUS
 62
     4
 10
0.0000000
 20
-24.2500000
 30
0.0
 11
13.0000000
 21
-24.2500000
 31
0.0
  0
LINE
  8
AREA
  6
CONTINUOUS
 62
     4
 10
13.0000000
 20
-24.2500000
 30
0.0
 11
13.0000000
 21
-25.7500000
 31
0.0
  0
LINE
  8
AREA
  6
CONTINUOUS
 62
     4
 10
13.0000000
 20
-25.7500000
 30
0.0
 11
0.0000000
 21
-25.7500000
 31
0.0
  0
LINE
  8
AREA
  6
CONTINUOUS
 62
     4
 10
0.0000000
 20
-25.7500000
 30
0.0
 11
0.0000000
 21
-24.2500000
 31
0.0
  0
ENDBLK
  8
AREA
  0
BLOCK
  8
AREA
  2
DXF77
 70
    64
 10
79.0000000
 20
206.3943024
 30
0.0
  3
DXF77
  0
LINE
  8
AREA
  6
CONTINUOUS
 62
     4
 10
79.0000000
 20
-3.1000061
 30
0.0
 11
79.0000000
 21
-4.8000031
 31
0.0
  0
ARC
  8
AREA
  6
CONTINUOUS
 62
     4
 10
74.8000488
 20
-4.8000031
 30
0.0
 40
4.1999998
 50
270.0000000
 51
360.0000000
  0
ARC
  8
AREA
  6
CONTINUOUS
 62
     4
 10
74.8000488
 20
-3.1000061
 30
0.0
 40
4.1999998
 50
360.0000000
 51
407.5692139
  0
ENDBLK
  8
AREA
  0
BLOCK
  8
AREA
  2
DXF80
 70
    64
 10
-66.9128418
 20
8.3043060
 30
0.0
  3
DXF80
  0
LINE
  8
AREA
  6
CONTINUOUS
 62
     4
 10
-68.9998169
 20
2.0431061
 30
0.0
 11
-70.9475098
 21
-3.8000031
 31
0.0
  0
LINE
  8
AREA
  6
CONTINUOUS
 62
     4
 10
-71.6809082
 20
-6.0000000
 30
0.0
 11
-72.6809082
 21
-9.0000000
 31
0.0
  0
ENDBLK
  8
AREA
  0
BLOCK
  8
AREA
  2
DXF85
 70
    64
 10
-71.0869064
 20
8.3043060
 30
0.0
  3
DXF85
  0
LINE
  8
AREA
  6
CONTINUOUS
 62
     4
 10
-68.9998169
 20
2.0431061
 30
0.0
 11
-67.0522537
 21
-3.8000031
 31
0.0
  0
LINE
  8
AREA
  6
CONTINUOUS
 62
     4
 10
-66.3189087
 20
-6.0000000
 30
0.0
 11
-65.3189087
 21
-9.0000000
 31
0.0
  0
ENDBLK
  8
AREA
  0
BLOCK
  8
AREA
  2
DXF91
 70
    64
 10
57.0955811
 20
-9.6694031
 30
0.0
  3
DXF91
  0
LINE
  8
AREA
  6
CONTINUOUS
 62
     4
 10
57.3094482
 20
-9.0000000
 30
0.0
 11
58.2678795
 21
-6.0000000
 31
0.0
  0
LINE
  8
AREA
  6
CONTINUOUS
 62
     4
 10
58.9705811
 20
-3.8000031
 30
0.0
 11
60.7500000
 21
1.7702030
 31
0.0
  0
ENDBLK
  8
AREA
  0
BLOCK
  8
AREA
  2
DXF96
 70
    64
 10
64.4042969
 20
-9.6694031
 30
0.0
  3
DXF96
  0
LINE
  8
AREA
  6
CONTINUOUS
 62
     4
 10
64.1905518
 20
-9.0000000
 30
0.0
 11
63.2322998
 21
-6.0000000
 31
0.0
  0
LINE
  8
AREA
  6
CONTINUOUS
 62
     4
 10
62.5293007
 20
-3.8000031
 30
0.0
 11
60.7500000
 21
1.7702030
 31
0.0
  0
ENDBLK
  8
AREA
  0
BLOCK
  8
AREA
  2
DXF102
 70
    64
 10
76.8000488
 20
9.0000000
 30
0.0
  3
DXF102
  0
LINE
  8
AREA
  6
CONTINUOUS
 62
     4
 10
76.8000488
 20
-3.1000061
 30
0.0
 11
76.8000488
 21
-4.8000031
 31
0.0
  0
ARC
  8
AREA
  6
CONTINUOUS
 62
     4
 10
74.8000488
 20
-4.8000031
 30
0.0
 40
2.0000000
 50
270.0000000
 51
360.0000000
  0
ARC
  8
AREA
  6
CONTINUOUS
 62
     4
 10
74.8000488
 20
-3.1000061
 30
0.0
 40
2.0000000
 50
360.0000000
 51
450.0000000
  0
ENDBLK
  8
AREA
  0
BLOCK
  8
AREA
  2
DXF106
 70
    64
 10
79.0000000
 20
-206.3943024
 30
0.0
  3
DXF106
  0
LINE
  8
AREA
  6
CONTINUOUS
 62
     4
 10
79.0000000
 20
3.1000061
 30
0.0
 11
79.0000000
 21
4.8000031
 31
0.0
  0
ARC
  8
AREA
  6
CONTINUOUS
 62
     4
 10
74.8000488
 20
4.8000031
 30
0.0
 40
4.1999998
 50
360.0000000
 51
450.0000000
  0
ARC
  8
AREA
  6
CONTINUOUS
 62
     4
 10
74.8000488
 20
3.1000061
 30
0.0
 40
4.1999998
 50
312.4307861
 51
360.0000000
  0
ENDBLK
  8
AREA
  0
BLOCK
  8
AREA
  2
DXF108
 70
    64
 10
76.8000488
 20
-9.0000000
 30
0.0
  3
DXF108
  0
LINE
  8
AREA
  6
CONTINUOUS
 62
     4
 10
76.8000488
 20
3.1000061
 30
0.0
 11
76.8000488
 21
4.8000031
 31
0.0
  0
ARC
  8
AREA
  6
CONTINUOUS
 62
     4
 10
74.8000488
 20
4.8000031
 30
0.0
 40
2.0000000
 50
360.0000000
 51
450.0000000
  0
ARC
  8
AREA
  6
CONTINUOUS
 62
     4
 10
74.8000488
 20
3.1000061
 30
0.0
 40
2.0000000
 50
270.0000000
 51
360.0000000
  0
ENDBLK
  8
AREA
  0
BLOCK
  8
WORKLAYER
  2
DXF111
 70
    64
 10
-513.0000000
 20
-17.1917000
 30
0.0
  3
DXF111
  0
LINE
  8
WORKLAYER
  6
CONTINUOUS
 62
     4
 10
-3.0000000
 20
69.8526917
 30
0.0
 11
-3.0000000
 21
109.0000000
 31
0.0
  0
ARC
  8
WORKLAYER
  6
CONTINUOUS
 62
     4
 10
-8.0000000
 20
109.0000000
 30
0.0
 40
5.0000000
 50
360.0000000
 51
450.0000000
  0
ENDBLK
  8
WORKLAYER
  0
BLOCK
  8
WORKLAYER
  2
DXF112
 70
    64
 10
-507.0000000
 20
-17.1917000
 30
0.0
  3
DXF112
  0
LINE
  8
WORKLAYER
  6
CONTINUOUS
 62
     4
 10
3.0000000
 20
69.8526917
 30
0.0
 11
3.0000000
 21
109.0000000
 31
0.0
  0
ARC
  8
WORKLAYER
  6
CONTINUOUS
 62
     4
 10
8.0000000
 20
109.0000000
 30
0.0
 40
5.0000000
 50
450.0000000
 51
180.0000000
  0
ENDBLK
  8
WORKLAYER
  0
BLOCK
  8
AREA
  2
DXF113
 70
    64
 10
19.0000000
 20
183.2828064
 30
0.0
  3
DXF113
  0
LINE
  8
AREA
  6
CONTINUOUS
 62
     4
 10
-19.0000000
 20
109.0000000
 30
0.0
 11
-19.0000000
 21
78.0000000
 31
0.0
  0
ARC
  8
AREA
  6
CONTINUOUS
 62
     4
 10
-24.0000000
 20
78.0000000
 30
0.0
 40
5.0000000
 50
270.0000000
 51
360.0000000
  0
ENDBLK
  8
AREA
  0
BLOCK
  8
WORKLAYER
  2
DXF114
 70
    64
 10
-141.0000000
 20
114.0000000
 30
0.0
  3
DXF114
  0
ARC
  8
WORKLAYER
  6
CONTINUOUS
 62
     4
 10
-24.0000000
 20
109.0000000
 30
0.0
 40
5.0000000
 50
360.0000000
 51
413.1300964
  0
ARC
  8
WORKLAYER
  6
CONTINUOUS
 62
     4
 10
-18.0000000
 20
117.0000000
 30
0.0
 40
5.0000000
 50
180.0000000
 51
233.1300964
  0
ENDBLK
  8
WORKLAYER
  0
BLOCK
  8
AREA
  2
DXF116
 70
    64
 10
35.0000000
 20
672.9498291
 30
0.0
  3
DXF116
  0
LINE
  8
AREA
  6
CONTINUOUS
 62
     4
 10
-34.9998207
 20
92.6150970
 30
0.0
 11
-34.9998207
 21
78.0000000
 31
0.0
  0
ARC
  8
AREA
  6
CONTINUOUS
 62
     4
 10
-39.9998207
 20
78.0000000
 30
0.0
 40
5.0000000
 50
270.0000000
 51
360.0000000
  0
ARC
  8
AREA
  6
CONTINUOUS
 62
     4
 10
-29.9999409
 20
92.6150970
 30
0.0
 40
5.0000000
 50
509.0361938
 51
180.0000000
  0
ENDBLK
  8
AREA
  0
BLOCK
  8
AREA
  2
DXF117
 70
    64
 10
-19.0000000
 20
183.2828064
 30
0.0
  3
DXF117
  0
LINE
  8
AREA
  6
CONTINUOUS
 62
     4
 10
19.0000000
 20
107.1518021
 30
0.0
 11
19.0000000
 21
104.9803009
 31
0.0
  0
LINE
  8
AREA
  6
CONTINUOUS
 62
     4
 10
19.0000000
 20
109.0000000
 30
0.0
 11
19.0000000
 21
76.9187927
 31
0.0
  0
ARC
  8
AREA
  6
CONTINUOUS
 62
     4
 10
24.0000000
 20
76.9187927
 30
0.0
 40
5.0000000
 50
180.0000000
 51
256.2998047
  0
ENDBLK
  8
AREA
  0
BLOCK
  8
AREA
  2
DXF120
 70
    64
 10
23.0000000
 20
114.0000000
 30
0.0
  3
DXF120
  0
LINE
  8
AREA
  6
CONTINUOUS
 62
     4
 10
-23.7124004
 20
112.8125000
 30
0.0
 11
-34.2874107
 21
95.1875916
 31
0.0
  0
ARC
  8
AREA
  6
CONTINUOUS
 62
     4
 10
-28.0000000
 20
115.3849030
 30
0.0
 40
5.0000000
 50
329.0361938
 51
360.0000000
  0
ENDBLK
  8
AREA
  0
BLOCK
  8
AREA
  2
DXF123
 70
    64
 10
-34.9998207
 20
92.6150970
 30
0.0
  3
DXF123
  0
LINE
  8
AREA
  6
CONTINUOUS
 62
     4
 10
35.0000000
 20
92.6150970
 30
0.0
 11
35.0000000
 21
68.6181870
 31
0.0
  0
ARC
  8
AREA
  6
CONTINUOUS
 62
     4
 10
40.0000000
 20
68.6181870
 30
0.0
 40
5.0000000
 50
180.0000000
 51
228.8605042
  0
ENDBLK
  8
AREA
  0
BLOCK
  8
WORKLAYER
  2
DXF133
 70
    64
 10
-78.0000000
 20
-110.0000000
 30
0.0
  3
DXF133
  0
LINE
  8
WORKLAYER
  6
CONTINUOUS
 62
     4
 10
78.0000610
 20
-88.1269989
 30
0.0
 11
78.0000610
 21
-76.1350327
 31
0.0
  0
ARC
  8
WORKLAYER
  6
CONTINUOUS
 62
     4
 10
102.5000992
 20
-76.1350327
 30
0.0
 40
24.5000000
 50
473.9483948
 51
180.0000000
  0
ENDBLK
  8
WORKLAYER
  0
BLOCK
  8
WORKLAYER
  2
DXF146
 70
    64
 10
-47.9998207
 20
-110.0000000
 30
0.0
  3
DXF146
  0
LINE
  8
WORKLAYER
  6
CONTINUOUS
 62
     4
 10
48.0000000
 20
24.2021008
 30
0.0
 11
48.0000000
 21
40.0000000
 31
0.0
  0
ARC
  8
WORKLAYER
  6
CONTINUOUS
 62
     4
 10
15.0000000
 20
40.0000000
 30
0.0
 40
33.0000000
 50
360.0000000
 51
408.8605042
  0
ARC
  8
WORKLAYER
  6
CONTINUOUS
 62
     4
 10
15.0000000
 20
40.0000000
 30
0.0
 40
33.0000000
 50
408.8605042
 51
450.0000000
  0
ENDBLK
  8
WORKLAYER
  0
BLOCK
  8
WORKLAYER
  2
DXF149
 70
    64
 10
81.0000000
 20
-90.0001068
 30
0.0
  3
DXF149
  0
LINE
  8
WORKLAYER
  6
CONTINUOUS
 62
     4
 10
-79.5175171
 20
-89.6027985
 30
0.0
 11
-61.4117393
 21
-84.7513428
 31
0.0
  0
ARC
  8
WORKLAYER
  6
CONTINUOUS
 62
     4
 10
-78.9998169
 20
-91.5347137
 30
0.0
 40
2.0000000
 50
465.0000000
 51
180.0000000
  0
ARC
  8
WORKLAYER
  6
CONTINUOUS
 62
     4
 10
-63.9998207
 20
-75.0921173
 30
0.0
 40
10.0000000
 50
285.0000000
 51
360.0000000
  0
ENDBLK
  8
WORKLAYER
  0
BLOCK
  8
WORKLAYER
  2
DXF151
 70
    64
 10
15.1323900
 20
-33.9625015
 30
0.0
  3
DXF151
  0
LINE
  8
WORKLAYER
  6
CONTINUOUS
 62
     4
 10
63.3514404
 20
15.7543898
 30
0.0
 11
106.3738022
 21
43.0077095
 31
0.0
  0
ARC
  8
WORKLAYER
  6
CONTINUOUS
 62
     4
 10
58.0000610
 20
24.2021008
 30
0.0
 40
10.0000000
 50
180.0000000
 51
302.3529968
  0
ENDBLK
  8
WORKLAYER
  0
BLOCK
  8
WORKLAYER
  2
DXF152
 70
    64
 10
79.5815430
 20
-31.4778004
 30
0.0
  3
DXF152
  0
LINE
  8
WORKLAYER
  6
CONTINUOUS
 62
     4
 10
-77.1107178
 20
-29.0835991
 30
0.0
 11
-67.5671997
 21
-19.8348999
 31
0.0
  0
ARC
  8
WORKLAYER
  6
CONTINUOUS
 62
     4
 10
-105.2957001
 20
0.0000000
 30
0.0
 40
40.5000000
 50
277.0137024
 51
314.1010132
  0
ENDBLK
  8
WORKLAYER
  0
BLOCK
  8
WORKLAYER
  2
DXF153
 70
    64
 10
14.8326397
 20
101.6995010
 30
0.0
  3
DXF153
  0
LINE
  8
WORKLAYER
  6
CONTINUOUS
 62
     4
 10
-71.9027100
 20
67.1443863
 30
0.0
 11
-106.2368011
 21
46.3556099
 31
0.0
  0
ARC
  8
WORKLAYER
  6
CONTINUOUS
 62
     4
 10
-127.2135010
 20
81.0000000
 30
0.0
 40
40.5000000
 50
297.1758118
 51
301.1942139
  0
ARC
  8
WORKLAYER
  6
CONTINUOUS
 62
     4
 10
-110.9998016
 20
49.4188995
 30
0.0
 40
5.0000000
 50
180.0000000
 51
297.1758118
  0
ENDBLK
  8
WORKLAYER
  0
BLOCK
  8
WORKLAYER
  2
DXF158
 70
    64
 10
54.0000000
 20
-98.0001068
 30
0.0
  3
DXF158
  0
LINE
  8
WORKLAYER
  6
CONTINUOUS
 62
     4
 10
-53.9998207
 20
-75.0921173
 30
0.0
 11
-53.9998207
 21
5.0000000
 31
0.0
  0
ARC
  8
WORKLAYER
  6
CONTINUOUS
 62
     4
 10
-61.9998207
 20
-25.5799007
 30
0.0
 40
8.0000000
 50
360.0000000
 51
494.1010132
  0
ENDBLK
  8
WORKLAYER
  0
BLOCK
  8
WORKLAYER
  2
DXF159
 70
    64
 10
138.0000000
 20
73.0000000
 30
0.0
  3
DXF159
  0
LINE
  8
WORKLAYER
  6
CONTINUOUS
 62
     4
 10
-50.9262085
 20
73.0000000
 30
0.0
 11
-39.9998207
 21
73.0000000
 31
0.0
  0
LINE
  8
WORKLAYER
  6
CONTINUOUS
 62
     4
 10
-39.9998207
 20
73.0000000
 30
0.0
 11
-3.0000000
 21
73.0000000
 31
0.0
  0
LINE
  8
WORKLAYER
  6
CONTINUOUS
 62
     4
 10
3.0000000
 20
73.0000000
 30
0.0
 11
15.0000000
 21
73.0000000
 31
0.0
  0
ARC
  8
WORKLAYER
  6
CONTINUOUS
 62
     4
 10
-50.9262085
 20
32.5000000
 30
0.0
 40
40.5000000
 50
450.0000000
 51
481.1942139
  0
ENDBLK
  8
WORKLAYER
  0
BLOCK
  8
WORKLAYER
  2
DXF160
 70
    64
 10
138.0000000
 20
87.5000000
 30
0.0
  3
DXF160
  0
LINE
  8
WORKLAYER
  6
CONTINUOUS
 62
     4
 10
-137.9998016
 20
87.5000000
 30
0.0
 11
-117.9998016
 21
87.5000000
 31
0.0
  0
LINE
  8
WORKLAYER
  6
CONTINUOUS
 62
     4
 10
-115.9998016
 20
85.5000000
 30
0.0
 11
-115.9998016
 21
0.0000000
 31
0.0
  0
LINE
  8
WORKLAYER
  6
CONTINUOUS
 62
     4
 10
-115.9998016
 20
0.0000000
 30
0.0
 11
-115.9998016
 21
-85.5000076
 31
0.0
  0
LINE
  8
WORKLAYER
  6
CONTINUOUS
 62
     4
 10
-117.9998016
 20
-87.5000229
 30
0.0
 11
-137.9998016
 21
-87.5000229
 31
0.0
  0
LINE
  8
WORKLAYER
  6
CONTINUOUS
 62
     4
 10
-137.9998016
 20
-87.5000229
 30
0.0
 11
-137.9998016
 21
87.5000000
 31
0.0
  0
ARC
  8
WORKLAYER
  6
CONTINUOUS
 62
     4
 10
-117.9998016
 20
-85.5000076
 30
0.0
 40
2.0000000
 50
270.0000000
 51
360.0000000
  0
ARC
  8
WORKLAYER
  6
CONTINUOUS
 62
     4
 10
-117.9998016
 20
85.5000000
 30
0.0
 40
2.0000000
 50
360.0000000
 51
450.0000000
  0
ENDBLK
  8
WORKLAYER
  0
BLOCK
  8
WORKLAYER
  2
DXF161
 70
    64
 10
-116.0000000
 20
87.5000000
 30
0.0
  3
DXF161
  0
LINE
  8
WORKLAYER
  6
CONTINUOUS
 62
     4
 10
118.0000992
 20
87.5000000
 30
0.0
 11
138.0001068
 21
87.5000000
 31
0.0
  0
LINE
  8
WORKLAYER
  6
CONTINUOUS
 62
     4
 10
138.0001068
 20
87.5000000
 30
0.0
 11
138.0001068
 21
-87.5000229
 31
0.0
  0
LINE
  8
WORKLAYER
  6
CONTINUOUS
 62
     4
 10
138.0001068
 20
-87.5000229
 30
0.0
 11
118.0000992
 21
-87.5000229
 31
0.0
  0
LINE
  8
WORKLAYER
  6
CONTINUOUS
 62
     4
 10
116.0000992
 20
-85.5000076
 30
0.0
 11
116.0000992
 21
0.0000000
 31
0.0
  0
LINE
  8
WORKLAYER
  6
CONTINUOUS
 62
     4
 10
116.0000992
 20
0.0000000
 30
0.0
 11
116.0000992
 21
85.5000000
 31
0.0
  0
ARC
  8
WORKLAYER
  6
CONTINUOUS
 62
     4
 10
118.0000992
 20
-85.5000076
 30
0.0
 40
2.0000000
 50
180.0000000
 51
270.0000000
  0
ARC
  8
WORKLAYER
  6
CONTINUOUS
 62
     4
 10
118.0000992
 20
85.5000000
 30
0.0
 40
2.0000000
 50
450.0000000
 51
180.0000000
  0
ENDBLK
  8
WORKLAYER
  0
BLOCK
  8
WORKLAYER
  2
DXF162
 70
    64
 10
81.0000000
 20
-90.0001068
 30
0.0
  3
DXF162
  0
LINE
  8
WORKLAYER
  6
CONTINUOUS
 62
     4
 10
81.0000610
 20
-92.0001068
 30
0.0
 11
81.0000610
 21
-106.0000000
 31
0.0
  0
LINE
  8
WORKLAYER
  6
CONTINUOUS
 62
     4
 10
79.0000610
 20
-108.0000000
 30
0.0
 11
0.0000000
 21
-108.0000000
 31
0.0
  0
LINE
  8
WORKLAYER
  6
CONTINUOUS
 62
     4
 10
0.0000000
 20
-108.0000000
 30
0.0
 11
-78.9998169
 21
-108.0000000
 31
0.0
  0
LINE
  8
WORKLAYER
  6
CONTINUOUS
 62
     4
 10
-80.9998169
 20
-106.0000000
 30
0.0
 11
-80.9998169
 21
-91.5347137
 31
0.0
  0
ARC
  8
WORKLAYER
  6
CONTINUOUS
 62
     4
 10
-78.9998169
 20
-106.0000000
 30
0.0
 40
2.0000000
 50
180.0000000
 51
270.0000000
  0
ARC
  8
WORKLAYER
  6
CONTINUOUS
 62
     4
 10
79.0000610
 20
-106.0000000
 30
0.0
 40
2.0000000
 50
270.0000000
 51
360.0000000
  0
ARC
  8
WORKLAYER
  6
CONTINUOUS
 62
     4
 10
79.0000610
 20
-92.0001068
 30
0.0
 40
2.0000000
 50
360.0000000
 51
435.5224915
  0
ARC
  8
WORKLAYER
  6
CONTINUOUS
 62
     4
 10
80.0000610
 20
-88.1269989
 30
0.0
 40
2.0000000
 50
180.0000000
 51
255.5225067
  0
ENDBLK
  8
WORKLAYER
  0
BLOCK
  8
WORKLAYER
  2
DXF163
 70
    64
 10
53.0000000
 20
-108.0000000
 30
0.0
  3
DXF163
  0
LINE
  8
WORKLAYER
  6
CONTINUOUS
 62
     4
 10
52.8896484
 20
-110.0000000
 30
0.0
 11
6.0000000
 21
-110.0000000
 31
0.0
  0
LINE
  8
WORKLAYER
  6
CONTINUOUS
 62
     4
 10
-6.0000000
 20
-110.0000000
 30
0.0
 11
-52.8897095
 21
-110.0000000
 31
0.0
  0
ENDBLK
  8
WORKLAYER
  0
BLOCK
  8
SSYMB
  2
DXF164
 70
    64
 10
-12.9588003
 20
-106.0000000
 30
0.0
  3
DXF164
  0
LINE
  8
SSYMB
  6
CONTINUOUS
 62
     4
 10
-10.6029100
 20
-96.0001068
 30
0.0
 11
-9.3589478
 21
-96.0001068
 31
0.0
  0
LINE
  8
SSYMB
  6
CONTINUOUS
 62
     4
 10
-9.3589478
 20
-96.0001068
 30
0.0
 11
-9.3589478
 21
-106.0000000
 31
0.0
  0
LINE
  8
SSYMB
  6
CONTINUOUS
 62
     4
 10
-9.3589478
 20
-106.0000000
 30
0.0
 11
-10.8589497
 21
-106.0000000
 31
0.0
  0
LINE
  8
SSYMB
  6
CONTINUOUS
 62
     4
 10
-10.8589497
 20
-106.0000000
 30
0.0
 11
-10.8589497
 21
-99.0001068
 31
0.0
  0
LINE
  8
SSYMB
  6
CONTINUOUS
 62
     4
 10
-10.8589497
 20
-99.0001068
 30
0.0
 11
-12.9588003
 21
-99.0001068
 31
0.0
  0
LINE
  8
SSYMB
  6
CONTINUOUS
 62
     4
 10
-12.9588003
 20
-99.0001068
 30
0.0
 11
-12.9588003
 21
-98.3560028
 31
0.0
  0
ARC
  8
SSYMB
  6
CONTINUOUS
 62
     4
 10
-12.9588003
 20
-96.0001068
 30
0.0
 40
2.3559999
 50
270.0000000
 51
360.0000000
  0
ENDBLK
  8
SSYMB
  0
BLOCK
  8
SSYMB
  2
DXF165
 70
    64
 10
4.8069458
 20
-106.0000000
 30
0.0
  3
DXF165
  0
LINE
  8
SSYMB
  6
CONTINUOUS
 62
     4
 10
6.3069458
 20
-100.5298996
 30
0.0
 11
10.8371000
 21
-96.0001068
 31
0.0
  0
LINE
  8
SSYMB
  6
CONTINUOUS
 62
     4
 10
10.8371000
 20
-96.0001068
 30
0.0
 11
12.9589796
 21
-96.0001068
 31
0.0
  0
LINE
  8
SSYMB
  6
CONTINUOUS
 62
     4
 10
12.9589796
 20
-96.0001068
 30
0.0
 11
8.8890991
 21
-100.0699005
 31
0.0
  0
LINE
  8
SSYMB
  6
CONTINUOUS
 62
     4
 10
8.8890991
 20
-100.0699005
 30
0.0
 11
13.0408897
 21
-106.0000000
 31
0.0
  0
LINE
  8
SSYMB
  6
CONTINUOUS
 62
     4
 10
13.0408897
 20
-106.0000000
 30
0.0
 11
11.2100801
 21
-106.0000000
 31
0.0
  0
LINE
  8
SSYMB
  6
CONTINUOUS
 62
     4
 10
11.2100801
 20
-106.0000000
 30
0.0
 11
7.8119512
 21
-101.1468964
 31
0.0
  0
LINE
  8
SSYMB
  6
CONTINUOUS
 62
     4
 10
7.8119512
 20
-101.1468964
 30
0.0
 11
6.3069458
 21
-102.6520004
 31
0.0
  0
LINE
  8
SSYMB
  6
CONTINUOUS
 62
     4
 10
6.3069458
 20
-102.6520004
 30
0.0
 11
6.3069458
 21
-106.0000000
 31
0.0
  0
LINE
  8
SSYMB
  6
CONTINUOUS
 62
     4
 10
6.3069458
 20
-106.0000000
 30
0.0
 11
4.8069458
 21
-106.0000000
 31
0.0
  0
LINE
  8
SSYMB
  6
CONTINUOUS
 62
     4
 10
4.8069458
 20
-106.0000000
 30
0.0
 11
4.8069458
 21
-96.0001068
 31
0.0
  0
LINE
  8
SSYMB
  6
CONTINUOUS
 62
     4
 10
4.8069458
 20
-96.0001068
 30
0.0
 11
6.3069458
 21
-96.0001068
 31
0.0
  0
LINE
  8
SSYMB
  6
CONTINUOUS
 62
     4
 10
6.3069458
 20
-96.0001068
 30
0.0
 11
6.3069458
 21
-100.5298996
 31
0.0
  0
ENDBLK
  8
SSYMB
  0
BLOCK
  8
SSYMB
  2
DXF166
 70
    64
 10
-5.8769531
 20
-106.0000000
 30
0.0
  3
DXF166
  0
POLYLINE
  8
SSYMB
  6
CONTINUOUS
 62
     4
 66
     1
 10
0.0
 20
0.0
 30
0.0
 70
     1
  0
VERTEX
  8
SSYMB
 10
-2.2760008
 20
-97.4688997
 30
0.0
  0
VERTEX
  8
SSYMB
 10
-3.0872887
 20
-97.7378317
 30
0.0
  0
VERTEX
  8
SSYMB
 10
-3.7750676
 20
-98.5036906
 30
0.0
  0
VERTEX
  8
SSYMB
 10
-4.2346263
 20
-99.6498805
 30
0.0
  0
VERTEX
  8
SSYMB
 10
-4.3960009
 20
-101.0018989
 30
0.0
  0
VERTEX
  8
SSYMB
 10
-4.2346274
 20
-102.3539174
 30
0.0
  0
VERTEX
  8
SSYMB
 10
-3.7750695
 20
-103.5001077
 30
0.0
  0
VERTEX
  8
SSYMB
 10
-3.0872912
 20
-104.2659671
 30
0.0
  0
VERTEX
  8
SSYMB
 10
-2.2760034
 20
-104.5348997
 30
0.0
  0
VERTEX
  8
SSYMB
 10
-1.4647153
 20
-104.2659682
 30
0.0
  0
VERTEX
  8
SSYMB
 10
-0.7769359
 20
-103.5001098
 30
0.0
  0
VERTEX
  8
SSYMB
 10
-0.3173765
 20
-102.3539201
 30
0.0
  0
VERTEX
  8
SSYMB
 10
-0.1560011
 20
-101.0018998
 30
0.0
  0
VERTEX
  8
SSYMB
 10
-0.3173754
 20
-99.6498808
 30
0.0
  0
VERTEX
  8
SSYMB
 10
-0.7769340
 20
-98.5036908
 30
0.0
  0
VERTEX
  8
SSYMB
 10
-1.4647128
 20
-97.7378318
 30
0.0
  0
SEQEND
  8
SSYMB
  0
POLYLINE
  8
SSYMB
  6
CONTINUOUS
 62
     4
 66
     1
 10
0.0
 20
0.0
 30
0.0
 70
     1
  0
VERTEX
  8
SSYMB
 10
-2.2760007
 20
-95.9910002
 30
0.0
  0
VERTEX
  8
SSYMB
 10
-3.6559556
 20
-96.3722853
 30
0.0
  0
VERTEX
  8
SSYMB
 10
-4.8258286
 20
-97.4581010
 30
0.0
  0
VERTEX
  8
SSYMB
 10
-5.6075120
 20
-99.0831407
 30
0.0
  0
VERTEX
  8
SSYMB
 10
-5.8820009
 20
-100.9999986
 30
0.0
  0
VERTEX
  8
SSYMB
 10
-5.6075135
 20
-102.9168568
 30
0.0
  0
VERTEX
  8
SSYMB
 10
-4.8258312
 20
-104.5418971
 30
0.0
  0
VERTEX
  8
SSYMB
 10
-3.6559591
 20
-105.6277137
 30
0.0
  0
VERTEX
  8
SSYMB
 10
-2.2760044
 20
-106.0089998
 30
0.0
  0
VERTEX
  8
SSYMB
 10
-0.8960493
 20
-105.6277156
 30
0.0
  0
VERTEX
  8
SSYMB
 10
0.2738244
 20
-104.5419006
 30
0.0
  0
VERTEX
  8
SSYMB
 10
1.0555089
 20
-102.9168614
 30
0.0
  0
VERTEX
  8
SSYMB
 10
1.3299990
 20
-101.0000002
 30
0.0
  0
VERTEX
  8
SSYMB
 10
1.0555103
 20
-99.0831411
 30
0.0
  0
VERTEX
  8
SSYMB
 10
0.2738271
 20
-97.4581013
 30
0.0
  0
VERTEX
  8
SSYMB
 10
-0.8960458
 20
-96.3722854
 30
0.0
  0
SEQEND
  8
SSYMB
  0
ENDBLK
  8
SSYMB
  0
BLOCK
  8
SSYMB
  2
DXF167
 70
    64
 10
2.7563479
 20
-37.4967995
 30
0.0
  3
DXF167
  0
ARC
  8
SSYMB
  6
CONTINUOUS
 62
     4
 10
9.8818970
 20
-38.8937988
 30
0.0
 40
7.2600002
 50
478.0000000
 51
528.9000244
  0
ARC
  8
SSYMB
  6
CONTINUOUS
 62
     4
 10
1.6562500
 20
-24.9787006
 30
0.0
 40
8.9243002
 50
302.6000061
 51
315.3999939
  0
ARC
  8
SSYMB
  6
CONTINUOUS
 62
     4
 10
6.4785771
 20
-30.0760994
 30
0.0
 40
1.9239000
 50
323.0000000
 51
189.8000031
  0
LINE
  8
SSYMB
  6
CONTINUOUS
 62
     4
 10
4.5820918
 20
-30.4039001
 30
0.0
 11
2.9198000
 21
-30.4039001
 31
0.0
  0
ARC
  8
SSYMB
  6
CONTINUOUS
 62
     4
 10
6.4785771
 20
-30.0760994
 30
0.0
 40
3.5639999
 50
305.6000061
 51
185.1999969
  0
ARC
  8
SSYMB
  6
CONTINUOUS
 62
     4
 10
1.6562500
 20
-24.9787006
 30
0.0
 40
10.5710001
 50
302.5000000
 51
310.7000122
  0
ARC
  8
SSYMB
  6
CONTINUOUS
 62
     4
 10
10.2516499
 20
-38.8717995
 30
0.0
 40
5.7750001
 50
480.2000122
 51
508.3999939
  0
LINE
  8
SSYMB
  6
CONTINUOUS
 62
     4
 10
5.3312988
 20
-35.8512001
 30
0.0
 11
10.2439003
 21
-35.8512001
 31
0.0
  0
LINE
  8
SSYMB
  6
CONTINUOUS
 62
     4
 10
10.2439003
 20
-35.8512001
 30
0.0
 11
10.2439003
 21
-37.5000000
 31
0.0
  0
LINE
  8
SSYMB
  6
CONTINUOUS
 62
     4
 10
10.2439003
 20
-37.5000000
 30
0.0
 11
2.7563479
 21
-37.5000000
 31
0.0
  0
ENDBLK
  8
SSYMB
  0
BLOCK
  8
SSYMB
  2
DXF168
 70
    64
 10
3.5200810
 20
-23.5000000
 30
0.0
  3
DXF168
  0
LINE
  8
SSYMB
  6
CONTINUOUS
 62
     4
 10
6.1116939
 20
-12.5000000
 30
0.0
 11
7.4799800
 21
-12.5000000
 31
0.0
  0
LINE
  8
SSYMB
  6
CONTINUOUS
 62
     4
 10
7.4799800
 20
-12.5000000
 30
0.0
 11
7.4799800
 21
-23.5000000
 31
0.0
  0
LINE
  8
SSYMB
  6
CONTINUOUS
 62
     4
 10
7.4799800
 20
-23.5000000
 30
0.0
 11
5.8300781
 21
-23.5000000
 31
0.0
  0
LINE
  8
SSYMB
  6
CONTINUOUS
 62
     4
 10
5.8300781
 20
-23.5000000
 30
0.0
 11
5.8300781
 21
-15.8000002
 31
0.0
  0
LINE
  8
SSYMB
  6
CONTINUOUS
 62
     4
 10
5.8300781
 20
-15.8000002
 30
0.0
 11
3.5200810
 21
-15.8000002
 31
0.0
  0
LINE
  8
SSYMB
  6
CONTINUOUS
 62
     4
 10
3.5200810
 20
-15.8000002
 30
0.0
 11
3.5200810
 21
-15.0916004
 31
0.0
  0
ARC
  8
SSYMB
  6
CONTINUOUS
 62
     4
 10
3.5200810
 20
-12.5000000
 30
0.0
 40
2.5915999
 50
270.0000000
 51
360.0000000
  0
ENDBLK
  8
SSYMB
  0
BLOCK
  8
WORKLAYER
  2
DXF179
 70
    64
 10
87.5000000
 20
-225.0000000
 30
0.0
  3
DXF179
  0
LINE
  8
WORKLAYER
  6
CONTINUOUS
 62
     4
 10
-87.5000000
 20
-225.0000000
 30
0.0
 11
87.5000000
 21
-225.0000000
 31
0.0
  0
LINE
  8
WORKLAYER
  6
CONTINUOUS
 62
     4
 10
87.5000000
 20
-225.0000000
 30
0.0
 11
87.5000000
 21
-205.0000000
 31
0.0
  0
LINE
  8
WORKLAYER
  6
CONTINUOUS
 62
     4
 10
85.5000000
 20
-203.0000000
 30
0.0
 11
0.0000000
 21
-203.0000000
 31
0.0
  0
LINE
  8
WORKLAYER
  6
CONTINUOUS
 62
     4
 10
0.0000000
 20
-203.0000000
 30
0.0
 11
-85.5000000
 21
-203.0000000
 31
0.0
  0
LINE
  8
WORKLAYER
  6
CONTINUOUS
 62
     4
 10
-87.5000000
 20
-205.0000000
 30
0.0
 11
-87.5000000
 21
-225.0000000
 31
0.0
  0
ARC
  8
WORKLAYER
  6
CONTINUOUS
 62
     4
 10
50.7700806
 20
-198.0000000
 30
0.0
 40
5.0000000
 50
203.6284943
 51
270.0000000
  0
ARC
  8
WORKLAYER
  6
CONTINUOUS
 62
     4
 10
-50.7701416
 20
-198.0000000
 30
0.0
 40
5.0000000
 50
270.0000000
 51
336.3714905
  0
ARC
  8
WORKLAYER
  6
CONTINUOUS
 62
     4
 10
85.5000000
 20
-205.0000000
 30
0.0
 40
2.0000000
 50
0.0000000
 51
90.0000000
  0
ARC
  8
WORKLAYER
  6
CONTINUOUS
 62
     4
 10
-85.5000000
 20
-205.0000000
 30
0.0
 40
2.0000000
 50
90.0000000
 51
180.0000000
  0
LINE
  8
WORKLAYER
  6
CONTINUOUS
 62
     4
 10
81.0000000
 20
-131.0000000
 30
0.0
 11
81.0000000
 21
-115.0000000
 31
0.0
  0
LINE
  8
WORKLAYER
  6
CONTINUOUS
 62
     4
 10
79.0000000
 20
-113.0000000
 30
0.0
 11
0.0000000
 21
-113.0000000
 31
0.0
  0
LINE
  8
WORKLAYER
  6
CONTINUOUS
 62
     4
 10
0.0000000
 20
-113.0000000
 30
0.0
 11
-79.0000000
 21
-113.0000000
 31
0.0
  0
LINE
  8
WORKLAYER
  6
CONTINUOUS
 62
     4
 10
-81.0000000
 20
-115.0000000
 30
0.0
 11
-81.0000000
 21
-131.0000000
 31
0.0
  0
LINE
  8
WORKLAYER
  6
CONTINUOUS
 62
     4
 10
-79.0000000
 20
-133.0000000
 30
0.0
 11
0.0000000
 21
-133.0000000
 31
0.0
  0
LINE
  8
WORKLAYER
  6
CONTINUOUS
 62
     4
 10
0.0000000
 20
-133.0000000
 30
0.0
 11
79.0000000
 21
-133.0000000
 31
0.0
  0
ARC
  8
WORKLAYER
  6
CONTINUOUS
 62
     4
 10
-52.2371216
 20
-138.0000000
 30
0.0
 40
5.0000000
 50
24.1607094
 51
30.2992706
  0
ARC
  8
WORKLAYER
  6
CONTINUOUS
 62
     4
 10
52.2371788
 20
-138.0000000
 30
0.0
 40
5.0000000
 50
149.7010956
 51
155.8394012
  0
ARC
  8
WORKLAYER
  6
CONTINUOUS
 62
     4
 10
79.0000000
 20
-115.0000000
 30
0.0
 40
2.0000000
 50
0.0000000
 51
90.0000000
  0
ARC
  8
WORKLAYER
  6
CONTINUOUS
 62
     4
 10
79.0000000
 20
-131.0000000
 30
0.0
 40
2.0000000
 50
270.0000000
 51
0.0000000
  0
ARC
  8
WORKLAYER
  6
CONTINUOUS
 62
     4
 10
-79.0000000
 20
-131.0000000
 30
0.0
 40
2.0000000
 50
180.0000000
 51
270.0000000
  0
ARC
  8
WORKLAYER
  6
CONTINUOUS
 62
     4
 10
-79.0000000
 20
-115.0000000
 30
0.0
 40
2.0000000
 50
90.0000000
 51
180.0000000
  0
LINE
  8
WORKLAYER
  6
CONTINUOUS
 62
     4
 10
53.0000000
 20
-111.0000000
 30
0.0
 11
6.0000000
 21
-111.0000000
 31
0.0
  0
LINE
  8
WORKLAYER
  6
CONTINUOUS
 62
     4
 10
-6.0000000
 20
-111.0000000
 30
0.0
 11
-52.8897095
 21
-111.0000000
 31
0.0
  0
LINE
  8
WORKLAYER
  6
CONTINUOUS
 62
     4
 10
46.1892700
 20
-200.0039978
 30
0.0
 11
40.9377403
 21
-188.0000000
 31
0.0
  0
LINE
  8
WORKLAYER
  6
CONTINUOUS
 62
     4
 10
42.2710609
 20
-148.0000000
 30
0.0
 11
47.6750488
 21
-135.9535980
 31
0.0
  0
LINE
  8
WORKLAYER
  6
CONTINUOUS
 62
     4
 10
-40.9378090
 20
-188.0000000
 30
0.0
 11
-42.2711182
 21
-148.0000000
 31
0.0
  0
LINE
  8
WORKLAYER
  6
CONTINUOUS
 62
     4
 10
40.9377403
 20
-188.0000000
 30
0.0
 11
42.2710609
 21
-148.0000000
 31
0.0
  0
LINE
  8
WORKLAYER
  6
CONTINUOUS
 62
     4
 10
-47.6751099
 20
-135.9535980
 30
0.0
 11
-42.2711182
 21
-148.0000000
 31
0.0
  0
LINE
  8
WORKLAYER
  6
CONTINUOUS
 62
     4
 10
-46.1893311
 20
-200.0039978
 30
0.0
 11
-40.9378090
 21
-188.0000000
 31
0.0
  0
LINE
  8
WORKLAYER
  6
CENTER
 62
     2
 10
-70.0000000
 20
-228.0000000
 30
0.0
 11
-70.0000000
 21
-200.0000000
 31
0.0
  0
LINE
  8
WORKLAYER
  6
CENTER
 62
     2
 10
70.0000000
 20
-228.0000000
 30
0.0
 11
70.0000000
 21
-200.0000000
 31
0.0
  0
ENDBLK
  8
WORKLAYER
  0
BLOCK
  8
0
  2
DXF180
 70
    64
 10
91.5481567
 20
-78.9039078
 30
0.0
  3
DXF180
  0
LINE
  8
0
  6
CONTINUOUS
 62
     4
 10
-49.3897095
 20
-141.0000000
 30
0.0
 11
-47.9201012
 21
-140.1515045
 31
0.0
  0
LINE
  8
0
  6
CONTINUOUS
 62
     4
 10
-52.8897095
 20
-113.0000000
 30
0.0
 11
-52.8897095
 21
-108.0000000
 31
0.0
  0
LINE
  8
0
  6
CONTINUOUS
 62
     4
 10
-64.8897095
 20
-113.0000000
 30
0.0
 11
-64.8897095
 21
-108.0000000
 31
0.0
  0
LINE
  8
0
  6
CONTINUOUS
 62
     4
 10
-69.8593063
 20
-133.0000000
 30
0.0
 11
-47.9201012
 21
-133.0000000
 31
0.0
  0
LINE
  8
0
  6
CONTINUOUS
 62
     4
 10
-68.3897095
 20
-141.0000000
 30
0.0
 11
-49.3897095
 21
-141.0000000
 31
0.0
  0
LINE
  8
0
  6
CONTINUOUS
 62
     4
 10
-47.9201012
 20
-140.1515045
 30
0.0
 11
-47.9201012
 21
-133.0000000
 31
0.0
  0
LINE
  8
0
  6
CONTINUOUS
 62
     4
 10
-69.8593063
 20
-140.1515045
 30
0.0
 11
-69.8593063
 21
-133.0000000
 31
0.0
  0
LINE
  8
0
  6
CONTINUOUS
 62
     4
 10
-68.3897095
 20
-141.0000000
 30
0.0
 11
-69.8593063
 21
-140.1515045
 31
0.0
  0
ARC
  8
0
  6
CONTINUOUS
 62
     4
 10
-58.8897095
 20
-124.5455017
 30
0.0
 40
16.4544792
 50
250.5287933
 51
289.4711914
  0
LINE
  8
0
  6
CONTINUOUS
 62
     4
 10
-64.3745117
 20
-140.0588989
 30
0.0
 11
-64.3745117
 21
-133.0000000
 31
0.0
  0
LINE
  8
0
  6
CONTINUOUS
 62
     4
 10
-53.4049110
 20
-140.0588989
 30
0.0
 11
-53.4049110
 21
-133.0000000
 31
0.0
  0
ARC
  8
0
  6
CONTINUOUS
 62
     4
 10
-68.3897095
 20
-131.9636993
 30
0.0
 40
9.0363007
 50
270.0000000
 51
296.3810120
  0
ARC
  8
0
  6
CONTINUOUS
 62
     4
 10
-49.3897095
 20
-131.9636993
 30
0.0
 40
9.0363007
 50
243.6190033
 51
270.0000000
  0
ENDBLK
  8
0
  0
BLOCK
  8
0
  2
DXF181
 70
    64
 10
32.6584511
 20
-78.9039078
 30
0.0
  3
DXF181
  0
LINE
  8
0
  6
CONTINUOUS
 62
     4
 10
-9.5000000
 20
-141.0000000
 30
0.0
 11
-10.9695997
 21
-140.1515045
 31
0.0
  0
LINE
  8
0
  6
CONTINUOUS
 62
     4
 10
-6.0000000
 20
-113.0000000
 30
0.0
 11
-6.0000000
 21
-108.0000000
 31
0.0
  0
LINE
  8
0
  6
CONTINUOUS
 62
     4
 10
6.0000000
 20
-113.0000000
 30
0.0
 11
6.0000000
 21
-108.0000000
 31
0.0
  0
LINE
  8
0
  6
CONTINUOUS
 62
     4
 10
10.9696703
 20
-133.0000000
 30
0.0
 11
-10.9695997
 21
-133.0000000
 31
0.0
  0
LINE
  8
0
  6
CONTINUOUS
 62
     4
 10
9.5000000
 20
-141.0000000
 30
0.0
 11
-9.5000000
 21
-141.0000000
 31
0.0
  0
LINE
  8
0
  6
CONTINUOUS
 62
     4
 10
-10.9695997
 20
-140.1515045
 30
0.0
 11
-10.9695997
 21
-133.0000000
 31
0.0
  0
LINE
  8
0
  6
CONTINUOUS
 62
     4
 10
10.9696703
 20
-140.1515045
 30
0.0
 11
10.9696703
 21
-133.0000000
 31
0.0
  0
LINE
  8
0
  6
CONTINUOUS
 62
     4
 10
9.5000000
 20
-141.0000000
 30
0.0
 11
10.9696703
 21
-140.1515045
 31
0.0
  0
ARC
  8
0
  6
CONTINUOUS
 62
     4
 10
0.0000000
 20
-124.5455017
 30
0.0
 40
16.4544792
 50
610.5288086
 51
289.4711914
  0
LINE
  8
0
  6
CONTINUOUS
 62
     4
 10
5.4847412
 20
-140.0588989
 30
0.0
 11
5.4847412
 21
-133.0000000
 31
0.0
  0
LINE
  8
0
  6
CONTINUOUS
 62
     4
 10
-5.4848018
 20
-140.0588989
 30
0.0
 11
-5.4848018
 21
-133.0000000
 31
0.0
  0
ARC
  8
0
  6
CONTINUOUS
 62
     4
 10
9.5000000
 20
-131.9636993
 30
0.0
 40
9.0363007
 50
603.6190186
 51
270.0000000
  0
ARC
  8
0
  6
CONTINUOUS
 62
     4
 10
-9.5000000
 20
-131.9636993
 30
0.0
 40
9.0363007
 50
270.0000000
 51
296.3810120
  0
ENDBLK
  8
0
  0
BLOCK
  8
0
  2
DXF182
 70
    64
 10
91.5481567
 20
-78.9039078
 30
0.0
  3
DXF182
  0
LINE
  8
0
  6
CONTINUOUS
 62
     4
 10
49.3896484
 20
-141.0000000
 30
0.0
 11
47.9200401
 21
-140.1515045
 31
0.0
  0
LINE
  8
0
  6
CONTINUOUS
 62
     4
 10
52.8896484
 20
-113.0000000
 30
0.0
 11
52.8896484
 21
-108.0000000
 31
0.0
  0
LINE
  8
0
  6
CONTINUOUS
 62
     4
 10
64.8896484
 20
-113.0000000
 30
0.0
 11
64.8896484
 21
-108.0000000
 31
0.0
  0
LINE
  8
0
  6
CONTINUOUS
 62
     4
 10
69.8593826
 20
-133.0000000
 30
0.0
 11
47.9200401
 21
-133.0000000
 31
0.0
  0
LINE
  8
0
  6
CONTINUOUS
 62
     4
 10
68.3896484
 20
-141.0000000
 30
0.0
 11
49.3896484
 21
-141.0000000
 31
0.0
  0
LINE
  8
0
  6
CONTINUOUS
 62
     4
 10
47.9200401
 20
-140.1515045
 30
0.0
 11
47.9200401
 21
-133.0000000
 31
0.0
  0
LINE
  8
0
  6
CONTINUOUS
 62
     4
 10
69.8593826
 20
-140.1515045
 30
0.0
 11
69.8593826
 21
-133.0000000
 31
0.0
  0
LINE
  8
0
  6
CONTINUOUS
 62
     4
 10
68.3896484
 20
-141.0000000
 30
0.0
 11
69.8593826
 21
-140.1515045
 31
0.0
  0
ARC
  8
0
  6
CONTINUOUS
 62
     4
 10
58.8896484
 20
-124.5455017
 30
0.0
 40
16.4544792
 50
610.5288086
 51
289.4711914
  0
LINE
  8
0
  6
CONTINUOUS
 62
     4
 10
64.3744507
 20
-140.0588989
 30
0.0
 11
64.3744507
 21
-133.0000000
 31
0.0
  0
LINE
  8
0
  6
CONTINUOUS
 62
     4
 10
53.4048500
 20
-140.0588989
 30
0.0
 11
53.4048500
 21
-133.0000000
 31
0.0
  0
ARC
  8
0
  6
CONTINUOUS
 62
     4
 10
68.3896484
 20
-131.9636993
 30
0.0
 40
9.0363007
 50
603.6190186
 51
270.0000000
  0
ARC
  8
0
  6
CONTINUOUS
 62
     4
 10
49.3896484
 20
-131.9636993
 30
0.0
 40
9.0363007
 50
270.0000000
 51
296.3810120
  0
ENDBLK
  8
0
  0
ENDSEC
  0
SECTION
  2
ENTITIES
  0
LINE
  8
WORKLAYER
  6
CONTINUOUS
 62
     4
 10
-23.0000000
 20
140.0000000
 30
0.0
 11
23.0000000
 21
140.0000000
 31
0.0
  0
INSERT
  8
VIEW
  2
DXF2
 10
129.6000061
 20
283.7999878
 30
0.0
  0
INSERT
  8
0
  2
DXF3
 10
-76.9456177
 20
273.2466125
 30
0.0
  0
INSERT
  8
0
  2
DXF4
 10
-69.0426025
 20
275.6236877
 30
0.0
  0
INSERT
  8
VIEW
  2
DXF5
 10
966.8145142
 20
349.4765015
 30
0.0
  0
INSERT
  8
VIEW
  2
DXF6
 10
348.7846069
 20
414.3327026
 30
0.0
  0
LINE
  8
AREA
  6
CONTINUOUS
 62
     4
 10
23.0000000
 20
140.0000000
 30
0.0
 11
-23.0003109
 21
140.0000000
 31
0.0
  0
LINE
  8
AREA
  6
CONTINUOUS
 62
     4
 10
23.0000000
 20
140.0000000
 30
0.0
 11
0.0000000
 21
140.0000000
 31
0.0
  0
LINE
  8
AREA
  6
CONTINUOUS
 62
     4
 10
-23.0000000
 20
140.0000000
 30
0.0
 11
0.0000000
 21
140.0000000
 31
0.0
  0
POINT
  8
WORKLAYER
 62
     1
 10
17.7003803
 20
521.0173950
 30
0.0
  0
INSERT
  8
WORKLAYER
  2
DXF11
 10
-9.0001221
 20
149.0000000
 30
0.0
  0
INSERT
  8
WORKLAYER
  2
DXF12
 10
-5.0001221
 20
3.2680049
 30
0.0
  0
INSERT
  8
0
  2
DXF13
 10
-14.9457998
 20
162.1443024
 30
0.0
  0
INSERT
  8
VIEW
  2
DXF14
 10
148.8000031
 20
431.2999878
 30
0.0
  0
INSERT
  8
VIEW
  2
DXF15
 10
148.8000031
 20
431.2999878
 30
0.0
  0
TEXT
  8
VIEW
 62
     1
 10
-9.7199097
 20
345.4500122
 30
0.0
 40
3.0000000
  1
CLOSED
 50
0.0000000
 41
1.0800000
 51
0.0000000
  7
STANDARD
 72
5
 11
9.7200904
 21
345.4500122
 31
0.0
  0
INSERT
  8
VIEW
  2
DXF17
 10
129.6000061
 20
283.7999878
 30
0.0
  0
INSERT
  8
VIEW
  2
DXF18
 10
129.6000061
 20
283.7999878
 30
0.0
  0
INSERT
  8
0
  2
DXF19
 10
-76.9456177
 20
273.2466125
 30
0.0
  0
INSERT
  8
VIEW
  2
DXF20
 10
148.8000031
 20
288.5000000
 30
0.0
  0
INSERT
  8
VIEW
  2
DXF21
 10
148.8000031
 20
288.5000000
 30
0.0
  0
INSERT
  8
VIEW
  2
DXF22
 10
-11.4059401
 20
313.7999878
 30
0.0
  0
INSERT
  8
VIEW
  2
DXF23
 10
-11.4059401
 20
313.7999878
 30
0.0
  0
TEXT
  8
VIEW
 62
     1
 10
-6.7500000
 20
410.1499939
 30
0.0
 40
3.0000000
  1
OPEN
 50
0.0000000
 41
1.1250000
 51
0.0000000
  7
STANDARD
 72
5
 11
6.7500000
 21
410.1499939
 31
0.0
  0
INSERT
  8
VIEW
  2
DXF25
 10
-11.4059401
 20
313.7999878
 30
0.0
  0
TEXT
  8
VIEW
 62
     1
 10
-24.5700092
 20
333.2999878
 30
0.0
 40
4.0000000
  1
VALVE LINKAGE
 50
0.0000000
 41
0.9450000
 51
0.0000000
  7
STANDARD
 72
5
 11
24.5699904
 21
333.2999878
 31
0.0
  0
INSERT
  8
VIEW
  2
DXF27
 10
-11.4059401
 20
313.7999878
 30
0.0
  0
TEXT
  8
VIEW
 62
     1
 10
-20.0000000
 20
327.2999878
 30
0.0
 40
2.0000000
  1
TYPE
 50
0.0000000
 41
0.9000000
 51
0.0000000
  7
STANDARD
 72
5
 11
-12.8000002
 21
327.2999878
 31
0.0
  0
INSERT
  8
VIEW
  2
DXF29
 10
148.8000031
 20
431.2999878
 30
0.0
  0
INSERT
  8
VIEW
  2
DXF30
 10
148.8000031
 20
288.5000000
 30
0.0
  0
INSERT
  8
WORKLAYER
  2
DXF31
 10
-20.0000000
 20
316.9765015
 30
0.0
  0
INSERT
  8
VIEW
  2
DXF32
 10
-11.4059401
 20
313.7999878
 30
0.0
  0
INSERT
  8
VIEW
  2
DXF33
 10
-11.4059401
 20
313.7999878
 30
0.0
  0
INSERT
  8
0
  2
DXF34
 10
-69.0426025
 20
275.6236877
 30
0.0
  0
INSERT
  8
VIEW
  2
DXF35
 10
-11.4059401
 20
313.7999878
 30
0.0
  0
INSERT
  8
VIEW
  2
DXF36
 10
-11.4059401
 20
313.7999878
 30
0.0
  0
INSERT
  8
VIEW
  2
DXF37
 10
-11.4059401
 20
313.7999878
 30
0.0
  0
LINE
  8
VIEW
  6
CONTINUOUS
 62
     2
 10
46.5000000
 20
288.2999878
 30
0.0
 11
47.5000000
 21
288.2999878
 31
0.0
  0
INSERT
  8
VIEW
  2
DXF39
 10
-11.4059401
 20
313.7999878
 30
0.0
  0
INSERT
  8
VIEW
  2
DXF40
 10
129.6000061
 20
283.7999878
 30
0.0
  0
INSERT
  8
VIEW
  2
DXF41
 10
148.8000031
 20
431.2999878
 30
0.0
  0
INSERT
  8
VIEW
  2
DXF42
 10
-11.4059401
 20
313.7999878
 30
0.0
  0
INSERT
  8
VIEW
  2
DXF43
 10
148.8000031
 20
431.2999878
 30
0.0
  0
INSERT
  8
VIEW
  2
DXF44
 10
-15.3929396
 20
283.7882996
 30
0.0
  0
INSERT
  8
VIEW
  2
DXF45
 10
-12.9995098
 20
283.8118896
 30
0.0
  0
INSERT
  8
VIEW
  2
DXF46
 10
348.7846069
 20
414.3327026
 30
0.0
  0
INSERT
  8
0
  2
DXF47
 10
283.2445984
 20
373.7792969
 30
0.0
  0
INSERT
  8
0
  2
DXF48
 10
291.1485901
 20
376.1564941
 30
0.0
  0
INSERT
  8
VIEW
  2
DXF49
 10
-39.7000084
 20
414.2999878
 30
0.0
  0
INSERT
  8
VIEW
  2
DXF50
 10
-39.7000084
 20
414.2999878
 30
0.0
  0
INSERT
  8
VIEW
  2
DXF51
 10
-39.7000084
 20
414.2999878
 30
0.0
  0
INSERT
  8
VIEW
  2
DXF52
 10
966.8145142
 20
349.4765015
 30
0.0
  0
INSERT
  8
WORKLAYER
  2
DXF53
 10
-9.8000488
 20
200.5843964
 30
0.0
  0
INSERT
  8
WORKLAYER
  2
DXF54
 10
53.0000610
 20
-110.0000000
 30
0.0
  0
ARC
  8
AREA
  6
CONTINUOUS
 62
     4
 10
-8.0000000
 20
69.8526917
 30
0.0
 40
5.0000000
 50
270.0000000
 51
360.0000000
  0
ARC
  8
AREA
  6
CONTINUOUS
 62
     4
 10
8.0000000
 20
69.8526917
 30
0.0
 40
5.0000000
 50
180.0000000
 51
270.0000000
  0
INSERT
  8
WORKLAYER
  2
DXF57
 10
13.0000000
 20
-52.5000114
 30
0.0
  0
INSERT
  8
WORKLAYER
  2
DXF58
 10
13.0000000
 20
-56.5000114
 30
0.0
  0
LINE
  8
WORKLAYER
  6
CONTINUOUS
 62
     4
 10
2.0000000
 20
-73.5000076
 30
0.0
 11
-2.0000000
 21
-73.5000076
 31
0.0
  0
INSERT
  8
WORKLAYER
  2
DXF60
 10
2.0000000
 20
-113.0000000
 30
0.0
  0
INSERT
  8
WORKLAYER
  2
DXF61
 10
-2.0000000
 20
-113.0000000
 30
0.0
  0
LINE
  8
WORKLAYER
  6
CONTINUOUS
 62
     4
 10
-23.0000000
 20
-56.5000114
 30
0.0
 11
-23.0000000
 21
-52.5000114
 31
0.0
  0
LINE
  8
AREA
  6
CONTINUOUS
 62
     4
 10
33.0000000
 20
-54.5000114
 30
0.0
 11
25.0000000
 21
-51.5000114
 31
0.0
  0
INSERT
  8
WORKLAYER
  2
DXF64
 10
25.0000000
 20
-113.0000000
 30
0.0
  0
LINE
  8
AREA
  6
CONTINUOUS
 62
     4
 10
33.0000000
 20
-54.5000114
 30
0.0
 11
25.0000000
 21
-57.5000114
 31
0.0
  0
LINE
  8
AREA
  6
CONTINUOUS
 62
     4
 10
-12.9226103
 20
-20.0000000
 30
0.0
 11
-9.8540039
 21
-20.0000000
 31
0.0
  0
ARC
  8
AREA
  6
CONTINUOUS
 62
     4
 10
-6.5000000
 20
-19.0000000
 30
0.0
 40
6.5000000
 50
322.0104065
 51
188.8498993
  0
ARC
  8
AREA
  6
CONTINUOUS
 62
     4
 10
-6.5000000
 20
-19.0000000
 30
0.0
 40
3.5000000
 50
330.1878052
 51
196.6013947
  0
LINE
  8
WORKLAYER
  6
CONTINUOUS
 62
     4
 10
-9.5392456
 20
-34.5000000
 30
0.0
 11
0.0000000
 21
-34.5000000
 31
0.0
  0
LINE
  8
AREA
  6
CONTINUOUS
 62
     4
 10
-10.2530499
 20
-29.5077991
 30
0.0
 11
-3.4354250
 21
-20.7616005
 31
0.0
  0
LINE
  8
AREA
  6
CONTINUOUS
 62
     4
 10
-7.8869019
 20
-31.3521004
 30
0.0
 11
-1.3772579
 21
-23.0007992
 31
0.0
  0
ARC
  8
AREA
  6
CONTINUOUS
 62
     4
 10
0.0000000
 20
-37.5000000
 30
0.0
 40
13.0000000
 50
502.0170898
 51
180.0000000
  0
ARC
  8
AREA
  6
CONTINUOUS
 62
     4
 10
0.0000000
 20
-37.5000000
 30
0.0
 40
10.0000000
 50
502.0170898
 51
522.5424194
  0
LINE
  8
AREA
  6
CONTINUOUS
 62
     4
 10
-13.0000000
 20
-37.5000000
 30
0.0
 11
0.0000000
 21
-37.5000000
 31
0.0
  0
LINE
  8
AREA
  6
CONTINUOUS
 62
     4
 10
0.0000000
 20
-34.5000000
 30
0.0
 11
0.0000000
 21
-37.5000000
 31
0.0
  0
INSERT
  8
AREA
  2
DXF76
 10
0.0000000
 20
-24.2500000
 30
0.0
  0
INSERT
  8
AREA
  2
DXF77
 10
79.0000000
 20
206.3943024
 30
0.0
  0
LINE
  8
AREA
  6
CONTINUOUS
 62
     4
 10
-65.3189087
 20
-9.0000000
 30
0.0
 11
-62.9998207
 21
-9.0000000
 31
0.0
  0
LINE
  8
AREA
  6
CONTINUOUS
 62
     4
 10
-68.9998169
 20
9.0000000
 30
0.0
 11
-74.9998169
 21
-9.0000000
 31
0.0
  0
INSERT
  8
AREA
  2
DXF80
 10
-66.9128418
 20
8.3043060
 30
0.0
  0
LINE
  8
WORKLAYER
  6
CONTINUOUS
 62
     4
 10
-68.9998169
 20
-6.0000000
 30
0.0
 11
-71.6809082
 21
-6.0000000
 31
0.0
  0
LINE
  8
WORKLAYER
  6
CONTINUOUS
 62
     4
 10
-68.9998169
 20
-3.8000031
 30
0.0
 11
-70.9475098
 21
-3.8000031
 31
0.0
  0
LINE
  8
AREA
  6
CONTINUOUS
 62
     4
 10
-72.6809082
 20
-9.0000000
 30
0.0
 11
-74.9998169
 21
-9.0000000
 31
0.0
  0
LINE
  8
AREA
  6
CONTINUOUS
 62
     4
 10
-68.9998169
 20
9.0000000
 30
0.0
 11
-62.9998207
 21
-9.0000000
 31
0.0
  0
INSERT
  8
AREA
  2
DXF85
 10
-71.0869064
 20
8.3043060
 30
0.0
  0
LINE
  8
WORKLAYER
  6
CONTINUOUS
 62
     4
 10
-68.9998169
 20
-6.0000000
 30
0.0
 11
-66.3189087
 21
-6.0000000
 31
0.0
  0
LINE
  8
WORKLAYER
  6
CONTINUOUS
 62
     4
 10
-68.9998169
 20
-3.8000031
 30
0.0
 11
-67.0522537
 21
-3.8000031
 31
0.0
  0
LINE
  8
AREA
  6
CONTINUOUS
 62
     4
 10
67.5000000
 20
9.0000000
 30
0.0
 11
67.5000000
 21
-9.0000000
 31
0.0
  0
LINE
  8
AREA
  6
CONTINUOUS
 62
     4
 10
64.1905518
 20
-9.0000000
 30
0.0
 11
66.5000000
 21
-9.0000000
 31
0.0
  0
LINE
  8
AREA
  6
CONTINUOUS
 62
     4
 10
55.0000000
 20
-9.0000000
 30
0.0
 11
60.7500000
 21
9.0000000
 31
0.0
  0
INSERT
  8
AREA
  2
DXF91
 10
57.0955811
 20
-9.6694031
 30
0.0
  0
LINE
  8
WORKLAYER
  6
CONTINUOUS
 62
     4
 10
60.7500000
 20
-6.0000000
 30
0.0
 11
58.2678795
 21
-6.0000000
 31
0.0
  0
LINE
  8
WORKLAYER
  6
CONTINUOUS
 62
     4
 10
60.7500000
 20
-3.8000031
 30
0.0
 11
58.9705811
 21
-3.8000031
 31
0.0
  0
LINE
  8
AREA
  6
CONTINUOUS
 62
     4
 10
57.3094482
 20
-9.0000000
 30
0.0
 11
55.0000000
 21
-9.0000000
 31
0.0
  0
LINE
  8
AREA
  6
CONTINUOUS
 62
     4
 10
66.5000000
 20
-9.0000000
 30
0.0
 11
60.7500000
 21
9.0000000
 31
0.0
  0
INSERT
  8
AREA
  2
DXF96
 10
64.4042969
 20
-9.6694031
 30
0.0
  0
LINE
  8
WORKLAYER
  6
CONTINUOUS
 62
     4
 10
60.7500000
 20
-6.0000000
 30
0.0
 11
63.2322998
 21
-6.0000000
 31
0.0
  0
LINE
  8
WORKLAYER
  6
CONTINUOUS
 62
     4
 10
60.7500000
 20
-3.8000031
 30
0.0
 11
62.5293007
 21
-3.8000031
 31
0.0
  0
LINE
  8
AREA
  6
CONTINUOUS
 62
     4
 10
69.6999512
 20
-1.1000060
 30
0.0
 11
69.6999512
 21
-6.8000031
 31
0.0
  0
LINE
  8
WORKLAYER
  6
CONTINUOUS
 62
     4
 10
74.8000488
 20
-6.8000031
 30
0.0
 11
69.6999512
 21
-6.8000031
 31
0.0
  0
LINE
  8
WORKLAYER
  6
CONTINUOUS
 62
     4
 10
74.8000488
 20
1.1000060
 30
0.0
 11
69.6999512
 21
1.1000060
 31
0.0
  0
INSERT
  8
AREA
  2
DXF102
 10
76.8000488
 20
9.0000000
 30
0.0
  0
LINE
  8
WORKLAYER
  6
CONTINUOUS
 62
     4
 10
74.8000488
 20
-1.1000060
 30
0.0
 11
69.6999512
 21
-1.1000060
 31
0.0
  0
LINE
  8
AREA
  6
CONTINUOUS
 62
     4
 10
69.6999512
 20
1.1000060
 30
0.0
 11
69.6999512
 21
6.8000031
 31
0.0
  0
LINE
  8
AREA
  6
CONTINUOUS
 62
     4
 10
67.5000000
 20
-9.0000000
 30
0.0
 11
74.8000488
 21
-9.0000000
 31
0.0
  0
INSERT
  8
AREA
  2
DXF106
 10
79.0000000
 20
-206.3943024
 30
0.0
  0
LINE
  8
WORKLAYER
  6
CONTINUOUS
 62
     4
 10
74.8000488
 20
6.8000031
 30
0.0
 11
69.6999512
 21
6.8000031
 31
0.0
  0
INSERT
  8
AREA
  2
DXF108
 10
76.8000488
 20
-9.0000000
 30
0.0
  0
LINE
  8
AREA
  6
CONTINUOUS
 62
     4
 10
67.5000000
 20
9.0000000
 30
0.0
 11
74.8000488
 21
9.0000000
 31
0.0
  0
LINE
  8
AREA
  6
CONTINUOUS
 62
     4
 10
-22.0000000
 20
114.0000000
 30
0.0
 11
22.0000000
 21
114.0000000
 31
0.0
  0
INSERT
  8
WORKLAYER
  2
DXF111
 10
-513.0000000
 20
-17.1917000
 30
0.0
  0
INSERT
  8
WORKLAYER
  2
DXF112
 10
-507.0000000
 20
-17.1917000
 30
0.0
  0
INSERT
  8
AREA
  2
DXF113
 10
19.0000000
 20
183.2828064
 30
0.0
  0
INSERT
  8
WORKLAYER
  2
DXF114
 10
-141.0000000
 20
114.0000000
 30
0.0
  0
LINE
  8
AREA
  6
CONTINUOUS
 62
     4
 10
-23.0000000
 20
140.0000000
 30
0.0
 11
-23.0000000
 21
115.3849030
 31
0.0
  0
INSERT
  8
AREA
  2
DXF116
 10
35.0000000
 20
672.9498291
 30
0.0
  0
INSERT
  8
AREA
  2
DXF117
 10
-19.0000000
 20
183.2828064
 30
0.0
  0
ARC
  8
AREA
  6
CONTINUOUS
 62
     4
 10
21.0000000
 20
119.3246002
 30
0.0
 40
2.0000000
 50
351.0232849
 51
360.0000000
  0
LINE
  8
AREA
  6
CONTINUOUS
 62
     4
 10
23.0000000
 20
140.0000000
 30
0.0
 11
23.0000000
 21
115.3849030
 31
0.0
  0
INSERT
  8
AREA
  2
DXF120
 10
23.0000000
 20
114.0000000
 30
0.0
  0
ARC
  8
WORKLAYER
  6
CONTINUOUS
 62
     4
 10
18.0000000
 20
117.0000000
 30
0.0
 40
5.0000000
 50
306.8699036
 51
360.0000000
  0
ARC
  8
WORKLAYER
  6
CONTINUOUS
 62
     4
 10
24.0000000
 20
109.0000000
 30
0.0
 40
5.0000000
 50
486.8699036
 51
180.0000000
  0
INSERT
  8
AREA
  2
DXF123
 10
-34.9998207
 20
92.6150970
 30
0.0
  0
LINE
  8
AREA
  6
CONTINUOUS
 62
     4
 10
23.7125893
 20
112.8125000
 30
0.0
 11
34.2876015
 21
95.1875916
 31
0.0
  0
ARC
  8
AREA
  6
CONTINUOUS
 62
     4
 10
30.0000000
 20
92.6150970
 30
0.0
 40
5.0000000
 50
360.0000000
 51
390.9638062
  0
ARC
  8
AREA
  6
CONTINUOUS
 62
     4
 10
28.0000000
 20
115.3849030
 30
0.0
 40
5.0000000
 50
180.0000000
 51
210.9638062
  0
LINE
  8
AREA
  6
CONTINUOUS
 62
     4
 10
23.0000000
 20
140.0000000
 30
0.0
 11
0.0000000
 21
140.0000000
 31
0.0
  0
LINE
  8
AREA
  6
CONTINUOUS
 62
     4
 10
-23.0000000
 20
140.0000000
 30
0.0
 11
0.0000000
 21
140.0000000
 31
0.0
  0
LINE
  8
WORKLAYER
  6
CONTINUOUS
 62
     4
 10
51.9521484
 20
10.0000000
 30
0.0
 11
-48.9998207
 21
10.0000000
 31
0.0
  0
LINE
  8
WORKLAYER
  6
CONTINUOUS
 62
     4
 10
-78.9998169
 20
-90.0001068
 30
0.0
 11
79.0000000
 21
-90.0001068
 31
0.0
  0
LINE
  8
WORKLAYER
  6
CONTINUOUS
 62
     4
 10
-53.9998207
 20
-82.7652969
 30
0.0
 11
70.0182495
 21
-82.7652969
 31
0.0
  0
LINE
  8
WORKLAYER
  6
CONTINUOUS
 62
     4
 10
48.0000000
 20
15.0000000
 30
0.0
 11
-48.9998207
 21
15.0000000
 31
0.0
  0
INSERT
  8
WORKLAYER
  2
DXF133
 10
-78.0000000
 20
-110.0000000
 30
0.0
  0
ARC
  8
WORKLAYER
  6
CONTINUOUS
 62
     4
 10
111.0000992
 20
-51.0228119
 30
0.0
 40
5.0000000
 50
360.0000000
 51
473.9483948
  0
LINE
  8
WORKLAYER
  6
CENTER
 62
     2
 10
147.3433990
 20
0.0000000
 30
0.0
 11
-140.9998016
 21
0.0000000
 31
0.0
  0
LINE
  8
WORKLAYER
  6
CONTINUOUS
 62
     4
 10
-110.9998016
 20
-46.0000000
 30
0.0
 11
-58.9998207
 21
-46.0000000
 31
0.0
  0
LINE
  8
WORKLAYER
  6
CONTINUOUS
 62
     4
 10
111.0000992
 20
46.0000000
 30
0.0
 11
51.3730507
 21
46.0000000
 31
0.0
  0
ARC
  8
WORKLAYER
  6
CONTINUOUS
 62
     4
 10
-58.9998207
 20
-51.0000114
 30
0.0
 40
5.0000000
 50
360.0000000
 51
450.0000000
  0
ARC
  8
WORKLAYER
  6
CONTINUOUS
 62
     4
 10
-110.9998016
 20
-51.0000114
 30
0.0
 40
5.0000000
 50
450.0000000
 51
180.0000000
  0
ARC
  8
WORKLAYER
  6
CONTINUOUS
 62
     4
 10
51.3730507
 20
51.0000000
 30
0.0
 40
5.0000000
 50
196.8265076
 51
270.0000000
  0
ARC
  8
WORKLAYER
  6
CONTINUOUS
 62
     4
 10
111.0000992
 20
51.0000000
 30
0.0
 40
5.0000000
 50
270.0000000
 51
360.0000000
  0
LINE
  8
WORKLAYER
  6
CENTER
 62
     2
 10
113.0000992
 20
70.0000000
 30
0.0
 11
141.0001068
 21
70.0000000
 31
0.0
  0
LINE
  8
WORKLAYER
  6
CENTER
 62
     2
 10
113.0000992
 20
-70.0000076
 30
0.0
 11
141.0001068
 21
-70.0000076
 31
0.0
  0
LINE
  8
WORKLAYER
  6
CENTER
 62
     2
 10
-112.9998016
 20
-70.0000076
 30
0.0
 11
-140.9998016
 21
-70.0000076
 31
0.0
  0
LINE
  8
WORKLAYER
  6
CENTER
 62
     2
 10
-112.9998016
 20
70.0000000
 30
0.0
 11
-140.9998016
 21
70.0000000
 31
0.0
  0
INSERT
  8
WORKLAYER
  2
DXF146
 10
-47.9998207
 20
-110.0000000
 30
0.0
  0
ARC
  8
WORKLAYER
  6
CONTINUOUS
 62
     4
 10
-48.9998207
 20
5.0000000
 30
0.0
 40
5.0000000
 50
450.0000000
 51
180.0000000
  0
LINE
  8
WORKLAYER
  6
CENTER
 62
     2
 10
0.0000000
 20
-236.2635040
 30
0.0
 11
0.0000000
 21
492.4733887
 31
0.0
  0
INSERT
  8
WORKLAYER
  2
DXF149
 10
81.0000000
 20
-90.0001068
 30
0.0
  0
LINE
  8
WORKLAYER
  6
CONTINUOUS
 62
     4
 10
92.5551834
 20
-53.7441216
 30
0.0
 11
108.9705963
 21
-46.4533997
 31
0.0
  0
INSERT
  8
WORKLAYER
  2
DXF151
 10
15.1323900
 20
-33.9625015
 30
0.0
  0
INSERT
  8
WORKLAYER
  2
DXF152
 10
79.5815430
 20
-31.4778004
 30
0.0
  0
INSERT
  8
WORKLAYER
  2
DXF153
 10
14.8326397
 20
101.6995010
 30
0.0
  0
LINE
  8
WORKLAYER
  6
CONTINUOUS
 62
     4
 10
-113.1197968
 20
-46.1561089
 30
0.0
 11
-100.3504028
 21
-40.1968994
 31
0.0
  0
LINE
  8
WORKLAYER
  6
CONTINUOUS
 62
     4
 10
113.1144028
 20
46.1534004
 30
0.0
 11
106.3737030
 21
43.0077095
 31
0.0
  0
ARC
  8
WORKLAYER
  6
CONTINUOUS
 62
     4
 10
111.0000992
 20
50.6842995
 30
0.0
 40
5.0000000
 50
295.0169983
 51
360.0000000
  0
ARC
  8
WORKLAYER
  6
CONTINUOUS
 62
     4
 10
-110.9998016
 20
-50.6843109
 30
0.0
 40
5.0000000
 50
475.0169067
 51
180.0000000
  0
INSERT
  8
WORKLAYER
  2
DXF158
 10
54.0000000
 20
-98.0001068
 30
0.0
  0
INSERT
  8
WORKLAYER
  2
DXF159
 10
138.0000000
 20
73.0000000
 30
0.0
  0
INSERT
  8
WORKLAYER
  2
DXF160
 10
138.0000000
 20
87.5000000
 30
0.0
  0
INSERT
  8
WORKLAYER
  2
DXF161
 10
-116.0000000
 20
87.5000000
 30
0.0
  0
INSERT
  8
WORKLAYER
  2
DXF162
 10
81.0000000
 20
-90.0001068
 30
0.0
  0
INSERT
  8
WORKLAYER
  2
DXF163
 10
53.0000000
 20
-108.0000000
 30
0.0
  0
INSERT
  8
SSYMB
  2
DXF164
 10
-12.9588003
 20
-106.0000000
 30
0.0
  0
INSERT
  8
SSYMB
  2
DXF165
 10
4.8069458
 20
-106.0000000
 30
0.0
  0
INSERT
  8
SSYMB
  2
DXF166
 10
-5.8769531
 20
-106.0000000
 30
0.0
  0
INSERT
  8
SSYMB
  2
DXF167
 10
2.7563479
 20
-37.4967995
 30
0.0
  0
INSERT
  8
SSYMB
  2
DXF168
 10
3.5200810
 20
-23.5000000
 30
0.0
  0
ARC
  8
0
  6
CONTINUOUS
 62
     4
 10
0.8138428
 20
45.5145988
 30
0.0
 40
5.5146399
 50
630.0000000
 51
360.0000000
  0
LINE
  8
0
  6
CONTINUOUS
 62
     4
 10
-19.6691303
 20
55.7561989
 30
0.0
 11
-5.4887080
 21
55.7561989
 31
0.0
  0
LINE
  8
0
  6
CONTINUOUS
 62
     4
 10
-5.4887080
 20
55.7561989
 30
0.0
 11
-5.4887080
 21
40.0000000
 31
0.0
  0
LINE
  8
0
  6
CONTINUOUS
 62
     4
 10
-19.6691303
 20
55.7561989
 30
0.0
 11
-5.4887080
 21
40.0000000
 31
0.0
  0
LINE
  8
0
  6
CONTINUOUS
 62
     4
 10
6.3285518
 20
55.7561989
 30
0.0
 11
6.3285518
 21
45.5145988
 31
0.0
  0
LINE
  8
0
  6
CONTINUOUS
 62
     4
 10
0.8138428
 20
40.0000000
 30
0.0
 11
-4.3069458
 21
40.0000000
 31
0.0
  0
LINE
  8
0
  6
CONTINUOUS
 62
     4
 10
-16.1241493
 20
24.2437992
 30
0.0
 11
-4.3069458
 21
40.0000000
 31
0.0
  0
LINE
  8
0
  6
CONTINUOUS
 62
     4
 10
-16.1241493
 20
24.2437992
 30
0.0
 11
-2.3373411
 21
24.2437992
 31
0.0
  0
LINE
  8
0
  6
CONTINUOUS
 62
     4
 10
20.9028893
 20
55.7561989
 30
0.0
 11
6.3285518
 21
55.7561989
 31
0.0
  0
LINE
  8
0
  6
CONTINUOUS
 62
     4
 10
20.9028893
 20
55.7561989
 30
0.0
 11
-2.3373411
 21
24.2437992
 31
0.0
  0
INSERT
  8
WORKLAYER
  2
DXF179
 10
87.5000000
 20
-225.0000000
 30
0.0
  0
INSERT
  8
0
  2
DXF180
 10
91.5481567
 20
-78.9039078
 30
0.0
  0
INSERT
  8
0
  2
DXF181
 10
32.6584511
 20
-78.9039078
 30
0.0
  0
INSERT
  8
0
  2
DXF182
 10
91.5481567
 20
-78.9039078
 30
0.0
  0
ENDSEC
  0
EOF
