  0
SECTION
  2
HEADER
  9
$ACADVER
  1
AC1015
  9
$ACADMAINTVER
 70
     6
  9
$DWGCODEPAGE
  3
ANSI_1252
  9
$INSBASE
 10
0.0
 20
0.0
 30
0.0
  9
$EXTMIN
 10
355.191917380488
 20
-363.957158815897
 30
0.0
  9
$EXTMAX
 10
688.315085158313
 20
-175.6303028577302
 30
0.0
  9
$LIMMIN
 10
0.0
 20
0.0
  9
$LIMMAX
 10
12.0
 20
9.0
  9
$ORTHOMODE
 70
     0
  9
$REGENMODE
 70
     1
  9
$FILLMODE
 70
     1
  9
$QTEXTMODE
 70
     0
  9
$MIRRTEXT
 70
     1
  9
$LTSCALE
 40
1.0
  9
$ATTMODE
 70
     1
  9
$TEXTSIZE
 40
0.2
  9
$TRACEWID
 40
0.05
  9
$TEXTSTYLE
  7
Standard
  9
$CLAYER
  8
0
  9
$CELTYPE
  6
ByLayer
  9
$CECOLOR
 62
   256
  9
$CELTSCALE
 40
1.0
  9
$DISPSILH
 70
     0
  9
$DIMSCALE
 40
1.0
  9
$DIMASZ
 40
0.18
  9
$DIMEXO
 40
0.0625
  9
$DIMDLI
 40
0.38
  9
$DIMRND
 40
0.0
  9
$DIMDLE
 40
0.0
  9
$DIMEXE
 40
0.18
  9
$DIMTP
 40
0.0
  9
$DIMTM
 40
0.0
  9
$DIMTXT
 40
0.18
  9
$DIMCEN
 40
0.09
  9
$DIMTSZ
 40
0.0
  9
$DIMTOL
 70
     0
  9
$DIMLIM
 70
     0
  9
$DIMTIH
 70
     1
  9
$DIMTOH
 70
     1
  9
$DIMSE1
 70
     0
  9
$DIMSE2
 70
     0
  9
$DIMTAD
 70
     0
  9
$DIMZIN
 70
     0
  9
$DIMBLK
  1

  9
$DIMASO
 70
     1
  9
$DIMSHO
 70
     1
  9
$DIMPOST
  1

  9
$DIMAPOST
  1

  9
$DIMALT
 70
     0
  9
$DIMALTD
 70
     2
  9
$DIMALTF
 40
25.4
  9
$DIMLFAC
 40
1.0
  9
$DIMTOFL
 70
     0
  9
$DIMTVP
 40
0.0
  9
$DIMTIX
 70
     0
  9
$DIMSOXD
 70
     0
  9
$DIMSAH
 70
     0
  9
$DIMBLK1
  1

  9
$DIMBLK2
  1

  9
$DIMSTYLE
  2
Standard
  9
$DIMCLRD
 70
     0
  9
$DIMCLRE
 70
     0
  9
$DIMCLRT
 70
     0
  9
$DIMTFAC
 40
1.0
  9
$DIMGAP
 40
0.09
  9
$DIMJUST
 70
     0
  9
$DIMSD1
 70
     0
  9
$DIMSD2
 70
     0
  9
$DIMTOLJ
 70
     1
  9
$DIMTZIN
 70
     0
  9
$DIMALTZ
 70
     0
  9
$DIMALTTZ
 70
     0
  9
$DIMUPT
 70
     0
  9
$DIMDEC
 70
     4
  9
$DIMTDEC
 70
     4
  9
$DIMALTU
 70
     2
  9
$DIMALTTD
 70
     2
  9
$DIMTXSTY
  7
Standard
  9
$DIMAUNIT
 70
     0
  9
$DIMADEC
 70
     0
  9
$DIMALTRND
 40
0.0
  9
$DIMAZIN
 70
     0
  9
$DIMDSEP
 70
    46
  9
$DIMATFIT
 70
     3
  9
$DIMFRAC
 70
     0
  9
$DIMLDRBLK
  1

  9
$DIMLUNIT
 70
     2
  9
$DIMLWD
 70
    -2
  9
$DIMLWE
 70
    -2
  9
$DIMTMOVE
 70
     0
  9
$LUNITS
 70
     2
  9
$LUPREC
 70
     4
  9
$SKETCHINC
 40
0.1
  9
$FILLETRAD
 40
0.5
  9
$AUNITS
 70
     0
  9
$AUPREC
 70
     0
  9
$MENU
  1
.
  9
$ELEVATION
 40
0.0
  9
$PELEVATION
 40
0.0
  9
$THICKNESS
 40
0.0
  9
$LIMCHECK
 70
     0
  9
$CHAMFERA
 40
0.5
  9
$CHAMFERB
 40
0.5
  9
$CHAMFERC
 40
1.0
  9
$CHAMFERD
 40
0.0
  9
$SKPOLY
 70
     0
  9
$TDCREATE
 40
2455075.587592408
  9
$TDUCREATE
 40
2455075.212592408
  9
$TDUPDATE
 40
2455075.587592419
  9
$TDUUPDATE
 40
2455075.212592419
  9
$TDINDWG
 40
0.0000000116
  9
$TDUSRTIMER
 40
0.0000000116
  9
$USRTIMER
 70
     1
  9
$ANGBASE
 50
0.0
  9
$ANGDIR
 70
     0
  9
$PDMODE
 70
     0
  9
$PDSIZE
 40
0.0
  9
$PLINEWID
 40
0.0
  9
$SPLFRAME
 70
     0
  9
$SPLINETYPE
 70
     6
  9
$SPLINESEGS
 70
     8
  9
$HANDSEED
  5
2C2
  9
$SURFTAB1
 70
     6
  9
$SURFTAB2
 70
     6
  9
$SURFTYPE
 70
     6
  9
$SURFU
 70
     6
  9
$SURFV
 70
     6
  9
$UCSBASE
  2

  9
$UCSNAME
  2

  9
$UCSORG
 10
0.0
 20
0.0
 30
0.0
  9
$UCSXDIR
 10
1.0
 20
0.0
 30
0.0
  9
$UCSYDIR
 10
0.0
 20
1.0
 30
0.0
  9
$UCSORTHOREF
  2

  9
$UCSORTHOVIEW
 70
     0
  9
$UCSORGTOP
 10
0.0
 20
0.0
 30
0.0
  9
$UCSORGBOTTOM
 10
0.0
 20
0.0
 30
0.0
  9
$UCSORGLEFT
 10
0.0
 20
0.0
 30
0.0
  9
$UCSORGRIGHT
 10
0.0
 20
0.0
 30
0.0
  9
$UCSORGFRONT
 10
0.0
 20
0.0
 30
0.0
  9
$UCSORGBACK
 10
0.0
 20
0.0
 30
0.0
  9
$PUCSBASE
  2

  9
$PUCSNAME
  2

  9
$PUCSORG
 10
0.0
 20
0.0
 30
0.0
  9
$PUCSXDIR
 10
1.0
 20
0.0
 30
0.0
  9
$PUCSYDIR
 10
0.0
 20
1.0
 30
0.0
  9
$PUCSORTHOREF
  2

  9
$PUCSORTHOVIEW
 70
     0
  9
$PUCSORGTOP
 10
0.0
 20
0.0
 30
0.0
  9
$PUCSORGBOTTOM
 10
0.0
 20
0.0
 30
0.0
  9
$PUCSORGLEFT
 10
0.0
 20
0.0
 30
0.0
  9
$PUCSORGRIGHT
 10
0.0
 20
0.0
 30
0.0
  9
$PUCSORGFRONT
 10
0.0
 20
0.0
 30
0.0
  9
$PUCSORGBACK
 10
0.0
 20
0.0
 30
0.0
  9
$USERI1
 70
     0
  9
$USERI2
 70
     0
  9
$USERI3
 70
     0
  9
$USERI4
 70
     0
  9
$USERI5
 70
     0
  9
$USERR1
 40
14.0
  9
$USERR2
 40
0.0
  9
$USERR3
 40
0.0
  9
$USERR4
 40
0.0
  9
$USERR5
 40
0.0
  9
$WORLDVIEW
 70
     1
  9
$SHADEDGE
 70
     3
  9
$SHADEDIF
 70
    70
  9
$TILEMODE
 70
     1
  9
$MAXACTVP
 70
    64
  9
$PINSBASE
 10
0.0
 20
0.0
 30
0.0
  9
$PLIMCHECK
 70
     0
  9
$PEXTMIN
 10
1.00000000000000E+20
 20
1.00000000000000E+20
 30
1.00000000000000E+20
  9
$PEXTMAX
 10
-1.00000000000000E+20
 20
-1.00000000000000E+20
 30
-1.00000000000000E+20
  9
$PLIMMIN
 10
0.0
 20
0.0
  9
$PLIMMAX
 10
12.0
 20
9.0
  9
$UNITMODE
 70
     0
  9
$VISRETAIN
 70
     1
  9
$PLINEGEN
 70
     0
  9
$PSLTSCALE
 70
     1
  9
$TREEDEPTH
 70
  3020
  9
$CMLSTYLE
  2
Standard
  9
$CMLJUST
 70
     0
  9
$CMLSCALE
 40
1.0
  9
$PROXYGRAPHICS
 70
     1
  9
$MEASUREMENT
 70
     1
  9
$CELWEIGHT
370
    -1
  9
$ENDCAPS
280
     0
  9
$JOINSTYLE
280
     0
  9
$LWDISPLAY
290
     0
  9
$INSUNITS
 70
     1
  9
$HYPERLINKBASE
  1

  9
$STYLESHEET
  1

  9
$XEDIT
290
     1
  9
$CEPSNTYPE
380
     0
  9
$PSTYLEMODE
290
     1
  9
$FINGERPRINTGUID
  2
{628974D6-A132-402E-8607-2456A124A1A9}
  9
$VERSIONGUID
  2
{FAEB1C32-E019-11D5-929B-00C0DF256EC4}
  9
$EXTNAMES
290
     1
  9
$PSVPSCALE
 40
0.0
  9
$OLESTARTUP
290
     0
  0
ENDSEC
  0
SECTION
  2
CLASSES
  0
CLASS
  1
ACDBDICTIONARYWDFLT
  2
AcDbDictionaryWithDefault
  3
ObjectDBX Classes
 90
        0
280
     0
281
     0
  0
CLASS
  1

  2
exOdDbCircle
  3

 90
        0
280
     0
281
     1
  0
CLASS
  1

  2
exOdDbPolyline
  3

 90
        0
280
     0
281
     1
  0
CLASS
  1
ACDBPLACEHOLDER
  2
AcDbPlaceHolder
  3
ObjectDBX Classes
 90
        0
280
     0
281
     0
  0
CLASS
  1
LAYOUT
  2
AcDbLayout
  3
ObjectDBX Classes
 90
        0
280
     0
281
     0
  0
ENDSEC
  0
SECTION
  2
TABLES
  0
TABLE
  2
VPORT
  5
8
330
0
100
AcDbSymbolTable
 70
     1
  0
VPORT
  5
29
330
8
100
AcDbSymbolTableRecord
100
AcDbViewportTableRecord
  2
*Active
 70
     0
 10
0.0
 20
0.0
 11
1.0
 21
1.0
 12
521.7535012694004
 22
-269.7937308368136
 13
0.0
 23
0.0
 14
0.5
 24
0.5
 15
0.5
 25
0.5
 16
0.0
 26
0.0
 36
1.0
 17
0.0
 27
0.0
 37
0.0
 40
228.6394109762009
 41
1.60267857142857
 42
50.0
 43
0.0
 44
0.0
 50
0.0
 51
0.0
 71
     0
 72
   100
 73
     1
 74
     3
 75
     0
 76
     0
 77
     0
 78
     0
281
     0
 65
     1
110
0.0
120
0.0
130
0.0
111
1.0
121
0.0
131
0.0
112
0.0
122
1.0
132
0.0
 79
     0
146
0.0
  0
ENDTAB
  0
TABLE
  2
LTYPE
  5
5
330
0
100
AcDbSymbolTable
 70
     8
  0
LTYPE
  5
14
330
5
100
AcDbSymbolTableRecord
100
AcDbLinetypeTableRecord
  2
ByBlock
 70
     0
  3

 72
    65
 73
     0
 40
0.0
  0
LTYPE
  5
15
330
5
100
AcDbSymbolTableRecord
100
AcDbLinetypeTableRecord
  2
ByLayer
 70
     0
  3

 72
    65
 73
     0
 40
0.0
  0
LTYPE
  5
16
330
5
100
AcDbSymbolTableRecord
100
AcDbLinetypeTableRecord
  2
Continuous
 70
     0
  3
Solid line
 72
    65
 73
     0
 40
0.0
  0
LTYPE
  5
2A
330
5
100
AcDbSymbolTableRecord
100
AcDbLinetypeTableRecord
  2
DASHED
 70
     0
  3
Dashed
 72
    65
 73
     2
 40
15.0
 49
7.0
 74
     0
 49
-8.0
 74
     0
  0
LTYPE
  5
2B
330
5
100
AcDbSymbolTableRecord
100
AcDbLinetypeTableRecord
  2
DOTTED
 70
     0
  3
Dotted
 72
    65
 73
     2
 40
1.0
 49
0.0
 74
     0
 49
-1.0
 74
     0
  0
LTYPE
  5
2C
330
5
100
AcDbSymbolTableRecord
100
AcDbLinetypeTableRecord
  2
DOT_CENTER
 70
     0
  3
Dot_Center
 72
    65
 73
     4
 40
14.0
 49
12.0
 74
     0
 49
-1.0
 74
     0
 49
0.0
 74
     0
 49
-1.0
 74
     0
  0
LTYPE
  5
2D
330
5
100
AcDbSymbolTableRecord
100
AcDbLinetypeTableRecord
  2
LONG_DASHED
 70
     0
  3
Long_Dashed
 72
    65
 73
     2
 40
15.0
 49
10.0
 74
     0
 49
-5.0
 74
     0
  0
LTYPE
  5
2E
330
5
100
AcDbSymbolTableRecord
100
AcDbLinetypeTableRecord
  2
DASH_CENTER
 70
     0
  3
Dash_Center
 72
    65
 73
     4
 40
14.0
 49
11.0
 74
     0
 49
-1.0
 74
     0
 49
1.0
 74
     0
 49
-1.0
 74
     0
  0
LTYPE
  5
2F
330
5
100
AcDbSymbolTableRecord
100
AcDbLinetypeTableRecord
  2
PHANTOM
 70
     0
  3
Phantom
 72
    65
 73
     6
 40
13.0
 49
10.0
 74
     0
 49
-1.0
 74
     0
 49
0.0
 74
     0
 49
-1.0
 74
     0
 49
0.0
 74
     0
 49
-1.0
 74
     0
  0
LTYPE
  5
30
330
5
100
AcDbSymbolTableRecord
100
AcDbLinetypeTableRecord
  2
CENTER_DASH_DASH
 70
     0
  3
Center_Dash_Dash
 72
    65
 73
     6
 40
14.0
 49
9.0
 74
     0
 49
-1.0
 74
     0
 49
1.0
 74
     0
 49
-1.0
 74
     0
 49
1.0
 74
     0
 49
-1.0
 74
     0
  0
ENDTAB
  0
TABLE
  2
LAYER
  5
2
330
0
100
AcDbSymbolTable
 70
     3
  0
LAYER
  5
10
330
2
100
AcDbSymbolTableRecord
100
AcDbLayerTableRecord
  2
0
 70
     0
 62
     7
  6
Continuous
370
    -3
390
F
  0
LAYER
  5
31
330
2
100
AcDbSymbolTableRecord
100
AcDbLayerTableRecord
  2
1
 70
     0
 62
     7
  6
Continuous
370
    -3
390
F
  0
LAYER
  5
32
330
2
100
AcDbSymbolTableRecord
100
AcDbLayerTableRecord
  2
6_ALL_DRFT_GEOM
 70
     0
 62
     7
  6
Continuous
370
    -3
390
F
  0
ENDTAB
  0
TABLE
  2
STYLE
  5
3
330
0
100
AcDbSymbolTable
 70
     5
  0
STYLE
  5
11
330
3
100
AcDbSymbolTableRecord
100
AcDbTextStyleTableRecord
  2
Standard
 70
     0
 40
0.0
 41
1.0
 50
0.0
 71
     0
 42
0.2
  3
txt
  4

  0
STYLE
  5
14E
330
3
100
AcDbSymbolTableRecord
100
AcDbTextStyleTableRecord
  2
CONVERTER_1
 70
     0
 40
0.0
 41
0.9
 50
0.0
 71
     0
 42
0.2
  3
txt.shx
  4

  0
STYLE
  5
2BC
330
3
100
AcDbSymbolTableRecord
100
AcDbTextStyleTableRecord
  2
CONVERTER_2
 70
     0
 40
0.0
 41
0.855
 50
0.0
 71
     0
 42
0.2
  3
complex.shx
  4

  0
STYLE
  5
2BE
330
3
100
AcDbSymbolTableRecord
100
AcDbTextStyleTableRecord
  2
CONVERTER_3
 70
     0
 40
0.0
 41
0.95
 50
0.0
 71
     0
 42
0.2
  3
complex.shx
  4

  0
STYLE
  5
2C0
330
3
100
AcDbSymbolTableRecord
100
AcDbTextStyleTableRecord
  2
CONVERTER_4
 70
     0
 40
0.0
 41
0.9975
 50
0.0
 71
     0
 42
0.2
  3
complex.shx
  4

  0
ENDTAB
  0
TABLE
  2
VIEW
  5
6
330
0
100
AcDbSymbolTable
 70
     0
  0
ENDTAB
  0
TABLE
  2
UCS
  5
7
330
0
100
AcDbSymbolTable
 70
     0
  0
ENDTAB
  0
TABLE
  2
APPID
  5
9
330
0
100
AcDbSymbolTable
 70
     1
  0
APPID
  5
12
330
9
100
AcDbSymbolTableRecord
100
AcDbRegAppTableRecord
  2
ACAD
 70
     0
  0
ENDTAB
  0
TABLE
  2
DIMSTYLE
  5
A
330
0
100
AcDbSymbolTable
 70
     1
100
AcDbDimStyleTable
  0
DIMSTYLE
105
27
330
A
100
AcDbSymbolTableRecord
100
AcDbDimStyleTableRecord
  2
Standard
 70
     0
340
11
  0
ENDTAB
  0
TABLE
  2
BLOCK_RECORD
  5
1
330
0
100
AcDbSymbolTable
 70
     6
  0
BLOCK_RECORD
  5
1F
330
1
100
AcDbSymbolTableRecord
100
AcDbBlockTableRecord
  2
*Model_Space
340
22
  0
BLOCK_RECORD
  5
1B
330
1
100
AcDbSymbolTableRecord
100
AcDbBlockTableRecord
  2
*Paper_Space
340
1E
  0
BLOCK_RECORD
  5
23
330
1
100
AcDbSymbolTableRecord
100
AcDbBlockTableRecord
  2
*Paper_Space0
340
26
  0
BLOCK_RECORD
  5
33
330
1
100
AcDbSymbolTableRecord
100
AcDbBlockTableRecord
  2
_6
340
0
102
{BLKREFS
331
42
102
}
  0
BLOCK_RECORD
  5
36
330
1
100
AcDbSymbolTableRecord
100
AcDbBlockTableRecord
  2
Top__1
340
0
102
{BLKREFS
331
43
102
}
  0
BLOCK_RECORD
  5
39
330
1
100
AcDbSymbolTableRecord
100
AcDbBlockTableRecord
  2
_4
340
0
102
{BLKREFS
331
44
102
}
  0
BLOCK_RECORD
  5
3C
330
1
100
AcDbSymbolTableRecord
100
AcDbBlockTableRecord
  2
_5
340
0
102
{BLKREFS
331
45
102
}
  0
BLOCK_RECORD
  5
3F
330
1
100
AcDbSymbolTableRecord
100
AcDbBlockTableRecord
  2
TOP
340
0
102
{BLKREFS
331
46
102
}
  0
ENDTAB
  0
ENDSEC
  0
SECTION
  2
BLOCKS
  0
BLOCK
  5
20
330
1F
100
AcDbEntity
  8
0
100
AcDbBlockBegin
  2
*Model_Space
 70
     0
 71
     0
 10
0.0
 20
0.0
 30
0.0
  3
*Model_Space
  1

  0
ENDBLK
  5
21
330
1F
100
AcDbEntity
  8
0
100
AcDbBlockEnd
  0
BLOCK
  5
1C
330
1B
100
AcDbEntity
 67
     1
  8
0
100
AcDbBlockBegin
  2
*Paper_Space
 70
     0
 71
     0
 10
0.0
 20
0.0
 30
0.0
  3
*Paper_Space
  1

  0
ENDBLK
  5
1D
330
1B
100
AcDbEntity
 67
     1
  8
0
100
AcDbBlockEnd
  0
BLOCK
  5
24
330
23
100
AcDbEntity
  8
0
100
AcDbBlockBegin
  2
*Paper_Space0
 70
     0
 71
     0
 10
0.0
 20
0.0
 30
0.0
  3
*Paper_Space0
  1

  0
ENDBLK
  5
25
330
23
100
AcDbEntity
  8
0
100
AcDbBlockEnd
  0
BLOCK
  5
34
330
33
100
AcDbEntity
  8
0
100
AcDbBlockBegin
  2
_6
 70
     0
 71
     0
 10
491.649968718577
 20
-343.63030285773
 30
0.0
  3
_6
  1

  0
LINE
  5
47
330
33
100
AcDbEntity
  8
1
  6
Continuous
 62
     3
100
AcDbLine
 10
626.315085158313
 20
-333.156582299359
 30
0.0
 11
616.2558674532668
 21
-333.156582299359
 31
0.0
  0
LINE
  5
48
330
33
100
AcDbEntity
  8
1
  6
Continuous
 62
     3
100
AcDbLine
 10
626.315085158313
 20
-314.1040234161011
 30
0.0
 11
616.2558674532668
 21
-314.1040234161011
 31
0.0
  0
LINE
  5
49
330
33
100
AcDbEntity
  8
1
  6
Continuous
 62
     3
100
AcDbLine
 10
626.315085158313
 20
-304.9809926725342
 30
0.0
 11
626.315085158313
 21
-342.2796130429257
 31
0.0
  0
LINE
  5
4A
330
33
100
AcDbEntity
  8
1
  6
Continuous
 62
     3
100
AcDbLine
 10
626.315085158313
 20
-342.63030285773
 30
0.0
 11
626.315085158313
 21
-342.2796130429257
 31
0.0
  0
LINE
  5
4B
330
33
100
AcDbEntity
  8
1
  6
Continuous
 62
     3
100
AcDbLine
 10
626.315085158313
 20
-304.63030285773
 30
0.0
 11
626.315085158313
 21
-304.9809926725342
 31
0.0
  0
LINE
  5
4C
330
33
100
AcDbEntity
  8
1
  6
Continuous
 62
     3
100
AcDbLine
 10
613.315085158313
 20
-338.0826865792423
 30
0.0
 11
613.315085158313
 21
-340.13030285773
 31
0.0
  0
LINE
  5
4D
330
33
100
AcDbEntity
  8
1
  6
Continuous
 62
     3
100
AcDbLine
 10
613.315085158313
 20
-309.1779191362177
 30
0.0
 11
613.315085158313
 21
-338.0826865792423
 31
0.0
  0
LINE
  5
4E
330
33
100
AcDbEntity
  8
1
  6
Continuous
 62
     3
100
AcDbLine
 10
613.315085158313
 20
-307.1303028577301
 30
0.0
 11
613.315085158313
 21
-309.1779191362177
 31
0.0
  0
LINE
  5
4F
330
33
100
AcDbEntity
  8
1
  6
Continuous
 62
     3
100
AcDbLine
 10
614.1914735331792
 20
-341.63030285773
 30
0.0
 11
613.315085158313
 21
-340.1123536652989
 31
0.0
  0
LINE
  5
50
330
33
100
AcDbEntity
  8
1
  6
Continuous
 62
     3
100
AcDbLine
 10
614.1914735331792
 20
-305.6303028577301
 30
0.0
 11
625.3785934852093
 21
-305.6303028577301
 31
0.0
  0
LINE
  5
51
330
33
100
AcDbEntity
  8
1
  6
CENTER_DASH_DASH
 62
     3
100
AcDbLine
 10
613.315085158313
 20
-307.148252050161
 30
0.0
 11
614.1914735331792
 21
-305.6303028577301
 31
0.0
  0
LINE
  5
52
330
33
100
AcDbEntity
  8
1
  6
Continuous
 62
     3
100
AcDbLine
 10
614.1914735331792
 20
-341.63030285773
 30
0.0
 11
625.3785934852093
 21
-341.63030285773
 31
0.0
  0
LINE
  5
53
330
33
100
AcDbEntity
  8
1
  6
Continuous
 62
     3
100
AcDbLine
 10
629.815085158313
 20
-343.63030285773
 30
0.0
 11
627.315085158313
 21
-343.63030285773
 31
0.0
  0
LINE
  5
54
330
33
100
AcDbEntity
  8
1
  6
Continuous
 62
     3
100
AcDbLine
 10
627.315085158313
 20
-303.63030285773
 30
0.0
 11
629.815085158313
 21
-303.63030285773
 31
0.0
  0
LINE
  5
55
330
33
100
AcDbEntity
  8
1
  6
Continuous
 62
     3
100
AcDbLine
 10
574.301464629621
 20
-334.3228483776882
 30
0.0
 11
561.8415288352435
 21
-341.5165956626577
 31
0.0
  0
LINE
  5
56
330
33
100
AcDbEntity
  8
1
  6
Continuous
 62
     3
100
AcDbLine
 10
561.8415288352436
 20
-305.7440100528023
 30
0.0
 11
574.3014646296208
 21
-312.9377573377713
 31
0.0
  0
LINE
  5
57
330
33
100
AcDbEntity
  8
1
  6
Continuous
 62
     3
100
AcDbLine
 10
576.3214967324321
 20
-316.4365555727609
 30
0.0
 11
576.3214967324321
 21
-330.824050142699
 31
0.0
  0
LINE
  5
58
330
33
100
AcDbEntity
  8
1
  6
Continuous
 62
     3
100
AcDbLine
 10
545.3415288352436
 20
-312.9377573377713
 30
0.0
 11
557.8014646296207
 21
-305.7440100528023
 31
0.0
  0
LINE
  5
59
330
33
100
AcDbEntity
  8
1
  6
Continuous
 62
     3
100
AcDbLine
 10
557.8014646296213
 20
-341.516595662658
 30
0.0
 11
545.3415288352436
 21
-334.3228483776887
 31
0.0
  0
LINE
  5
5A
330
33
100
AcDbEntity
  8
1
  6
Continuous
 62
     3
100
AcDbLine
 10
543.3214967324325
 20
-330.8240501426997
 30
0.0
 11
543.3214967324321
 21
-316.4365555727608
 31
0.0
  0
LINE
  5
5B
330
33
100
AcDbEntity
  8
1
  6
Continuous
 62
     3
100
AcDbLine
 10
494.6499687185771
 20
-343.63030285773
 30
0.0
 11
492.1499687185771
 21
-343.63030285773
 31
0.0
  0
LINE
  5
5C
330
33
100
AcDbEntity
  8
1
  6
Continuous
 62
     3
100
AcDbLine
 10
492.1499687185771
 20
-303.63030285773
 30
0.0
 11
494.6499687185771
 21
-303.63030285773
 31
0.0
  0
LINE
  5
5D
330
33
100
AcDbEntity
  8
1
  6
Continuous
 62
     3
100
AcDbLine
 10
496.5864603916808
 20
-341.63030285773
 30
0.0
 11
507.7735803437109
 21
-341.63030285773
 31
0.0
  0
LINE
  5
5E
330
33
100
AcDbEntity
  8
1
  6
Continuous
 62
     3
100
AcDbLine
 10
496.5864603916808
 20
-305.6303028577301
 30
0.0
 11
507.7735803437109
 21
-305.6303028577301
 31
0.0
  0
LINE
  5
5F
330
33
100
AcDbEntity
  8
1
  6
Continuous
 62
     3
100
AcDbLine
 10
508.6499687185771
 20
-340.1123536652989
 30
0.0
 11
507.7735803437109
 21
-341.63030285773
 31
0.0
  0
LINE
  5
60
330
33
100
AcDbEntity
  8
1
  6
Continuous
 62
     3
100
AcDbLine
 10
508.6499687185771
 20
-338.0826865792423
 30
0.0
 11
508.6499687185771
 21
-309.1779191362177
 31
0.0
  0
LINE
  5
61
330
33
100
AcDbEntity
  8
1
  6
Continuous
 62
     3
100
AcDbLine
 10
508.6499687185771
 20
-340.13030285773
 30
0.0
 11
508.6499687185771
 21
-338.0826865792423
 31
0.0
  0
LINE
  5
62
330
33
100
AcDbEntity
  8
1
  6
Continuous
 62
     3
100
AcDbLine
 10
495.6499687185771
 20
-304.9809926725342
 30
0.0
 11
495.6499687185771
 21
-304.63030285773
 31
0.0
  0
LINE
  5
63
330
33
100
AcDbEntity
  8
1
  6
Continuous
 62
     3
100
AcDbLine
 10
495.6499687185771
 20
-342.2796130429257
 30
0.0
 11
495.6499687185771
 21
-342.63030285773
 31
0.0
  0
LINE
  5
64
330
33
100
AcDbEntity
  8
1
  6
Continuous
 62
     3
100
AcDbLine
 10
495.6499687185771
 20
-342.2796130429257
 30
0.0
 11
495.6499687185771
 21
-304.9809926725342
 31
0.0
  0
LINE
  5
65
330
33
100
AcDbEntity
  8
1
  6
Continuous
 62
     3
100
AcDbLine
 10
505.7091864236233
 20
-314.1040234161011
 30
0.0
 11
495.6499687185771
 21
-314.1040234161011
 31
0.0
  0
LINE
  5
66
330
33
100
AcDbEntity
  8
1
  6
Continuous
 62
     3
100
AcDbLine
 10
505.7091864236233
 20
-333.156582299359
 30
0.0
 11
495.6499687185771
 21
-333.156582299359
 31
0.0
  0
LINE
  5
67
330
33
100
AcDbEntity
  8
1
  6
Continuous
 62
     3
100
AcDbLine
 10
508.6499687185771
 20
-309.1779191362177
 30
0.0
 11
508.6499687185771
 21
-307.1303028577299
 31
0.0
  0
LINE
  5
68
330
33
100
AcDbEntity
  8
1
  6
Continuous
 62
     3
100
AcDbLine
 10
507.7735803437109
 20
-305.6303028577301
 30
0.0
 11
508.6499687185771
 21
-307.148252050161
 31
0.0
  0
LINE
  5
69
330
33
100
AcDbEntity
  8
1
  6
Continuous
 62
     3
100
AcDbLine
 10
494.649968718577
 20
-218.63030285773
 30
0.0
 11
492.149968718577
 21
-218.63030285773
 31
0.0
  0
LINE
  5
6A
330
33
100
AcDbEntity
  8
1
  6
Continuous
 62
     3
100
AcDbLine
 10
495.649968718577
 20
-216.13030285773
 30
0.0
 11
495.649968718577
 21
-217.63030285773
 31
0.0
  0
LINE
  5
6B
330
33
100
AcDbEntity
  8
1
  6
Continuous
 62
     3
100
AcDbLine
 10
495.649968718577
 20
-217.5561409590625
 30
0.0
 11
495.649968718577
 21
-217.63030285773
 31
0.0
  0
LINE
  5
6C
330
33
100
AcDbEntity
  8
1
  6
Continuous
 62
     3
100
AcDbLine
 10
495.649968718577
 20
-181.13030285773
 30
0.0
 11
495.649968718577
 21
-216.13030285773
 31
0.0
  0
LINE
  5
6D
330
33
100
AcDbEntity
  8
1
  6
Continuous
 62
     3
100
AcDbLine
 10
492.149968718577
 20
-178.63030285773
 30
0.0
 11
494.649968718577
 21
-178.63030285773
 31
0.0
  0
LINE
  5
6E
330
33
100
AcDbEntity
  8
1
  6
Continuous
 62
     3
100
AcDbLine
 10
495.649968718577
 20
-181.13030285773
 30
0.0
 11
495.649968718577
 21
-179.63030285773
 31
0.0
  0
LINE
  5
6F
330
33
100
AcDbEntity
  8
1
  6
Continuous
 62
     3
100
AcDbLine
 10
495.649968718577
 20
-198.63030285773
 30
0.0
 11
505.7091864236233
 21
-198.63030285773
 31
0.0
  0
LINE
  5
70
330
33
100
AcDbEntity
  8
1
  6
Continuous
 62
     3
100
AcDbLine
 10
508.6499687185771
 20
-213.6123536652991
 30
0.0
 11
508.6499687185771
 21
-183.6482520501609
 31
0.0
  0
LINE
  5
71
330
33
100
AcDbEntity
  8
1
  6
Continuous
 62
     3
100
AcDbLine
 10
507.7735803437109
 20
-215.13030285773
 30
0.0
 11
496.649968718577
 21
-215.13030285773
 31
0.0
  0
LINE
  5
72
330
33
100
AcDbEntity
  8
1
  6
Continuous
 62
     3
100
AcDbLine
 10
508.6499687185771
 20
-213.6123536652991
 30
0.0
 11
507.7735803437109
 21
-215.13030285773
 31
0.0
  0
LINE
  5
73
330
33
100
AcDbEntity
  8
1
  6
Continuous
 62
     3
100
AcDbLine
 10
507.7735803437109
 20
-182.13030285773
 30
0.0
 11
496.649968718577
 21
-182.13030285773
 31
0.0
  0
LINE
  5
74
330
33
100
AcDbEntity
  8
1
  6
Continuous
 62
     3
100
AcDbLine
 10
507.7735803437109
 20
-182.13030285773
 30
0.0
 11
508.6499687185771
 21
-183.6482520501609
 31
0.0
  0
ARC
  5
75
330
33
100
AcDbEntity
  8
1
  6
Continuous
 62
     3
100
AcDbCircle
 10
618.4609667755806
 20
-337.8620356635992
 30
0.0
 40
5.196513675947396
100
AcDbArc
 50
115.1090251133349
 51
177.589122518234
  0
ARC
  5
76
330
33
100
AcDbEntity
  8
1
  6
Continuous
 62
     3
100
AcDbCircle
 10
630.0384162693589
 20
-323.63030285773
 30
0.0
 40
16.75436217431042
100
AcDbArc
 50
145.3483859040997
 51
-145.3483859040994
  0
ARC
  5
77
330
33
100
AcDbEntity
  8
1
  6
Continuous
 62
     3
100
AcDbCircle
 10
618.4609667755806
 20
-309.3985700518607
 30
0.0
 40
5.196513675947177
100
AcDbArc
 50
-171.9952523491509
 51
-115.1090251133341
  0
ARC
  5
78
330
33
100
AcDbEntity
  8
1
  6
Continuous
 62
     3
100
AcDbCircle
 10
625.3785934852093
 20
-342.63030285773
 30
0.0
 40
0.9999999999999827
100
AcDbArc
 50
20.52951306712568
 51
90.0
  0
ARC
  5
79
330
33
100
AcDbEntity
  8
1
  6
Continuous
 62
     3
100
AcDbCircle
 10
625.3785934852093
 20
-304.63030285773
 30
0.0
 40
1.000000000000114
100
AcDbArc
 50
-90.0
 51
-20.52951306712263
  0
ARC
  5
7A
330
33
100
AcDbEntity
  8
1
  6
Continuous
 62
     3
100
AcDbCircle
 10
559.8214967324321
 20
-323.63030285773
 30
0.0
 40
18.00000000000001
100
AcDbArc
 50
23.55646430910131
 51
36.44353569089855
  0
ARC
  5
7B
330
33
100
AcDbEntity
  8
1
  6
Continuous
 62
     3
100
AcDbCircle
 10
559.8214967324321
 20
-323.63030285773
 30
0.0
 40
17.99999999999999
100
AcDbArc
 50
-36.44353569089695
 51
-23.55646430910098
  0
ARC
  5
7C
330
33
100
AcDbEntity
  8
1
  6
Continuous
 62
     3
100
AcDbCircle
 10
559.8214967324321
 20
-323.63030285773
 30
0.0
 40
17.9999999999999
100
AcDbArc
 50
83.55646430910116
 51
96.44353569089884
  0
ARC
  5
7D
330
33
100
AcDbEntity
  8
1
  6
Continuous
 62
     3
100
AcDbCircle
 10
559.8214967324321
 20
-323.63030285773
 30
0.0
 40
18.00000000000018
100
AcDbArc
 50
-96.44353569089692
 51
-83.55646430910154
  0
ARC
  5
7E
330
33
100
AcDbEntity
  8
1
  6
Continuous
 62
     3
100
AcDbCircle
 10
559.8214967324321
 20
-323.63030285773
 30
0.0
 40
17.99999999999995
100
AcDbArc
 50
-156.4435356908965
 51
-143.5564643091012
  0
ARC
  5
7F
330
33
100
AcDbEntity
  8
1
  6
Continuous
 62
     3
100
AcDbCircle
 10
559.8214967324321
 20
-323.63030285773
 30
0.0
 40
17.99999999999998
100
AcDbArc
 50
143.5564643091012
 51
156.4435356908985
  0
ARC
  5
80
330
33
100
AcDbEntity
  8
1
  6
Continuous
 62
     3
100
AcDbCircle
 10
496.5864603916808
 20
-304.63030285773
 30
0.0
 40
1.000000000000016
100
AcDbArc
 50
-159.4704869328785
 51
-90.0
  0
ARC
  5
81
330
33
100
AcDbEntity
  8
1
  6
Continuous
 62
     3
100
AcDbCircle
 10
496.5864603916808
 20
-342.63030285773
 30
0.0
 40
1.0
100
AcDbArc
 50
90.0
 51
159.4704869328755
  0
ARC
  5
82
330
33
100
AcDbEntity
  8
1
  6
Continuous
 62
     3
100
AcDbCircle
 10
503.5040871013095
 20
-309.3985700518607
 30
0.0
 40
5.196513675947551
100
AcDbArc
 50
-64.89097488666589
 51
-8.00474765084914
  0
ARC
  5
83
330
33
100
AcDbEntity
  8
1
  6
Continuous
 62
     3
100
AcDbCircle
 10
491.9266376075312
 20
-323.63030285773
 30
0.0
 40
16.75436217431048
100
AcDbArc
 50
-34.65161409590066
 51
34.65161409590034
  0
ARC
  5
84
330
33
100
AcDbEntity
  8
1
  6
Continuous
 62
     3
100
AcDbCircle
 10
503.5040871013095
 20
-337.8620356635992
 30
0.0
 40
5.196513675947194
100
AcDbArc
 50
2.41087748176597
 51
64.89097488666509
  0
ARC
  5
85
330
33
100
AcDbEntity
  8
1
  6
Continuous
 62
     3
100
AcDbCircle
 10
503.5040871013095
 20
-203.3357562219704
 30
0.0
 40
5.196513675947177
100
AcDbArc
 50
8.00474765084914
 51
64.89097488666602
  0
ARC
  5
86
330
33
100
AcDbEntity
  8
1
  6
Continuous
 62
     3
100
AcDbCircle
 10
503.5040871013095
 20
-193.9248494934896
 30
0.0
 40
5.196513675947551
100
AcDbArc
 50
-64.89097488666589
 51
-8.00474765084914
  0
CIRCLE
  5
87
330
33
100
AcDbEntity
  8
1
  6
Continuous
 62
     3
100
AcDbCircle
 10
559.8214967324321
 20
-323.63030285773
 30
0.0
 40
11.76937548629155
  0
CIRCLE
  5
88
330
33
100
AcDbEntity
  8
1
  6
Continuous
 62
     1
100
AcDbCircle
 10
559.8214967324321
 20
-323.63030285773
 30
0.0
 40
13.36294291552429
  0
CIRCLE
  5
89
330
33
100
AcDbEntity
  8
1
  6
Continuous
 62
     3
100
AcDbCircle
 10
559.8214967324321
 20
-323.63030285773
 30
0.0
 40
16.5
  0
CIRCLE
  5
8A
330
33
100
AcDbEntity
  8
1
  6
Continuous
 62
     3
100
AcDbCircle
 10
559.8214967324321
 20
-323.63030285773
 30
0.0
 40
20.0
  0
ARC
  5
8B
330
33
100
AcDbEntity
  8
1
  6
Continuous
 62
     3
100
AcDbCircle
 10
629.815085158313
 20
-341.63030285773
 30
0.0
 40
2.0
100
AcDbArc
 50
-90.0
 51
-75.52248781407015
  0
ARC
  5
8C
330
33
100
AcDbEntity
  8
1
  6
Continuous
 62
     3
100
AcDbCircle
 10
629.815085158313
 20
-305.6303028577301
 30
0.0
 40
2.000000000000063
100
AcDbArc
 50
75.52248781407054
 51
90.0
  0
ARC
  5
8D
330
33
100
AcDbEntity
  8
1
  6
Continuous
 62
     3
100
AcDbCircle
 10
627.315085158313
 20
-304.63030285773
 30
0.0
 40
1.0
100
AcDbArc
 50
90.0
 51
180.0
  0
ARC
  5
8E
330
33
100
AcDbEntity
  8
1
  6
Continuous
 62
     3
100
AcDbCircle
 10
627.315085158313
 20
-342.63030285773
 30
0.0
 40
1.0
100
AcDbArc
 50
180.0
 51
-90.0
  0
ARC
  5
8F
330
33
100
AcDbEntity
  8
1
  6
Continuous
 62
     3
100
AcDbCircle
 10
540.7119650170731
 20
-338.1501443726946
 30
0.0
 40
4.999999999999848
100
AcDbArc
 50
-30.00000000000176
 51
4.10542648288341
  0
ARC
  5
90
330
33
100
AcDbEntity
  8
1
  6
Continuous
 62
     3
100
AcDbCircle
 10
492.1499687185771
 20
-341.63030285773
 30
0.0
 40
2.000000000000008
100
AcDbArc
 50
-104.4775121859299
 51
-90.0
  0
ARC
  5
91
330
33
100
AcDbEntity
  8
1
  6
Continuous
 62
     3
100
AcDbCircle
 10
492.1499687185771
 20
-305.6303028577301
 30
0.0
 40
2.000000000000114
100
AcDbArc
 50
90.0
 51
104.4775121859295
  0
ARC
  5
92
330
33
100
AcDbEntity
  8
1
  6
Continuous
 62
     3
100
AcDbCircle
 10
494.6499687185771
 20
-342.63030285773
 30
0.0
 40
1.0
100
AcDbArc
 50
-90.0
 51
0.0
  0
ARC
  5
93
330
33
100
AcDbEntity
  8
1
  6
Continuous
 62
     3
100
AcDbCircle
 10
494.6499687185771
 20
-304.63030285773
 30
0.0
 40
1.0
100
AcDbArc
 50
0.0
 51
90.0
  0
ARC
  5
94
330
33
100
AcDbEntity
  8
1
  6
Continuous
 62
     3
100
AcDbCircle
 10
492.149968718577
 20
-216.63030285773
 30
0.0
 40
2.000000000000008
100
AcDbArc
 50
-104.4775121859299
 51
-90.0
  0
ARC
  5
95
330
33
100
AcDbEntity
  8
1
  6
Continuous
 62
     3
100
AcDbCircle
 10
496.649968718577
 20
-216.13030285773
 30
0.0
 40
1.0
100
AcDbArc
 50
90.0
 51
180.0
  0
ARC
  5
96
330
33
100
AcDbEntity
  8
1
  6
Continuous
 62
     3
100
AcDbCircle
 10
494.649968718577
 20
-217.63030285773
 30
0.0
 40
1.0
100
AcDbArc
 50
-90.0
 51
0.0
  0
ARC
  5
97
330
33
100
AcDbEntity
  8
1
  6
Continuous
 62
     3
100
AcDbCircle
 10
492.149968718577
 20
-180.63030285773
 30
0.0
 40
2.0
100
AcDbArc
 50
90.0
 51
104.4775121859301
  0
ARC
  5
98
330
33
100
AcDbEntity
  8
1
  6
Continuous
 62
     3
100
AcDbCircle
 10
496.649968718577
 20
-181.13030285773
 30
0.0
 40
1.0
100
AcDbArc
 50
180.0
 51
-90.0
  0
ARC
  5
99
330
33
100
AcDbEntity
  8
1
  6
Continuous
 62
     3
100
AcDbCircle
 10
494.649968718577
 20
-179.63030285773
 30
0.0
 40
1.0
100
AcDbArc
 50
0.0
 51
90.0
  0
ENDBLK
  5
35
330
33
100
AcDbEntity
  8
0
100
AcDbBlockEnd
  0
BLOCK
  5
37
330
36
100
AcDbEntity
  8
0
100
AcDbBlockBegin
  2
Top__1
 70
     0
 71
     0
 10
1265.868961413722
 20
-716.4957613204489
 30
0.0
  3
Top__1
  1

  0
LINE
  5
9A
330
36
100
AcDbEntity
  8
1
  6
Continuous
 62
     3
100
AcDbLine
 10
452.1882958791115
 20
-182.1463282615144
 30
0.0
 11
437.5171048222544
 21
-182.1463282615144
 31
0.0
  0
LINE
  5
9B
330
36
100
AcDbEntity
  8
1
  6
Continuous
 62
     3
100
AcDbLine
 10
439.5907510135309
 20
-198.63030285773
 30
0.0
 11
451.649968718577
 21
-198.63030285773
 31
0.0
  0
LINE
  5
9C
330
36
100
AcDbEntity
  8
1
  6
DASH_CENTER
 62
     3
100
AcDbLine
 10
439.5907510135309
 20
-198.63030285773
 30
0.0
 11
451.649968718577
 21
-198.63030285773
 31
0.0
  0
LINE
  5
9D
330
36
100
AcDbEntity
  8
1
  6
Continuous
 62
     3
100
AcDbLine
 10
452.195612661259
 20
-215.1303028577299
 30
0.0
 11
437.520824746402
 21
-215.1303028577299
 31
0.0
  0
LINE
  5
9E
330
36
100
AcDbEntity
  8
1
  6
Continuous
 62
     3
100
AcDbLine
 10
471.649968718577
 20
-179.63030285773
 30
0.0
 11
482.3333439282216
 21
-179.6303028577301
 31
0.0
  0
LINE
  5
9F
330
36
100
AcDbEntity
  8
1
  6
Continuous
 62
     3
100
AcDbLine
 10
482.3333439282214
 20
-217.6303028577299
 30
0.0
 11
471.649968718577
 21
-217.6303028577299
 31
0.0
  0
LINE
  5
A0
330
36
100
AcDbEntity
  8
1
  6
Continuous
 62
     3
100
AcDbLine
 10
491.649968718577
 20
-201.4587299824762
 30
0.0
 11
491.6499687185771
 21
-218.63030285773
 31
0.0
  0
LINE
  5
A1
330
36
100
AcDbEntity
  8
1
  6
Continuous
 62
     3
100
AcDbLine
 10
487.1970764239691
 20
-178.833195152338
 30
0.0
 11
487.399968718577
 21
-178.63030285773
 31
0.0
  0
LINE
  5
A2
330
36
100
AcDbEntity
  8
1
  6
Continuous
 62
     3
100
AcDbLine
 10
491.6499687185771
 20
-178.63030285773
 30
0.0
 11
487.399968718577
 21
-178.63030285773
 31
0.0
  0
LINE
  5
A3
330
36
100
AcDbEntity
  8
1
  6
Continuous
 62
     3
100
AcDbLine
 10
491.6499687185771
 20
-178.63030285773
 30
0.0
 11
491.649968718577
 21
-195.8018757329838
 31
0.0
  0
LINE
  5
A4
330
36
100
AcDbEntity
  8
1
  6
Continuous
 62
     3
100
AcDbLine
 10
487.3999687185771
 20
-218.63030285773
 30
0.0
 11
491.6499687185771
 21
-218.63030285773
 31
0.0
  0
LINE
  5
A5
330
36
100
AcDbEntity
  8
1
  6
Continuous
 62
     3
100
AcDbLine
 10
487.3999687185771
 20
-218.63030285773
 30
0.0
 11
487.1970764239692
 21
-218.4274105631221
 31
0.0
  0
LINE
  5
A6
330
36
100
AcDbEntity
  8
1
  6
Continuous
 62
     3
100
AcDbLine
 10
436.649968718577
 20
-183.6482520501609
 30
0.0
 11
437.5171048222544
 21
-182.1463282615144
 31
0.0
  0
LINE
  5
A7
330
36
100
AcDbEntity
  8
1
  6
Continuous
 62
     3
100
AcDbLine
 10
436.649968718577
 20
-183.6482520501609
 30
0.0
 11
436.649968718577
 21
-213.6123536652991
 31
0.0
  0
LINE
  5
A8
330
36
100
AcDbEntity
  8
1
  6
Continuous
 62
     3
100
AcDbLine
 10
437.5171048222544
 20
-215.1142774539456
 30
0.0
 11
436.649968718577
 21
-213.6123536652991
 31
0.0
  0
ARC
  5
A9
330
36
100
AcDbEntity
  8
1
  6
Continuous
 62
     3
100
AcDbCircle
 10
441.7958503358447
 20
-193.9248494934896
 30
0.0
 40
5.196513675947177
100
AcDbArc
 50
-171.9952523491509
 51
-115.1090251133341
  0
ARC
  5
AA
330
36
100
AcDbEntity
  8
1
  6
Continuous
 62
     3
100
AcDbCircle
 10
441.7958503358447
 20
-203.3357562219704
 30
0.0
 40
5.196513675947577
100
AcDbArc
 50
115.109025113334
 51
171.9952523491509
  0
ARC
  5
AB
330
36
100
AcDbEntity
  8
1
  6
Continuous
 62
     3
100
AcDbCircle
 10
471.649968718577
 20
-218.63030285773
 30
0.0
 40
39.00000000000006
100
AcDbArc
 50
92.77000562462165
 51
103.9449412984128
  0
ARC
  5
AC
330
36
100
AcDbEntity
  8
1
  6
Continuous
 62
     3
100
AcDbCircle
 10
471.649968718577
 20
-218.63030285773
 30
0.0
 40
39.0
100
AcDbArc
 50
90.0
 51
92.38906358237674
  0
ARC
  5
AD
330
36
100
AcDbEntity
  8
1
  6
Continuous
 62
     3
100
AcDbCircle
 10
471.649968718577
 20
-218.63030285773
 30
0.0
 40
38.99999999999989
100
AcDbArc
 50
92.38906358237674
 51
92.77000562462165
  0
ARC
  5
AE
330
36
100
AcDbEntity
  8
1
  6
Continuous
 62
     3
100
AcDbCircle
 10
471.649968718577
 20
-218.63030285773
 30
0.0
 40
38.99999999999989
100
AcDbArc
 50
92.38906358237674
 51
92.77000562462165
  0
ARC
  5
AF
330
36
100
AcDbEntity
  8
1
  6
Continuous
 62
     3
100
AcDbCircle
 10
471.649968718577
 20
-178.63030285773
 30
0.0
 40
39.00000000000011
100
AcDbArc
 50
-103.9449412984128
 51
-92.77000562462165
  0
ARC
  5
B0
330
36
100
AcDbEntity
  8
1
  6
Continuous
 62
     3
100
AcDbCircle
 10
471.649968718577
 20
-178.63030285773
 30
0.0
 40
38.99999999999989
100
AcDbArc
 50
-92.38906358237674
 51
-90.0
  0
ARC
  5
B1
330
36
100
AcDbEntity
  8
1
  6
Continuous
 62
     3
100
AcDbCircle
 10
471.649968718577
 20
-178.63030285773
 30
0.0
 40
39.00000000000018
100
AcDbArc
 50
-92.77000562462165
 51
-92.38906358237674
  0
ENDBLK
  5
38
330
36
100
AcDbEntity
  8
0
100
AcDbBlockEnd
  0
BLOCK
  5
3A
330
39
100
AcDbEntity
  8
0
100
AcDbBlockBegin
  2
_4
 70
     0
 71
     0
 10
334.9703936029752
 20
-273.63030285773
 30
0.0
  3
_4
  1

  0
LINE
  5
B2
330
39
100
AcDbEntity
  8
1
  6
Continuous
 62
     3
100
AcDbLine
 10
546.3214967324323
 20
-273.63030285773
 30
0.0
 11
546.3214967324323
 21
-268.63030285773
 31
0.0
  0
LINE
  5
B3
330
39
100
AcDbEntity
  8
1
  6
Continuous
 62
     3
100
AcDbLine
 10
573.3214967324321
 20
-268.63030285773
 30
0.0
 11
573.3214967324321
 21
-273.63030285773
 31
0.0
  0
LINE
  5
B4
330
39
100
AcDbEntity
  8
1
  6
Continuous
 62
     3
100
AcDbLine
 10
552.9827836777417
 20
-262.13030285773
 30
0.0
 11
552.9827836777417
 21
-268.63030285773
 31
0.0
  0
LINE
  5
B5
330
39
100
AcDbEntity
  8
1
  6
Continuous
 62
     3
100
AcDbLine
 10
545.9117158658763
 20
-268.63030285773
 30
0.0
 11
545.9117158658763
 21
-262.13030285773
 31
0.0
  0
LINE
  5
B6
330
39
100
AcDbEntity
  8
1
  6
Continuous
 62
     3
100
AcDbLine
 10
559.8214967324321
 20
-262.13030285773
 30
0.0
 11
545.9117158658763
 21
-262.13030285773
 31
0.0
  0
LINE
  5
B7
330
39
100
AcDbEntity
  8
1
  6
Continuous
 62
     3
100
AcDbLine
 10
554.4899567128808
 20
-262.13030285773
 30
0.0
 11
554.4899567128808
 21
-268.63030285773
 31
0.0
  0
LINE
  5
B8
330
39
100
AcDbEntity
  8
1
  6
Continuous
 62
     3
100
AcDbLine
 10
554.4899567128808
 20
-268.63030285773
 30
0.0
 11
545.9117158658763
 21
-268.63030285773
 31
0.0
  0
LINE
  5
B9
330
39
100
AcDbEntity
  8
1
  6
Continuous
 62
     3
100
AcDbLine
 10
565.1530367519836
 20
-268.63030285773
 30
0.0
 11
565.1530367519836
 21
-262.13030285773
 31
0.0
  0
LINE
  5
BA
330
39
100
AcDbEntity
  8
1
  6
Continuous
 62
     3
100
AcDbLine
 10
566.6602097871225
 20
-268.63030285773
 30
0.0
 11
566.6602097871225
 21
-262.13030285773
 31
0.0
  0
LINE
  5
BB
330
39
100
AcDbEntity
  8
1
  6
Continuous
 62
     3
100
AcDbLine
 10
573.7312775989881
 20
-262.13030285773
 30
0.0
 11
559.8214967324321
 21
-262.13030285773
 31
0.0
  0
LINE
  5
BC
330
39
100
AcDbEntity
  8
1
  6
Continuous
 62
     3
100
AcDbLine
 10
573.7312775989881
 20
-268.63030285773
 30
0.0
 11
565.1530367519836
 21
-268.63030285773
 31
0.0
  0
LINE
  5
BD
330
39
100
AcDbEntity
  8
1
  6
Continuous
 62
     3
100
AcDbLine
 10
573.7312775989881
 20
-262.13030285773
 30
0.0
 11
573.7312775989881
 21
-268.63030285773
 31
0.0
  0
LINE
  5
BE
330
39
100
AcDbEntity
  8
1
  6
Continuous
 62
     3
100
AcDbLine
 10
485.5597495851329
 20
-262.13030285773
 30
0.0
 11
471.649968718577
 21
-262.13030285773
 31
0.0
  0
LINE
  5
BF
330
39
100
AcDbEntity
  8
1
  6
Continuous
 62
     3
100
AcDbLine
 10
485.5597495851329
 20
-262.13030285773
 30
0.0
 11
485.5597495851329
 21
-268.63030285773
 31
0.0
  0
LINE
  5
C0
330
39
100
AcDbEntity
  8
1
  6
Continuous
 62
     3
100
AcDbLine
 10
485.149968718577
 20
-268.63030285773
 30
0.0
 11
485.149968718577
 21
-273.63030285773
 31
0.0
  0
LINE
  5
C1
330
39
100
AcDbEntity
  8
1
  6
Continuous
 62
     3
100
AcDbLine
 10
458.1499687185771
 20
-273.63030285773
 30
0.0
 11
458.1499687185771
 21
-268.63030285773
 31
0.0
  0
LINE
  5
C2
330
39
100
AcDbEntity
  8
1
  6
Continuous
 62
     3
100
AcDbLine
 10
464.8112556638867
 20
-262.13030285773
 30
0.0
 11
464.8112556638867
 21
-268.63030285773
 31
0.0
  0
LINE
  5
C3
330
39
100
AcDbEntity
  8
1
  6
Continuous
 62
     3
100
AcDbLine
 10
457.7401878520212
 20
-268.63030285773
 30
0.0
 11
457.7401878520212
 21
-262.13030285773
 31
0.0
  0
LINE
  5
C4
330
39
100
AcDbEntity
  8
1
  6
Continuous
 62
     3
100
AcDbLine
 10
471.649968718577
 20
-262.13030285773
 30
0.0
 11
457.7401878520212
 21
-262.13030285773
 31
0.0
  0
LINE
  5
C5
330
39
100
AcDbEntity
  8
1
  6
Continuous
 62
     3
100
AcDbLine
 10
466.3184286990257
 20
-262.13030285773
 30
0.0
 11
466.3184286990257
 21
-268.63030285773
 31
0.0
  0
LINE
  5
C6
330
39
100
AcDbEntity
  8
1
  6
Continuous
 62
     3
100
AcDbLine
 10
466.3184286990257
 20
-268.63030285773
 30
0.0
 11
457.7401878520212
 21
-268.63030285773
 31
0.0
  0
LINE
  5
C7
330
39
100
AcDbEntity
  8
1
  6
Continuous
 62
     3
100
AcDbLine
 10
476.9815087381284
 20
-268.63030285773
 30
0.0
 11
476.9815087381284
 21
-262.13030285773
 31
0.0
  0
LINE
  5
C8
330
39
100
AcDbEntity
  8
1
  6
Continuous
 62
     3
100
AcDbLine
 10
478.4886817732674
 20
-268.63030285773
 30
0.0
 11
478.4886817732674
 21
-262.13030285773
 31
0.0
  0
LINE
  5
C9
330
39
100
AcDbEntity
  8
1
  6
Continuous
 62
     3
100
AcDbLine
 10
485.5597495851329
 20
-268.63030285773
 30
0.0
 11
476.9815087381284
 21
-268.63030285773
 31
0.0
  0
LINE
  5
CA
330
39
100
AcDbEntity
  8
1
  6
Continuous
 62
     3
100
AcDbLine
 10
390.5597495851331
 20
-262.13030285773
 30
0.0
 11
390.5597495851331
 21
-268.63030285773
 31
0.0
  0
LINE
  5
CB
330
39
100
AcDbEntity
  8
1
  6
Continuous
 62
     3
100
AcDbLine
 10
390.5597495851331
 20
-268.63030285773
 30
0.0
 11
381.9815087381286
 21
-268.63030285773
 31
0.0
  0
LINE
  5
CC
330
39
100
AcDbEntity
  8
1
  6
Continuous
 62
     3
100
AcDbLine
 10
390.5597495851331
 20
-262.13030285773
 30
0.0
 11
376.6499687185771
 21
-262.13030285773
 31
0.0
  0
LINE
  5
CD
330
39
100
AcDbEntity
  8
1
  6
Continuous
 62
     3
100
AcDbLine
 10
383.4886817732674
 20
-268.63030285773
 30
0.0
 11
383.4886817732674
 21
-262.13030285773
 31
0.0
  0
LINE
  5
CE
330
39
100
AcDbEntity
  8
1
  6
Continuous
 62
     3
100
AcDbLine
 10
381.9815087381286
 20
-268.63030285773
 30
0.0
 11
381.9815087381286
 21
-262.13030285773
 31
0.0
  0
LINE
  5
CF
330
39
100
AcDbEntity
  8
1
  6
Continuous
 62
     3
100
AcDbLine
 10
371.3184286990258
 20
-268.63030285773
 30
0.0
 11
362.7401878520213
 21
-268.63030285773
 31
0.0
  0
LINE
  5
D0
330
39
100
AcDbEntity
  8
1
  6
Continuous
 62
     3
100
AcDbLine
 10
371.3184286990258
 20
-262.13030285773
 30
0.0
 11
371.3184286990258
 21
-268.63030285773
 31
0.0
  0
LINE
  5
D1
330
39
100
AcDbEntity
  8
1
  6
Continuous
 62
     3
100
AcDbLine
 10
376.6499687185771
 20
-262.13030285773
 30
0.0
 11
362.7401878520213
 21
-262.13030285773
 31
0.0
  0
LINE
  5
D2
330
39
100
AcDbEntity
  8
1
  6
Continuous
 62
     3
100
AcDbLine
 10
362.7401878520213
 20
-268.63030285773
 30
0.0
 11
362.7401878520213
 21
-262.13030285773
 31
0.0
  0
LINE
  5
D3
330
39
100
AcDbEntity
  8
1
  6
Continuous
 62
     3
100
AcDbLine
 10
369.8112556638868
 20
-262.13030285773
 30
0.0
 11
369.8112556638868
 21
-268.63030285773
 31
0.0
  0
LINE
  5
D4
330
39
100
AcDbEntity
  8
1
  6
Continuous
 62
     3
100
AcDbLine
 10
390.1499687185771
 20
-268.63030285773
 30
0.0
 11
390.1499687185771
 21
-273.63030285773
 31
0.0
  0
LINE
  5
D5
330
39
100
AcDbEntity
  8
1
  6
Continuous
 62
     3
100
AcDbLine
 10
363.1499687185772
 20
-273.63030285773
 30
0.0
 11
363.1499687185772
 21
-268.63030285773
 31
0.0
  0
LINE
  5
D6
330
39
100
AcDbEntity
  8
1
  6
Continuous
 62
     3
100
AcDbLine
 10
636.4053042917569
 20
-268.63030285773
 30
0.0
 11
636.4053042917569
 21
-262.13030285773
 31
0.0
  0
LINE
  5
D7
330
39
100
AcDbEntity
  8
1
  6
Continuous
 62
     3
100
AcDbLine
 10
644.9835451387615
 20
-268.63030285773
 30
0.0
 11
636.4053042917569
 21
-268.63030285773
 31
0.0
  0
LINE
  5
D8
330
39
100
AcDbEntity
  8
1
  6
Continuous
 62
     3
100
AcDbLine
 10
650.315085158313
 20
-262.13030285773
 30
0.0
 11
636.4053042917569
 21
-262.13030285773
 31
0.0
  0
LINE
  5
D9
330
39
100
AcDbEntity
  8
1
  6
Continuous
 62
     3
100
AcDbLine
 10
643.4763721036225
 20
-262.13030285773
 30
0.0
 11
643.4763721036225
 21
-268.63030285773
 31
0.0
  0
LINE
  5
DA
330
39
100
AcDbEntity
  8
1
  6
Continuous
 62
     3
100
AcDbLine
 10
644.9835451387615
 20
-262.13030285773
 30
0.0
 11
644.9835451387615
 21
-268.63030285773
 31
0.0
  0
LINE
  5
DB
330
39
100
AcDbEntity
  8
1
  6
Continuous
 62
     3
100
AcDbLine
 10
664.2248660248689
 20
-268.63030285773
 30
0.0
 11
655.6466251778644
 21
-268.63030285773
 31
0.0
  0
LINE
  5
DC
330
39
100
AcDbEntity
  8
1
  6
Continuous
 62
     3
100
AcDbLine
 10
655.6466251778644
 20
-268.63030285773
 30
0.0
 11
655.6466251778644
 21
-262.13030285773
 31
0.0
  0
LINE
  5
DD
330
39
100
AcDbEntity
  8
1
  6
Continuous
 62
     3
100
AcDbLine
 10
664.2248660248689
 20
-262.13030285773
 30
0.0
 11
650.315085158313
 21
-262.13030285773
 31
0.0
  0
LINE
  5
DE
330
39
100
AcDbEntity
  8
1
  6
Continuous
 62
     3
100
AcDbLine
 10
664.2248660248689
 20
-262.13030285773
 30
0.0
 11
664.2248660248689
 21
-268.63030285773
 31
0.0
  0
LINE
  5
DF
330
39
100
AcDbEntity
  8
1
  6
Continuous
 62
     3
100
AcDbLine
 10
657.1537982130034
 20
-268.63030285773
 30
0.0
 11
657.1537982130034
 21
-262.13030285773
 31
0.0
  0
LINE
  5
E0
330
39
100
AcDbEntity
  8
1
  6
Continuous
 62
     3
100
AcDbLine
 10
663.815085158313
 20
-268.63030285773
 30
0.0
 11
663.815085158313
 21
-273.63030285773
 31
0.0
  0
LINE
  5
E1
330
39
100
AcDbEntity
  8
1
  6
Continuous
 62
     3
100
AcDbLine
 10
636.815085158313
 20
-273.63030285773
 30
0.0
 11
636.815085158313
 21
-268.63030285773
 31
0.0
  0
ENDBLK
  5
3B
330
39
100
AcDbEntity
  8
0
100
AcDbBlockEnd
  0
BLOCK
  5
3D
330
3C
100
AcDbEntity
  8
0
100
AcDbBlockBegin
  2
_5
 70
     0
 71
     0
 10
342.880174469531
 20
-262.13030285773
 30
0.0
  3
_5
  1

  0
LINE
  5
E2
330
3C
100
AcDbEntity
  8
1
  6
Continuous
 62
     3
100
AcDbLine
 10
553.8214967324321
 20
-258.6303028577301
 30
0.0
 11
553.8214967324323
 21
-262.13030285773
 31
0.0
  0
LINE
  5
E3
330
3C
100
AcDbEntity
  8
1
  6
Continuous
 62
     3
100
AcDbLine
 10
565.8214967324321
 20
-258.6303028577301
 30
0.0
 11
565.8214967324321
 21
-262.13030285773
 31
0.0
  0
LINE
  5
E4
330
3C
100
AcDbEntity
  8
1
  6
Continuous
 62
     3
100
AcDbLine
 10
564.5714967324323
 20
-250.13030285773
 30
0.0
 11
564.5714967324321
 21
-258.6303028577301
 31
0.0
  0
LINE
  5
E5
330
3C
100
AcDbEntity
  8
1
  6
Continuous
 62
     3
100
AcDbLine
 10
555.0714967324321
 20
-258.6303028577301
 30
0.0
 11
553.8214967324321
 21
-258.6303028577301
 31
0.0
  0
LINE
  5
E6
330
3C
100
AcDbEntity
  8
1
  6
Continuous
 62
     3
100
AcDbLine
 10
564.5714967324321
 20
-258.6303028577301
 30
0.0
 11
563.4872163070859
 21
-258.6303028577301
 31
0.0
  0
LINE
  5
E7
330
3C
100
AcDbEntity
  8
1
  6
Continuous
 62
     3
100
AcDbLine
 10
565.8214967324321
 20
-258.6303028577301
 30
0.0
 11
564.5714967324321
 21
-258.6303028577301
 31
0.0
  0
LINE
  5
E8
330
3C
100
AcDbEntity
  8
1
  6
Continuous
 62
     3
100
AcDbLine
 10
564.5714967324323
 20
-248.9189779923247
 30
0.0
 11
564.5714967324321
 21
-249.6403028577301
 31
0.0
  0
LINE
  5
E9
330
3C
100
AcDbEntity
  8
1
  6
Continuous
 62
     3
100
AcDbLine
 10
564.0714967324321
 20
-248.63030285773
 30
0.0
 11
555.5714967324321
 21
-248.63030285773
 31
0.0
  0
LINE
  5
EA
330
3C
100
AcDbEntity
  8
1
  6
Continuous
 62
     3
100
AcDbLine
 10
563.4872163070859
 20
-258.6303028577301
 30
0.0
 11
563.4872163070859
 21
-249.6403028577301
 31
0.0
  0
LINE
  5
EB
330
3C
100
AcDbEntity
  8
1
  6
Continuous
 62
     3
100
AcDbLine
 10
555.0714967324321
 20
-258.6303028577301
 30
0.0
 11
555.0714967324321
 21
-249.6403028577301
 31
0.0
  0
LINE
  5
EC
330
3C
100
AcDbEntity
  8
1
  6
Continuous
 62
     3
100
AcDbLine
 10
564.5714967324323
 20
-248.9189779923247
 30
0.0
 11
564.0714967324321
 21
-248.63030285773
 31
0.0
  0
LINE
  5
ED
330
3C
100
AcDbEntity
  8
1
  6
Continuous
 62
     3
100
AcDbLine
 10
555.5714967324321
 20
-248.63030285773
 30
0.0
 11
555.0714967324321
 21
-248.9189779923247
 31
0.0
  0
LINE
  5
EE
330
3C
100
AcDbEntity
  8
1
  6
Continuous
 62
     3
100
AcDbLine
 10
556.1557771577783
 20
-249.6403028577301
 30
0.0
 11
555.0714967324321
 21
-249.6403028577301
 31
0.0
  0
LINE
  5
EF
330
3C
100
AcDbEntity
  8
1
  6
Continuous
 62
     3
100
AcDbLine
 10
556.1557771577783
 20
-249.6403028577301
 30
0.0
 11
556.1557771577783
 21
-258.6303028577301
 31
0.0
  0
LINE
  5
F0
330
3C
100
AcDbEntity
  8
1
  6
Continuous
 62
     3
100
AcDbLine
 10
555.0714967324321
 20
-249.6403028577301
 30
0.0
 11
555.0714967324321
 21
-248.9189779923247
 31
0.0
  0
LINE
  5
F1
330
3C
100
AcDbEntity
  8
1
  6
Continuous
 62
     3
100
AcDbLine
 10
564.5714967324321
 20
-249.6403028577301
 30
0.0
 11
563.4872163070859
 21
-249.6403028577301
 31
0.0
  0
LINE
  5
F2
330
3C
100
AcDbEntity
  8
1
  6
Continuous
 62
     3
100
AcDbLine
 10
564.5714967324321
 20
-249.6403028577301
 30
0.0
 11
564.5714967324323
 21
-250.13030285773
 31
0.0
  0
LINE
  5
F3
330
3C
100
AcDbEntity
  8
1
  6
Continuous
 62
     1
100
AcDbLine
 10
563.4872163070859
 20
-249.6403028577301
 30
0.0
 11
556.1557771577783
 21
-258.6303028577301
 31
0.0
  0
LINE
  5
F4
330
3C
100
AcDbEntity
  8
1
  6
Continuous
 62
     3
100
AcDbLine
 10
556.1557771577783
 20
-258.6303028577301
 30
0.0
 11
555.0714967324321
 21
-258.6303028577301
 31
0.0
  0
LINE
  5
F5
330
3C
100
AcDbEntity
  8
1
  6
Continuous
 62
     1
100
AcDbLine
 10
563.4872163070859
 20
-258.6303028577301
 30
0.0
 11
556.1557771577783
 21
-249.6403028577301
 31
0.0
  0
LINE
  5
F6
330
3C
100
AcDbEntity
  8
1
  6
Continuous
 62
     3
100
AcDbLine
 10
563.4872163070859
 20
-258.6303028577301
 30
0.0
 11
556.1557771577783
 21
-258.6303028577301
 31
0.0
  0
LINE
  5
F7
330
3C
100
AcDbEntity
  8
1
  6
Continuous
 62
     3
100
AcDbLine
 10
380.3156882932309
 20
-258.6303028577301
 30
0.0
 11
372.9842491439233
 21
-258.6303028577301
 31
0.0
  0
LINE
  5
F8
330
3C
100
AcDbEntity
  8
1
  6
Continuous
 62
     1
100
AcDbLine
 10
380.3156882932309
 20
-258.6303028577301
 30
0.0
 11
372.9842491439233
 21
-249.6403028577301
 31
0.0
  0
LINE
  5
F9
330
3C
100
AcDbEntity
  8
1
  6
Continuous
 62
     3
100
AcDbLine
 10
372.9842491439233
 20
-258.6303028577301
 30
0.0
 11
371.8999687185771
 21
-258.6303028577301
 31
0.0
  0
LINE
  5
FA
330
3C
100
AcDbEntity
  8
1
  6
Continuous
 62
     1
100
AcDbLine
 10
380.3156882932309
 20
-249.6403028577301
 30
0.0
 11
372.9842491439233
 21
-258.6303028577301
 31
0.0
  0
LINE
  5
FB
330
3C
100
AcDbEntity
  8
1
  6
Continuous
 62
     3
100
AcDbLine
 10
381.3999687185771
 20
-249.6403028577301
 30
0.0
 11
381.3999687185772
 21
-250.13030285773
 31
0.0
  0
LINE
  5
FC
330
3C
100
AcDbEntity
  8
1
  6
Continuous
 62
     3
100
AcDbLine
 10
381.3999687185771
 20
-249.6403028577301
 30
0.0
 11
380.3156882932309
 21
-249.6403028577301
 31
0.0
  0
LINE
  5
FD
330
3C
100
AcDbEntity
  8
1
  6
Continuous
 62
     3
100
AcDbLine
 10
371.8999687185771
 20
-249.6403028577301
 30
0.0
 11
371.8999687185771
 21
-248.9189779923247
 31
0.0
  0
LINE
  5
FE
330
3C
100
AcDbEntity
  8
1
  6
Continuous
 62
     3
100
AcDbLine
 10
372.9842491439233
 20
-249.6403028577301
 30
0.0
 11
372.9842491439233
 21
-258.6303028577301
 31
0.0
  0
LINE
  5
FF
330
3C
100
AcDbEntity
  8
1
  6
Continuous
 62
     3
100
AcDbLine
 10
372.9842491439233
 20
-249.6403028577301
 30
0.0
 11
371.8999687185771
 21
-249.6403028577301
 31
0.0
  0
LINE
  5
100
330
3C
100
AcDbEntity
  8
1
  6
Continuous
 62
     3
100
AcDbLine
 10
372.3999687185771
 20
-248.63030285773
 30
0.0
 11
371.8999687185771
 21
-248.9189779923247
 31
0.0
  0
LINE
  5
101
330
3C
100
AcDbEntity
  8
1
  6
Continuous
 62
     3
100
AcDbLine
 10
381.3999687185772
 20
-248.9189779923247
 30
0.0
 11
380.8999687185771
 21
-248.63030285773
 31
0.0
  0
LINE
  5
102
330
3C
100
AcDbEntity
  8
1
  6
Continuous
 62
     3
100
AcDbLine
 10
371.8999687185771
 20
-258.6303028577301
 30
0.0
 11
371.8999687185771
 21
-249.6403028577301
 31
0.0
  0
LINE
  5
103
330
3C
100
AcDbEntity
  8
1
  6
Continuous
 62
     3
100
AcDbLine
 10
380.3156882932309
 20
-258.6303028577301
 30
0.0
 11
380.3156882932309
 21
-249.6403028577301
 31
0.0
  0
LINE
  5
104
330
3C
100
AcDbEntity
  8
1
  6
Continuous
 62
     3
100
AcDbLine
 10
380.8999687185771
 20
-248.63030285773
 30
0.0
 11
372.3999687185771
 21
-248.63030285773
 31
0.0
  0
LINE
  5
105
330
3C
100
AcDbEntity
  8
1
  6
Continuous
 62
     3
100
AcDbLine
 10
381.3999687185772
 20
-248.9189779923247
 30
0.0
 11
381.3999687185771
 21
-249.6403028577301
 31
0.0
  0
LINE
  5
106
330
3C
100
AcDbEntity
  8
1
  6
Continuous
 62
     3
100
AcDbLine
 10
382.6499687185771
 20
-258.6303028577301
 30
0.0
 11
381.3999687185771
 21
-258.6303028577301
 31
0.0
  0
LINE
  5
107
330
3C
100
AcDbEntity
  8
1
  6
Continuous
 62
     3
100
AcDbLine
 10
381.3999687185771
 20
-258.6303028577301
 30
0.0
 11
380.3156882932309
 21
-258.6303028577301
 31
0.0
  0
LINE
  5
108
330
3C
100
AcDbEntity
  8
1
  6
Continuous
 62
     3
100
AcDbLine
 10
371.8999687185771
 20
-258.6303028577301
 30
0.0
 11
370.6499687185771
 21
-258.6303028577301
 31
0.0
  0
LINE
  5
109
330
3C
100
AcDbEntity
  8
1
  6
Continuous
 62
     3
100
AcDbLine
 10
381.3999687185772
 20
-250.13030285773
 30
0.0
 11
381.3999687185771
 21
-258.6303028577301
 31
0.0
  0
LINE
  5
10A
330
3C
100
AcDbEntity
  8
1
  6
Continuous
 62
     3
100
AcDbLine
 10
382.6499687185771
 20
-258.6303028577301
 30
0.0
 11
382.6499687185771
 21
-262.13030285773
 31
0.0
  0
LINE
  5
10B
330
3C
100
AcDbEntity
  8
1
  6
Continuous
 62
     3
100
AcDbLine
 10
370.6499687185771
 20
-258.6303028577301
 30
0.0
 11
370.6499687185772
 21
-262.13030285773
 31
0.0
  0
LINE
  5
10C
330
3C
100
AcDbEntity
  8
1
  6
Continuous
 62
     3
100
AcDbLine
 10
476.3999687185771
 20
-250.13030285773
 30
0.0
 11
476.399968718577
 21
-258.6303028577301
 31
0.0
  0
LINE
  5
10D
330
3C
100
AcDbEntity
  8
1
  6
Continuous
 62
     3
100
AcDbLine
 10
476.399968718577
 20
-258.6303028577301
 30
0.0
 11
475.3156882932307
 21
-258.6303028577301
 31
0.0
  0
LINE
  5
10E
330
3C
100
AcDbEntity
  8
1
  6
Continuous
 62
     3
100
AcDbLine
 10
477.649968718577
 20
-258.6303028577301
 30
0.0
 11
476.399968718577
 21
-258.6303028577301
 31
0.0
  0
LINE
  5
10F
330
3C
100
AcDbEntity
  8
1
  6
Continuous
 62
     3
100
AcDbLine
 10
476.3999687185771
 20
-248.9189779923247
 30
0.0
 11
476.399968718577
 21
-249.6403028577301
 31
0.0
  0
LINE
  5
110
330
3C
100
AcDbEntity
  8
1
  6
Continuous
 62
     3
100
AcDbLine
 10
475.899968718577
 20
-248.63030285773
 30
0.0
 11
467.399968718577
 21
-248.63030285773
 31
0.0
  0
LINE
  5
111
330
3C
100
AcDbEntity
  8
1
  6
Continuous
 62
     3
100
AcDbLine
 10
475.3156882932307
 20
-258.6303028577301
 30
0.0
 11
475.3156882932307
 21
-249.6403028577301
 31
0.0
  0
LINE
  5
112
330
3C
100
AcDbEntity
  8
1
  6
Continuous
 62
     3
100
AcDbLine
 10
466.899968718577
 20
-258.6303028577301
 30
0.0
 11
466.899968718577
 21
-249.6403028577301
 31
0.0
  0
LINE
  5
113
330
3C
100
AcDbEntity
  8
1
  6
Continuous
 62
     3
100
AcDbLine
 10
476.3999687185771
 20
-248.9189779923247
 30
0.0
 11
475.899968718577
 21
-248.63030285773
 31
0.0
  0
LINE
  5
114
330
3C
100
AcDbEntity
  8
1
  6
Continuous
 62
     3
100
AcDbLine
 10
467.399968718577
 20
-248.63030285773
 30
0.0
 11
466.899968718577
 21
-248.9189779923247
 31
0.0
  0
LINE
  5
115
330
3C
100
AcDbEntity
  8
1
  6
Continuous
 62
     3
100
AcDbLine
 10
467.9842491439231
 20
-249.6403028577301
 30
0.0
 11
466.899968718577
 21
-249.6403028577301
 31
0.0
  0
LINE
  5
116
330
3C
100
AcDbEntity
  8
1
  6
Continuous
 62
     3
100
AcDbLine
 10
467.9842491439231
 20
-249.6403028577301
 30
0.0
 11
467.9842491439231
 21
-258.6303028577301
 31
0.0
  0
LINE
  5
117
330
3C
100
AcDbEntity
  8
1
  6
Continuous
 62
     3
100
AcDbLine
 10
466.899968718577
 20
-249.6403028577301
 30
0.0
 11
466.899968718577
 21
-248.9189779923247
 31
0.0
  0
LINE
  5
118
330
3C
100
AcDbEntity
  8
1
  6
Continuous
 62
     3
100
AcDbLine
 10
476.399968718577
 20
-249.6403028577301
 30
0.0
 11
475.3156882932307
 21
-249.6403028577301
 31
0.0
  0
LINE
  5
119
330
3C
100
AcDbEntity
  8
1
  6
Continuous
 62
     3
100
AcDbLine
 10
476.399968718577
 20
-249.6403028577301
 30
0.0
 11
476.3999687185771
 21
-250.13030285773
 31
0.0
  0
LINE
  5
11A
330
3C
100
AcDbEntity
  8
1
  6
Continuous
 62
     1
100
AcDbLine
 10
475.3156882932307
 20
-249.6403028577301
 30
0.0
 11
467.9842491439231
 21
-258.6303028577301
 31
0.0
  0
LINE
  5
11B
330
3C
100
AcDbEntity
  8
1
  6
Continuous
 62
     3
100
AcDbLine
 10
467.9842491439231
 20
-258.6303028577301
 30
0.0
 11
466.899968718577
 21
-258.6303028577301
 31
0.0
  0
LINE
  5
11C
330
3C
100
AcDbEntity
  8
1
  6
Continuous
 62
     1
100
AcDbLine
 10
475.3156882932307
 20
-258.6303028577301
 30
0.0
 11
467.9842491439231
 21
-249.6403028577301
 31
0.0
  0
LINE
  5
11D
330
3C
100
AcDbEntity
  8
1
  6
Continuous
 62
     3
100
AcDbLine
 10
475.3156882932307
 20
-258.6303028577301
 30
0.0
 11
467.9842491439231
 21
-258.6303028577301
 31
0.0
  0
LINE
  5
11E
330
3C
100
AcDbEntity
  8
1
  6
Continuous
 62
     3
100
AcDbLine
 10
477.649968718577
 20
-258.6303028577301
 30
0.0
 11
477.649968718577
 21
-262.13030285773
 31
0.0
  0
LINE
  5
11F
330
3C
100
AcDbEntity
  8
1
  6
Continuous
 62
     3
100
AcDbLine
 10
465.649968718577
 20
-258.6303028577301
 30
0.0
 11
465.6499687185771
 21
-262.13030285773
 31
0.0
  0
LINE
  5
120
330
3C
100
AcDbEntity
  8
1
  6
Continuous
 62
     3
100
AcDbLine
 10
466.899968718577
 20
-258.6303028577301
 30
0.0
 11
465.649968718577
 21
-258.6303028577301
 31
0.0
  0
LINE
  5
121
330
3C
100
AcDbEntity
  8
1
  6
Continuous
 62
     3
100
AcDbLine
 10
653.9808047329667
 20
-258.6303028577301
 30
0.0
 11
646.6493655836591
 21
-258.6303028577301
 31
0.0
  0
LINE
  5
122
330
3C
100
AcDbEntity
  8
1
  6
Continuous
 62
     1
100
AcDbLine
 10
653.9808047329667
 20
-249.6403028577301
 30
0.0
 11
646.6493655836591
 21
-258.6303028577301
 31
0.0
  0
LINE
  5
123
330
3C
100
AcDbEntity
  8
1
  6
Continuous
 62
     3
100
AcDbLine
 10
655.065085158313
 20
-258.6303028577301
 30
0.0
 11
653.9808047329667
 21
-258.6303028577301
 31
0.0
  0
LINE
  5
124
330
3C
100
AcDbEntity
  8
1
  6
Continuous
 62
     1
100
AcDbLine
 10
653.9808047329667
 20
-258.6303028577301
 30
0.0
 11
646.6493655836591
 21
-249.6403028577301
 31
0.0
  0
LINE
  5
125
330
3C
100
AcDbEntity
  8
1
  6
Continuous
 62
     3
100
AcDbLine
 10
645.565085158313
 20
-250.13030285773
 30
0.0
 11
645.565085158313
 21
-249.6403028577301
 31
0.0
  0
LINE
  5
126
330
3C
100
AcDbEntity
  8
1
  6
Continuous
 62
     3
100
AcDbLine
 10
646.6493655836591
 20
-249.6403028577301
 30
0.0
 11
645.565085158313
 21
-249.6403028577301
 31
0.0
  0
LINE
  5
127
330
3C
100
AcDbEntity
  8
1
  6
Continuous
 62
     3
100
AcDbLine
 10
655.065085158313
 20
-248.9189779923247
 30
0.0
 11
655.065085158313
 21
-249.6403028577301
 31
0.0
  0
LINE
  5
128
330
3C
100
AcDbEntity
  8
1
  6
Continuous
 62
     3
100
AcDbLine
 10
653.9808047329667
 20
-258.6303028577301
 30
0.0
 11
653.9808047329667
 21
-249.6403028577301
 31
0.0
  0
LINE
  5
129
330
3C
100
AcDbEntity
  8
1
  6
Continuous
 62
     3
100
AcDbLine
 10
655.065085158313
 20
-249.6403028577301
 30
0.0
 11
653.9808047329667
 21
-249.6403028577301
 31
0.0
  0
LINE
  5
12A
330
3C
100
AcDbEntity
  8
1
  6
Continuous
 62
     3
100
AcDbLine
 10
655.065085158313
 20
-248.9189779923247
 30
0.0
 11
654.565085158313
 21
-248.63030285773
 31
0.0
  0
LINE
  5
12B
330
3C
100
AcDbEntity
  8
1
  6
Continuous
 62
     3
100
AcDbLine
 10
646.065085158313
 20
-248.63030285773
 30
0.0
 11
645.565085158313
 21
-248.9189779923247
 31
0.0
  0
LINE
  5
12C
330
3C
100
AcDbEntity
  8
1
  6
Continuous
 62
     3
100
AcDbLine
 10
655.065085158313
 20
-249.6403028577301
 30
0.0
 11
655.065085158313
 21
-258.6303028577301
 31
0.0
  0
LINE
  5
12D
330
3C
100
AcDbEntity
  8
1
  6
Continuous
 62
     3
100
AcDbLine
 10
646.6493655836591
 20
-249.6403028577301
 30
0.0
 11
646.6493655836591
 21
-258.6303028577301
 31
0.0
  0
LINE
  5
12E
330
3C
100
AcDbEntity
  8
1
  6
Continuous
 62
     3
100
AcDbLine
 10
654.565085158313
 20
-248.63030285773
 30
0.0
 11
646.065085158313
 21
-248.63030285773
 31
0.0
  0
LINE
  5
12F
330
3C
100
AcDbEntity
  8
1
  6
Continuous
 62
     3
100
AcDbLine
 10
645.565085158313
 20
-249.6403028577301
 30
0.0
 11
645.565085158313
 21
-248.9189779923247
 31
0.0
  0
LINE
  5
130
330
3C
100
AcDbEntity
  8
1
  6
Continuous
 62
     3
100
AcDbLine
 10
646.6493655836591
 20
-258.6303028577301
 30
0.0
 11
645.565085158313
 21
-258.6303028577301
 31
0.0
  0
LINE
  5
131
330
3C
100
AcDbEntity
  8
1
  6
Continuous
 62
     3
100
AcDbLine
 10
645.565085158313
 20
-258.6303028577301
 30
0.0
 11
645.565085158313
 21
-250.13030285773
 31
0.0
  0
LINE
  5
132
330
3C
100
AcDbEntity
  8
1
  6
Continuous
 62
     3
100
AcDbLine
 10
656.315085158313
 20
-262.13030285773
 30
0.0
 11
656.315085158313
 21
-258.6303028577301
 31
0.0
  0
LINE
  5
133
330
3C
100
AcDbEntity
  8
1
  6
Continuous
 62
     3
100
AcDbLine
 10
656.315085158313
 20
-258.6303028577301
 30
0.0
 11
655.065085158313
 21
-258.6303028577301
 31
0.0
  0
LINE
  5
134
330
3C
100
AcDbEntity
  8
1
  6
Continuous
 62
     3
100
AcDbLine
 10
645.565085158313
 20
-258.6303028577301
 30
0.0
 11
644.315085158313
 21
-258.6303028577301
 31
0.0
  0
LINE
  5
135
330
3C
100
AcDbEntity
  8
1
  6
Continuous
 62
     3
100
AcDbLine
 10
644.315085158313
 20
-262.13030285773
 30
0.0
 11
644.315085158313
 21
-258.6303028577301
 31
0.0
  0
LINE
  5
136
330
3C
100
AcDbEntity
  8
1
  6
Continuous
 62
     3
100
AcDbLine
 10
467.9842491439231
 20
-193.88030285773
 30
0.0
 11
475.3156882932306
 21
-193.88030285773
 31
0.0
  0
LINE
  5
137
330
3C
100
AcDbEntity
  8
1
  6
Continuous
 62
     3
100
AcDbLine
 10
475.3156882932306
 20
-203.38030285773
 30
0.0
 11
467.9842491439231
 21
-203.38030285773
 31
0.0
  0
LINE
  5
138
330
3C
100
AcDbEntity
  8
1
  6
Continuous
 62
     3
100
AcDbLine
 10
476.399968718577
 20
-194.9645832830761
 30
0.0
 11
476.399968718577
 21
-197.63030285773
 31
0.0
  0
LINE
  5
139
330
3C
100
AcDbEntity
  8
1
  6
Continuous
 62
     3
100
AcDbLine
 10
466.899968718577
 20
-202.2960224323838
 30
0.0
 11
466.899968718577
 21
-194.9645832830761
 31
0.0
  0
LINE
  5
13A
330
3C
100
AcDbEntity
  8
1
  6
Continuous
 62
     3
100
AcDbLine
 10
476.399968718577
 20
-197.63030285773
 30
0.0
 11
476.399968718577
 21
-202.2960224323838
 31
0.0
  0
ARC
  5
13B
330
3C
100
AcDbEntity
  8
1
  6
Continuous
 62
     3
100
AcDbCircle
 10
559.8214967324321
 20
-258.5940981988155
 30
0.0
 40
9.675120206490595
100
AcDbArc
 50
67.73561128814158
 51
112.2643887118591
  0
ARC
  5
13C
330
3C
100
AcDbEntity
  8
1
  6
Continuous
 62
     3
100
AcDbCircle
 10
376.6499687185771
 20
-258.5940981988155
 30
0.0
 40
9.675120206490616
100
AcDbArc
 50
67.73561128814127
 51
112.2643887118587
  0
ARC
  5
13D
330
3C
100
AcDbEntity
  8
1
  6
Continuous
 62
     3
100
AcDbCircle
 10
471.649968718577
 20
-258.5940981988155
 30
0.0
 40
9.675120206490595
100
AcDbArc
 50
67.73561128814158
 51
112.2643887118594
  0
ARC
  5
13E
330
3C
100
AcDbEntity
  8
1
  6
Continuous
 62
     3
100
AcDbCircle
 10
650.315085158313
 20
-258.5940981988155
 30
0.0
 40
9.675120206490595
100
AcDbArc
 50
67.73561128814158
 51
112.2643887118591
  0
CIRCLE
  5
13F
330
3C
100
AcDbEntity
  8
1
  6
Continuous
 62
     3
100
AcDbCircle
 10
471.649968718577
 20
-198.63030285773
 30
0.0
 40
4.250000000000171
  0
CIRCLE
  5
140
330
3C
100
AcDbEntity
  8
1
  6
Continuous
 62
     3
100
AcDbCircle
 10
471.649968718577
 20
-198.63030285773
 30
0.0
 40
6.000000000000015
  0
ENDBLK
  5
3E
330
3C
100
AcDbEntity
  8
0
100
AcDbBlockEnd
  0
BLOCK
  5
40
330
3F
100
AcDbEntity
  8
0
100
AcDbBlockBegin
  2
TOP
 70
     0
 71
     0
 10
371.772968345943
 20
-1216.62614457102
 30
0.0
  3
TOP
  1

  0
POINT
  5
141
330
3F
100
AcDbEntity
  8
1
 62
     3
 60
     1
100
AcDbPoint
 10
564.4104846645847
 20
-1277.882332624415
 30
0.0
  0
POINT
  5
142
330
3F
100
AcDbEntity
  8
1
 62
     3
 60
     1
100
AcDbPoint
 10
564.4104846645847
 20
-1301.882332624415
 30
0.0
  0
LINE
  5
143
330
3F
100
AcDbEntity
  8
1
  6
DASH_CENTER
 62
     1
100
AcDbLine
 10
487.249968718577
 20
-198.63030285773
 30
0.0
 11
456.049968718577
 21
-198.63030285773
 31
0.0
  0
LINE
  5
144
330
3F
100
AcDbEntity
  8
1
  6
DASH_CENTER
 62
     1
100
AcDbLine
 10
471.649968718577
 20
-214.23030285773
 30
0.0
 11
471.649968718577
 21
-183.0303028577301
 31
0.0
  0
LINE
  5
145
330
3F
100
AcDbEntity
  8
6_ALL_DRFT_GEOM
  6
Continuous
 62
     3
100
AcDbLine
 10
471.6499687185769
 20
-206.1303028577299
 30
0.0
 11
471.6499687185769
 21
-211.03030285773
 31
0.0
  0
LINE
  5
146
330
3F
100
AcDbEntity
  8
6_ALL_DRFT_GEOM
  6
Continuous
 62
     3
100
AcDbLine
 10
484.049968718577
 20
-198.63030285773
 30
0.0
 11
479.1499687185769
 21
-198.63030285773
 31
0.0
  0
LINE
  5
147
330
3F
100
AcDbEntity
  8
6_ALL_DRFT_GEOM
  6
Continuous
 62
     3
100
AcDbLine
 10
469.1499687185769
 20
-200.63030285773
 30
0.0
 11
469.1499687185769
 21
-196.63030285773
 31
0.0
  0
LINE
  5
148
330
3F
100
AcDbEntity
  8
6_ALL_DRFT_GEOM
  6
Continuous
 62
     3
100
AcDbLine
 10
469.1499687185769
 20
-196.63030285773
 30
0.0
 11
475.1499687185769
 21
-198.63030285773
 31
0.0
  0
LINE
  5
149
330
3F
100
AcDbEntity
  8
6_ALL_DRFT_GEOM
  6
Continuous
 62
     3
100
AcDbLine
 10
475.1499687185769
 20
-198.63030285773
 30
0.0
 11
469.1499687185769
 21
-200.63030285773
 31
0.0
  0
ARC
  5
14A
330
3F
100
AcDbEntity
  8
6_ALL_DRFT_GEOM
  6
Continuous
 62
     3
100
AcDbCircle
 10
471.649968718577
 20
-198.63030285773
 30
0.0
 40
7.499999999999915
100
AcDbArc
 50
-90.00000000000088
 51
0.0
  0
ARC
  5
14B
330
3F
100
AcDbEntity
  8
1
  6
Continuous
 62
     3
100
AcDbCircle
 10
474.2831860175638
 20
-196.4832221253884
 30
0.0
 40
9.999999999999931
100
AcDbArc
 50
-105.2672535353402
 51
-12.39840117245525
  0
CIRCLE
  5
14C
330
3F
100
AcDbEntity
  8
1
  6
Continuous
 62
     3
100
AcDbCircle
 10
471.649968718577
 20
-198.63030285773
 30
0.0
 40
13.0
  0
LWPOLYLINE
  5
14D
330
3F
100
AcDbEntity
  8
6_ALL_DRFT_GEOM
  6
Continuous
 62
     3
 60
     1
100
AcDbPolyline
 90
        4
 70
     0
 43
0.0
 10
469.1499687906769
 20
-196.63030285773
 10
469.1499687906769
 20
-200.63030285773
 10
475.1499687185769
 20
-198.63030285773
 10
469.1499687906769
 20
-196.63030285773
  0
MTEXT
  5
14F
330
3F
100
AcDbEntity
  8
0
 62
     3
100
AcDbMText
 10
479.0161471273768
 20
-191.74134315833
 30
0.0
 40
3.0
 41
0.0
 71
     7
 72
     1
  1
100
  7
CONVERTER_1
 11
0.0
 21
-1.0
 31
0.0
 73
     1
 44
0.60024009603842
  0
MTEXT
  5
150
330
3F
100
AcDbEntity
  8
0
 62
     3
100
AcDbMText
 10
470.7785748182769
 20
-207.49873917363
 30
0.0
 40
3.0
 41
0.0
 71
     7
 72
     1
  1
0
  7
CONVERTER_1
 11
-1.0
 21
1.836909530733566E-16
 31
0.0
 73
     1
 44
0.60024009603842
  0
ENDBLK
  5
41
330
3F
100
AcDbEntity
  8
0
100
AcDbBlockEnd
  0
ENDSEC
  0
SECTION
  2
ENTITIES
  0
INSERT
  5
42
330
1F
100
AcDbEntity
  8
1
100
AcDbBlockReference
  2
_6
 10
491.649968718577
 20
-343.63030285773
 30
0.0
  0
INSERT
  5
43
330
1F
100
AcDbEntity
  8
0
100
AcDbBlockReference
  2
Top__1
 10
1265.868961413722
 20
-716.4957613204489
 30
0.0
  0
INSERT
  5
44
330
1F
100
AcDbEntity
  8
1
100
AcDbBlockReference
  2
_4
 10
334.9703936029752
 20
-273.63030285773
 30
0.0
  0
INSERT
  5
45
330
1F
100
AcDbEntity
  8
1
100
AcDbBlockReference
  2
_5
 10
342.880174469531
 20
-262.13030285773
 30
0.0
  0
INSERT
  5
46
330
1F
100
AcDbEntity
  8
0
100
AcDbBlockReference
  2
TOP
 10
371.772968345943
 20
-1216.62614457102
 30
0.0
  0
LINE
  5
151
330
1F
100
AcDbEntity
  8
1
  6
Continuous
 62
     3
100
AcDbLine
 10
557.8214967324321
 20
-278.13030285773
 30
0.0
 11
561.8214967324321
 21
-278.13030285773
 31
0.0
  0
LINE
  5
152
330
1F
100
AcDbEntity
  8
1
  6
Continuous
 62
     3
100
AcDbLine
 10
557.8214967324321
 20
-273.63030285773
 30
0.0
 11
559.821496732432
 21
-273.63030285773
 31
0.0
  0
LINE
  5
153
330
1F
100
AcDbEntity
  8
1
  6
Continuous
 62
     3
100
AcDbLine
 10
557.8214967324321
 20
-278.13030285773
 30
0.0
 11
557.8214967324321
 21
-273.63030285773
 31
0.0
  0
LINE
  5
154
330
1F
100
AcDbEntity
  8
1
  6
Continuous
 62
     3
100
AcDbLine
 10
561.8214967324321
 20
-278.13030285773
 30
0.0
 11
576.8214967324321
 21
-278.13030285773
 31
0.0
  0
LINE
  5
155
330
1F
100
AcDbEntity
  8
1
  6
Continuous
 62
     3
100
AcDbLine
 10
561.8214967324321
 20
-273.63030285773
 30
0.0
 11
559.821496732432
 21
-273.63030285773
 31
0.0
  0
LINE
  5
156
330
1F
100
AcDbEntity
  8
1
  6
Continuous
 62
     3
100
AcDbLine
 10
561.8214967324321
 20
-273.63030285773
 30
0.0
 11
561.8214967324321
 21
-278.13030285773
 31
0.0
  0
LINE
  5
157
330
1F
100
AcDbEntity
  8
1
  6
Continuous
 62
     3
100
AcDbLine
 10
576.3214967324321
 20
-343.63030285773
 30
0.0
 11
543.3214967324321
 21
-343.63030285773
 31
0.0
  0
LINE
  5
158
330
1F
100
AcDbEntity
  8
1
  6
Continuous
 62
     3
100
AcDbLine
 10
544.8709097102242
 20
-359.63030285773
 30
0.0
 11
574.772792862803
 21
-359.63030285773
 31
0.0
  0
LINE
  5
159
330
1F
100
AcDbEntity
  8
1
  6
Continuous
 62
     3
100
AcDbLine
 10
544.8375221362167
 20
-359.5431921578367
 30
0.0
 11
543.3214967324321
 21
-358.6679144828637
 31
0.0
  0
LINE
  5
15A
330
1F
100
AcDbEntity
  8
1
  6
Continuous
 62
     3
100
AcDbLine
 10
576.3214967324321
 20
-358.6679144828637
 30
0.0
 11
574.8054713286476
 21
-359.5431921578367
 31
0.0
  0
LINE
  5
15B
330
1F
100
AcDbEntity
  8
1
  6
Continuous
 62
     3
100
AcDbLine
 10
559.8214967324321
 20
-357.4714881353512
 30
0.0
 11
559.8214967324323
 21
-345.8364044728679
 31
0.0
  0
LINE
  5
15C
330
1F
100
AcDbEntity
  8
1
  6
Continuous
 62
     3
100
AcDbLine
 10
576.3214967324321
 20
-343.63030285773
 30
0.0
 11
576.3214967324321
 21
-358.6679144828637
 31
0.0
  0
LINE
  5
15D
330
1F
100
AcDbEntity
  8
1
  6
Continuous
 62
     3
100
AcDbLine
 10
574.6009014288693
 20
-340.6501443726947
 30
0.0
 11
576.3214967324321
 21
-343.63030285773
 31
0.0
  0
LINE
  5
15E
330
1F
100
AcDbEntity
  8
1
  6
Continuous
 62
     3
100
AcDbLine
 10
543.3375221362169
 20
-343.63030285773
 30
0.0
 11
543.3375221362169
 21
-358.681165580458
 31
0.0
  0
LINE
  5
15F
330
1F
100
AcDbEntity
  8
1
  6
Continuous
 62
     3
100
AcDbLine
 10
543.3214967324321
 20
-343.63030285773
 30
0.0
 11
545.0420920359951
 21
-340.6501443726947
 31
0.0
  0
LINE
  5
160
330
1F
100
AcDbEntity
  8
1
  6
Continuous
 62
     3
100
AcDbLine
 10
570.8214967324323
 20
-305.7417590377318
 30
0.0
 11
570.8214967324321
 21
-289.5032862039374
 31
0.0
  0
LINE
  5
161
330
1F
100
AcDbEntity
  8
1
  6
Continuous
 62
     3
100
AcDbLine
 10
548.8214967324321
 20
-289.5032862039374
 30
0.0
 11
548.8214967324323
 21
-305.7417590377315
 31
0.0
  0
LINE
  5
162
330
1F
100
AcDbEntity
  8
1
  6
Continuous
 62
     3
100
AcDbLine
 10
539.821496732432
 20
-273.63030285773
 30
0.0
 11
539.821496732432
 21
-277.13030285773
 31
0.0
  0
LINE
  5
163
330
1F
100
AcDbEntity
  8
1
  6
Continuous
 62
     3
100
AcDbLine
 10
579.8214967324321
 20
-273.63030285773
 30
0.0
 11
572.8214967324321
 21
-273.63030285773
 31
0.0
  0
LINE
  5
164
330
1F
100
AcDbEntity
  8
1
  6
Continuous
 62
     3
100
AcDbLine
 10
539.821496732432
 20
-273.63030285773
 30
0.0
 11
546.8214967324321
 21
-273.63030285773
 31
0.0
  0
LINE
  5
165
330
1F
100
AcDbEntity
  8
1
  6
Continuous
 62
     3
100
AcDbLine
 10
579.8214967324321
 20
-277.13030285773
 30
0.0
 11
579.8214967324321
 21
-273.63030285773
 31
0.0
  0
LINE
  5
166
330
1F
100
AcDbEntity
  8
1
  6
Continuous
 62
     3
100
AcDbLine
 10
576.8214967324321
 20
-278.13030285773
 30
0.0
 11
578.8214967324321
 21
-278.13030285773
 31
0.0
  0
LINE
  5
167
330
1F
100
AcDbEntity
  8
1
  6
Continuous
 62
     3
100
AcDbLine
 10
540.8214967324321
 20
-278.13030285773
 30
0.0
 11
542.8214967324321
 21
-278.13030285773
 31
0.0
  0
LINE
  5
168
330
1F
100
AcDbEntity
  8
1
  6
Continuous
 62
     3
100
AcDbLine
 10
542.8214967324321
 20
-278.13030285773
 30
0.0
 11
557.8214967324321
 21
-278.13030285773
 31
0.0
  0
LINE
  5
169
330
1F
100
AcDbEntity
  8
1
  6
Continuous
 62
     3
100
AcDbLine
 10
579.8214967324321
 20
-273.63030285773
 30
0.0
 11
561.8214967324321
 21
-273.63030285773
 31
0.0
  0
LINE
  5
16A
330
1F
100
AcDbEntity
  8
1
  6
Continuous
 62
     3
100
AcDbLine
 10
539.821496732432
 20
-273.63030285773
 30
0.0
 11
557.8214967324321
 21
-273.63030285773
 31
0.0
  0
LINE
  5
16B
330
1F
100
AcDbEntity
  8
1
  6
Continuous
 62
     3
100
AcDbLine
 10
547.3214967324321
 20
-287.5667945308336
 30
0.0
 11
572.3214967324321
 21
-287.5667945308336
 31
0.0
  0
LINE
  5
16C
330
1F
100
AcDbEntity
  8
1
  6
Continuous
 62
     3
100
AcDbLine
 10
545.8214967324321
 20
-281.13030285773
 30
0.0
 11
545.8214967324321
 21
-285.6303028577301
 31
0.0
  0
LINE
  5
16D
330
1F
100
AcDbEntity
  8
1
  6
Continuous
 62
     3
100
AcDbLine
 10
573.8214967324321
 20
-285.6303028577301
 30
0.0
 11
573.8214967324321
 21
-281.13030285773
 31
0.0
  0
LINE
  5
16E
330
1F
100
AcDbEntity
  8
1
  6
DOT_CENTER
 62
     1
100
AcDbLine
 10
559.8214967324321
 20
-245.63030285773
 30
0.0
 11
559.8214967324321
 21
-363.957158815897
 31
0.0
  0
LINE
  5
16F
330
1F
100
AcDbEntity
  8
1
  6
DOT_CENTER
 62
     1
100
AcDbLine
 10
537.114537748424
 20
-323.63030285773
 30
0.0
 11
583.315085158313
 21
-323.63030285773
 31
0.0
  0
LINE
  5
170
330
1F
100
AcDbEntity
  8
1
  6
Continuous
 62
     3
100
AcDbLine
 10
436.6499687185771
 20
-307.13030285773
 30
0.0
 11
437.5237663506728
 21
-305.63030285773
 31
0.0
  0
LINE
  5
171
330
1F
100
AcDbEntity
  8
1
  6
Continuous
 62
     3
100
AcDbLine
 10
491.6499687185771
 20
-343.5667945308337
 30
0.0
 11
491.6499687185771
 21
-343.63030285773
 31
0.0
  0
LINE
  5
172
330
1F
100
AcDbEntity
  8
1
  6
Continuous
 62
     3
100
AcDbLine
 10
491.6499687185771
 20
-304.88030285773
 30
0.0
 11
491.6499687185771
 21
-303.6938111846263
 31
0.0
  0
LINE
  5
173
330
1F
100
AcDbEntity
  8
1
  6
Continuous
 62
     3
100
AcDbLine
 10
491.6499687185771
 20
-303.63030285773
 30
0.0
 11
491.6499687185771
 21
-303.6938111846263
 31
0.0
  0
LINE
  5
174
330
1F
100
AcDbEntity
  8
1
  6
Continuous
 62
     3
100
AcDbLine
 10
630.315085158313
 20
-342.38030285773
 30
0.0
 11
630.315085158313
 21
-343.5667945308337
 31
0.0
  0
LINE
  5
175
330
1F
100
AcDbEntity
  8
1
  6
Continuous
 62
     3
100
AcDbLine
 10
630.315085158313
 20
-341.13030285773
 30
0.0
 11
630.315085158313
 21
-342.38030285773
 31
0.0
  0
LINE
  5
176
330
1F
100
AcDbEntity
  8
1
  6
Continuous
 62
     3
100
AcDbLine
 10
630.315085158313
 20
-343.63030285773
 30
0.0
 11
630.315085158313
 21
-343.5667945308337
 31
0.0
  0
LINE
  5
177
330
1F
100
AcDbEntity
  8
1
  6
Continuous
 62
     3
100
AcDbLine
 10
630.315085158313
 20
-340.93030285773
 30
0.0
 11
630.315085158313
 21
-341.13030285773
 31
0.0
  0
LINE
  5
178
330
1F
100
AcDbEntity
  8
1
  6
Continuous
 62
     3
100
AcDbLine
 10
630.315085158313
 20
-303.6938111846263
 30
0.0
 11
630.315085158313
 21
-303.63030285773
 31
0.0
  0
LINE
  5
179
330
1F
100
AcDbEntity
  8
1
  6
Continuous
 62
     3
100
AcDbLine
 10
630.315085158313
 20
-303.6938111846263
 30
0.0
 11
630.315085158313
 21
-304.88030285773
 31
0.0
  0
LINE
  5
17A
330
1F
100
AcDbEntity
  8
1
  6
Continuous
 62
     3
100
AcDbLine
 10
633.315085158313
 20
-320.13030285773
 30
0.0
 11
669.177027723122
 21
-320.13030285773
 31
0.0
  0
LINE
  5
17B
330
1F
100
AcDbEntity
  8
1
  6
Continuous
 62
     3
100
AcDbLine
 10
669.177027723122
 20
-327.13030285773
 30
0.0
 11
633.315085158313
 21
-327.13030285773
 31
0.0
  0
LINE
  5
17C
330
1F
100
AcDbEntity
  8
1
  6
PHANTOM
 62
     3
100
AcDbLine
 10
669.177027723122
 20
-320.13030285773
 30
0.0
 11
669.315085158313
 21
-320.13030285773
 31
0.0
  0
LINE
  5
17D
330
1F
100
AcDbEntity
  8
1
  6
Continuous
 62
     3
100
AcDbLine
 10
668.7923720510722
 20
-320.13030285773
 30
0.0
 11
668.7923720510722
 21
-307.4320914109045
 31
0.0
  0
LINE
  5
17E
330
1F
100
AcDbEntity
  8
1
  6
Continuous
 62
     3
100
AcDbLine
 10
668.7923720510722
 20
-340.3324914694648
 30
0.0
 11
668.7923720510722
 21
-327.13030285773
 31
0.0
  0
LINE
  5
17F
330
1F
100
AcDbEntity
  8
1
  6
PHANTOM
 62
     1
100
AcDbLine
 10
665.5150851583129
 20
-321.13030285773
 30
0.0
 11
668.5150851583129
 21
-321.13030285773
 31
0.0
  0
LINE
  5
180
330
1F
100
AcDbEntity
  8
1
  6
PHANTOM
 62
     1
100
AcDbLine
 10
668.5150851583129
 20
-321.13030285773
 30
0.0
 11
668.5150851583129
 21
-326.13030285773
 31
0.0
  0
LINE
  5
181
330
1F
100
AcDbEntity
  8
1
  6
PHANTOM
 62
     1
100
AcDbLine
 10
668.5150851583129
 20
-326.13030285773
 30
0.0
 11
665.5150851583129
 21
-326.13030285773
 31
0.0
  0
LINE
  5
182
330
1F
100
AcDbEntity
  8
1
  6
PHANTOM
 62
     1
100
AcDbLine
 10
665.5150851583129
 20
-326.13030285773
 30
0.0
 11
665.5150851583129
 21
-321.13030285773
 31
0.0
  0
LINE
  5
183
330
1F
100
AcDbEntity
  8
1
  6
Continuous
 62
     3
100
AcDbLine
 10
633.8311105620974
 20
-359.63030285773
 30
0.0
 11
666.815085158313
 21
-359.63030285773
 31
0.0
  0
LINE
  5
184
330
1F
100
AcDbEntity
  8
1
  6
Continuous
 62
     3
100
AcDbLine
 10
667.0906468743281
 20
-344.021589750489
 30
0.0
 11
667.0906468743281
 21
-342.3101244308133
 31
0.0
  0
LINE
  5
185
330
1F
100
AcDbEntity
  8
1
  6
Continuous
 62
     3
100
AcDbLine
 10
633.8311105620975
 20
-359.6291921578366
 30
0.0
 11
632.315085158313
 21
-358.7539144828636
 31
0.0
  0
LINE
  5
186
330
1F
100
AcDbEntity
  8
1
  6
Continuous
 62
     3
100
AcDbLine
 10
667.0906468743281
 20
-344.021589750489
 30
0.0
 11
668.315085158313
 21
-346.1423790690834
 31
0.0
  0
LINE
  5
187
330
1F
100
AcDbEntity
  8
1
  6
Continuous
 62
     3
100
AcDbLine
 10
633.3484457370549
 20
-344.38030285773
 30
0.0
 11
632.315085158313
 21
-346.1701358826498
 31
0.0
  0
LINE
  5
188
330
1F
100
AcDbEntity
  8
1
  6
Continuous
 62
     3
100
AcDbLine
 10
633.5555488460823
 20
-344.021589750489
 30
0.0
 11
667.0906468743281
 21
-344.021589750489
 31
0.0
  0
LINE
  5
189
330
1F
100
AcDbEntity
  8
1
  6
Continuous
 62
     3
100
AcDbLine
 10
640.7888057166841
 20
-346.9224044728677
 30
0.0
 11
640.7888057166841
 21
-357.5574881353512
 31
0.0
  0
LINE
  5
18A
330
1F
100
AcDbEntity
  8
1
  6
Continuous
 62
     3
100
AcDbLine
 10
659.8413645999418
 20
-347.0084044728678
 30
0.0
 11
659.8413645999418
 21
-357.6434881353511
 31
0.0
  0
LINE
  5
18B
330
1F
100
AcDbEntity
  8
1
  6
Continuous
 62
     3
100
AcDbLine
 10
668.315085158313
 20
-346.1423790690834
 30
0.0
 11
668.315085158313
 21
-358.7565052256341
 31
0.0
  0
LINE
  5
18C
330
1F
100
AcDbEntity
  8
1
  6
Continuous
 62
     3
100
AcDbLine
 10
668.315085158313
 20
-358.7565052256341
 30
0.0
 11
666.815085158313
 21
-359.63030285773
 31
0.0
  0
LINE
  5
18D
330
1F
100
AcDbEntity
  8
1
  6
Continuous
 62
     3
100
AcDbLine
 10
632.315085158313
 20
-346.1701358826498
 30
0.0
 11
632.315085158313
 21
-358.7539144828636
 31
0.0
  0
LINE
  5
18E
330
1F
100
AcDbEntity
  8
1
  6
DOT_CENTER
 62
     1
100
AcDbLine
 10
610.315085158313
 20
-323.63030285773
 30
0.0
 11
688.315085158313
 21
-323.63030285773
 31
0.0
  0
LINE
  5
18F
330
1F
100
AcDbEntity
  8
1
  6
Continuous
 62
     3
100
AcDbLine
 10
630.3150851583129
 20
-278.13030285773
 30
0.0
 11
631.315085158313
 21
-278.13030285773
 31
0.0
  0
LINE
  5
190
330
1F
100
AcDbEntity
  8
1
  6
Continuous
 62
     3
100
AcDbLine
 10
628.3150851583129
 20
-273.63030285773
 30
0.0
 11
628.3150851583129
 21
-276.13030285773
 31
0.0
  0
LINE
  5
191
330
1F
100
AcDbEntity
  8
1
  6
Continuous
 62
     3
100
AcDbLine
 10
630.3150851583129
 20
-273.63030285773
 30
0.0
 11
628.3150851583129
 21
-273.63030285773
 31
0.0
  0
LINE
  5
192
330
1F
100
AcDbEntity
  8
1
  6
Continuous
 62
     3
100
AcDbLine
 10
636.315085158313
 20
-281.13030285773
 30
0.0
 11
636.315085158313
 21
-285.6303028577301
 31
0.0
  0
LINE
  5
193
330
1F
100
AcDbEntity
  8
1
  6
Continuous
 62
     3
100
AcDbLine
 10
664.315085158313
 20
-285.6303028577301
 30
0.0
 11
664.315085158313
 21
-281.13030285773
 31
0.0
  0
LINE
  5
194
330
1F
100
AcDbEntity
  8
1
  6
Continuous
 62
     3
100
AcDbLine
 10
637.815085158313
 20
-287.5667945308336
 30
0.0
 11
662.815085158313
 21
-287.5667945308336
 31
0.0
  0
LINE
  5
195
330
1F
100
AcDbEntity
  8
1
  6
Continuous
 62
     3
100
AcDbLine
 10
650.3150851583129
 20
-273.63030285773
 30
0.0
 11
670.315085158313
 21
-273.63030285773
 31
0.0
  0
LINE
  5
196
330
1F
100
AcDbEntity
  8
1
  6
Continuous
 62
     3
100
AcDbLine
 10
650.3150851583129
 20
-273.63030285773
 30
0.0
 11
630.3150851583129
 21
-273.63030285773
 31
0.0
  0
LINE
  5
197
330
1F
100
AcDbEntity
  8
1
  6
Continuous
 62
     3
100
AcDbLine
 10
633.315085158313
 20
-278.13030285773
 30
0.0
 11
667.315085158313
 21
-278.13030285773
 31
0.0
  0
LINE
  5
198
330
1F
100
AcDbEntity
  8
1
  6
Continuous
 62
     3
100
AcDbLine
 10
634.815085158313
 20
-327.13030285773
 30
0.0
 11
634.815085158313
 21
-341.6164260185338
 31
0.0
  0
LINE
  5
199
330
1F
100
AcDbEntity
  8
1
  6
Continuous
 62
     3
100
AcDbLine
 10
633.315085158313
 20
-320.13030285773
 30
0.0
 11
633.315085158313
 21
-304.13030285773
 31
0.0
  0
LINE
  5
19A
330
1F
100
AcDbEntity
  8
1
  6
Continuous
 62
     3
100
AcDbLine
 10
638.892697732069
 20
-303.7332986341677
 30
0.0
 11
648.392697732069
 21
-303.7332986341677
 31
0.0
  0
LINE
  5
19B
330
1F
100
AcDbEntity
  8
1
  6
Continuous
 62
     3
100
AcDbLine
 10
651.5220295509162
 20
-303.8587366832648
 30
0.0
 11
660.5220295509162
 21
-304.8587366832648
 31
0.0
  0
LINE
  5
19C
330
1F
100
AcDbEntity
  8
1
  6
Continuous
 62
     3
100
AcDbLine
 10
634.815085158313
 20
-305.6303028577301
 30
0.0
 11
634.815085158313
 21
-320.13030285773
 31
0.0
  0
LINE
  5
19D
330
1F
100
AcDbEntity
  8
1
  6
Continuous
 62
     3
100
AcDbLine
 10
682.3743028633592
 20
-314.1040234161011
 30
0.0
 11
671.7791867734509
 21
-314.1040234161011
 31
0.0
  0
LINE
  5
19E
330
1F
100
AcDbEntity
  8
1
  6
Continuous
 62
     3
100
AcDbLine
 10
682.3743028633592
 20
-333.156582299359
 30
0.0
 11
671.7791867734509
 21
-333.1565822993588
 31
0.0
  0
LINE
  5
19F
330
1F
100
AcDbEntity
  8
1
  6
Continuous
 62
     3
100
AcDbLine
 10
633.315085158313
 20
-343.2950840217396
 30
0.0
 11
633.315085158313
 21
-327.13030285773
 31
0.0
  0
LINE
  5
1A0
330
1F
100
AcDbEntity
  8
1
  6
Continuous
 62
     3
100
AcDbLine
 10
632.9154330351627
 20
-343.63030285773
 30
0.0
 11
630.315085158313
 21
-343.63030285773
 31
0.0
  0
LINE
  5
1A1
330
1F
100
AcDbEntity
  8
1
  6
Continuous
 62
     3
100
AcDbLine
 10
683.3602652872334
 20
-341.63030285773
 30
0.0
 11
672.1731453352032
 21
-341.63030285773
 31
0.0
  0
LINE
  5
1A2
330
1F
100
AcDbEntity
  8
1
  6
Continuous
 62
     3
100
AcDbLine
 10
630.315085158313
 20
-304.88030285773
 30
0.0
 11
630.315085158313
 21
-340.93030285773
 31
0.0
  0
LINE
  5
1A3
330
1F
100
AcDbEntity
  8
1
  6
Continuous
 62
     3
100
AcDbLine
 10
667.315085158313
 20
-278.13030285773
 30
0.0
 11
669.315085158313
 21
-278.13030285773
 31
0.0
  0
LINE
  5
1A4
330
1F
100
AcDbEntity
  8
1
  6
Continuous
 62
     3
100
AcDbLine
 10
631.315085158313
 20
-278.13030285773
 30
0.0
 11
633.315085158313
 21
-278.13030285773
 31
0.0
  0
LINE
  5
1A5
330
1F
100
AcDbEntity
  8
1
  6
Continuous
 62
     3
100
AcDbLine
 10
630.3150851583129
 20
-273.63030285773
 30
0.0
 11
630.3150851583129
 21
-277.13030285773
 31
0.0
  0
LINE
  5
1A6
330
1F
100
AcDbEntity
  8
1
  6
Continuous
 62
     3
100
AcDbLine
 10
639.315085158313
 20
-289.5032862039374
 30
0.0
 11
639.315085158313
 21
-299.63030285773
 31
0.0
  0
LINE
  5
1A7
330
1F
100
AcDbEntity
  8
1
  6
Continuous
 62
     3
100
AcDbLine
 10
661.315085158313
 20
-302.6424997938916
 30
0.0
 11
661.315085158313
 21
-289.5032862039374
 31
0.0
  0
LINE
  5
1A8
330
1F
100
AcDbEntity
  8
1
  6
Continuous
 62
     3
100
AcDbLine
 10
663.315085158313
 20
-273.63030285773
 30
0.0
 11
670.315085158313
 21
-273.63030285773
 31
0.0
  0
LINE
  5
1A9
330
1F
100
AcDbEntity
  8
1
  6
Continuous
 62
     3
100
AcDbLine
 10
637.315085158313
 20
-273.63030285773
 30
0.0
 11
630.3150851583129
 21
-273.63030285773
 31
0.0
  0
LINE
  5
1AA
330
1F
100
AcDbEntity
  8
1
  6
Continuous
 62
     3
100
AcDbLine
 10
685.315085158313
 20
-340.13030285773
 30
0.0
 11
684.4412875262173
 21
-341.63030285773
 31
0.0
  0
LINE
  5
1AB
330
1F
100
AcDbEntity
  8
1
  6
Continuous
 62
     3
100
AcDbLine
 10
684.4412875262173
 20
-341.63030285773
 30
0.0
 11
671.9131613696663
 21
-341.63030285773
 31
0.0
  0
LINE
  5
1AC
330
1F
100
AcDbEntity
  8
1
  6
Continuous
 62
     3
100
AcDbLine
 10
668.8570131310722
 20
-307.3947708659658
 30
0.0
 11
671.9131613696661
 21
-305.6303028577301
 31
0.0
  0
LINE
  5
1AD
330
1F
100
AcDbEntity
  8
1
  6
Continuous
 62
     3
100
AcDbLine
 10
671.9131613696661
 20
-305.6303028577301
 30
0.0
 11
684.4386967834466
 21
-305.6303028577301
 31
0.0
  0
LINE
  5
1AE
330
1F
100
AcDbEntity
  8
1
  6
Continuous
 62
     3
100
AcDbLine
 10
634.7922631869718
 20
-304.607480886389
 30
0.0
 11
633.815085158313
 21
-303.63030285773
 31
0.0
  0
LINE
  5
1AF
330
1F
100
AcDbEntity
  8
1
  6
Continuous
 62
     3
100
AcDbLine
 10
671.9131613696663
 20
-341.63030285773
 30
0.0
 11
670.0906468743281
 21
-340.5780736232445
 31
0.0
  0
LINE
  5
1B0
330
1F
100
AcDbEntity
  8
1
  6
Continuous
 62
     3
100
AcDbLine
 10
684.4386967834466
 20
-305.6303028577301
 30
0.0
 11
685.3139744584199
 21
-307.1463282615145
 31
0.0
  0
LINE
  5
1B1
330
1F
100
AcDbEntity
  8
1
  6
Continuous
 62
     3
100
AcDbLine
 10
685.315085158313
 20
-340.1142774539456
 30
0.0
 11
685.315085158313
 21
-307.148252050161
 31
0.0
  0
LINE
  5
1B2
330
1F
100
AcDbEntity
  8
1
  6
Continuous
 62
     3
100
AcDbLine
 10
630.315085158313
 20
-303.63030285773
 30
0.0
 11
633.815085158313
 21
-303.63030285773
 31
0.0
  0
LINE
  5
1B3
330
1F
100
AcDbEntity
  8
1
  6
DOT_CENTER
 62
     1
100
AcDbLine
 10
650.315085158313
 20
-245.63030285773
 30
0.0
 11
650.315085158313
 21
-362.6303028577299
 31
0.0
  0
LINE
  5
1B4
330
1F
100
AcDbEntity
  8
1
  6
Continuous
 62
     3
100
AcDbLine
 10
670.315085158313
 20
-277.13030285773
 30
0.0
 11
670.315085158313
 21
-273.63030285773
 31
0.0
  0
LINE
  5
1B5
330
1F
100
AcDbEntity
  8
1
  6
Continuous
 62
     3
100
AcDbLine
 10
451.6499687185769
 20
-273.63030285773
 30
0.0
 11
451.6499687185769
 21
-277.13030285773
 31
0.0
  0
LINE
  5
1B6
330
1F
100
AcDbEntity
  8
1
  6
DOT_CENTER
 62
     1
100
AcDbLine
 10
471.649968718577
 20
-362.6303028577299
 30
0.0
 11
471.649968718577
 21
-245.63030285773
 31
0.0
  0
LINE
  5
1B7
330
1F
100
AcDbEntity
  8
1
  6
Continuous
 62
     3
100
AcDbLine
 10
491.6499687185771
 20
-341.13030285773
 30
0.0
 11
491.6499687185771
 21
-340.93030285773
 31
0.0
  0
LINE
  5
1B8
330
1F
100
AcDbEntity
  8
1
  6
Continuous
 62
     3
100
AcDbLine
 10
491.6499687185771
 20
-342.38030285773
 30
0.0
 11
491.6499687185771
 21
-341.13030285773
 31
0.0
  0
LINE
  5
1B9
330
1F
100
AcDbEntity
  8
1
  6
Continuous
 62
     3
100
AcDbLine
 10
488.1499687185771
 20
-303.63030285773
 30
0.0
 11
491.6499687185771
 21
-303.63030285773
 31
0.0
  0
LINE
  5
1BA
330
1F
100
AcDbEntity
  8
1
  6
Continuous
 62
     3
100
AcDbLine
 10
436.6499687185771
 20
-307.148252050161
 30
0.0
 11
436.6499687185771
 21
-340.1142774539456
 31
0.0
  0
LINE
  5
1BB
330
1F
100
AcDbEntity
  8
1
  6
Continuous
 62
     3
100
AcDbLine
 10
451.874407002562
 20
-340.5780736232445
 30
0.0
 11
450.0518925072237
 21
-341.63030285773
 31
0.0
  0
LINE
  5
1BC
330
1F
100
AcDbEntity
  8
1
  6
Continuous
 62
     3
100
AcDbLine
 10
488.1499687185771
 20
-303.63030285773
 30
0.0
 11
487.1727906899183
 21
-304.607480886389
 31
0.0
  0
LINE
  5
1BD
330
1F
100
AcDbEntity
  8
1
  6
Continuous
 62
     3
100
AcDbLine
 10
437.5263570934434
 20
-305.6303028577301
 30
0.0
 11
450.051892507224
 21
-305.6303028577301
 31
0.0
  0
LINE
  5
1BE
330
1F
100
AcDbEntity
  8
1
  6
Continuous
 62
     3
100
AcDbLine
 10
450.051892507224
 20
-305.6303028577301
 30
0.0
 11
453.1080407458179
 21
-307.3947708659658
 31
0.0
  0
LINE
  5
1BF
330
1F
100
AcDbEntity
  8
1
  6
Continuous
 62
     3
100
AcDbLine
 10
450.0518925072237
 20
-341.63030285773
 30
0.0
 11
437.5237663506728
 21
-341.63030285773
 31
0.0
  0
LINE
  5
1C0
330
1F
100
AcDbEntity
  8
1
  6
Continuous
 62
     3
100
AcDbLine
 10
437.5237663506728
 20
-341.63030285773
 30
0.0
 11
436.6499687185771
 21
-340.13030285773
 31
0.0
  0
LINE
  5
1C1
330
1F
100
AcDbEntity
  8
1
  6
Continuous
 62
     3
100
AcDbLine
 10
491.649968718577
 20
-273.63030285773
 30
0.0
 11
484.649968718577
 21
-273.63030285773
 31
0.0
  0
LINE
  5
1C2
330
1F
100
AcDbEntity
  8
1
  6
Continuous
 62
     3
100
AcDbLine
 10
451.6499687185769
 20
-273.63030285773
 30
0.0
 11
458.649968718577
 21
-273.63030285773
 31
0.0
  0
LINE
  5
1C3
330
1F
100
AcDbEntity
  8
1
  6
Continuous
 62
     3
100
AcDbLine
 10
460.649968718577
 20
-289.5032862039374
 30
0.0
 11
460.6499687185771
 21
-302.6424997938916
 31
0.0
  0
LINE
  5
1C4
330
1F
100
AcDbEntity
  8
1
  6
Continuous
 62
     3
100
AcDbLine
 10
482.6499687185771
 20
-299.63030285773
 30
0.0
 11
482.649968718577
 21
-289.5032862039374
 31
0.0
  0
LINE
  5
1C5
330
1F
100
AcDbEntity
  8
1
  6
Continuous
 62
     3
100
AcDbLine
 10
491.649968718577
 20
-277.13030285773
 30
0.0
 11
491.649968718577
 21
-273.63030285773
 31
0.0
  0
LINE
  5
1C6
330
1F
100
AcDbEntity
  8
1
  6
Continuous
 62
     3
100
AcDbLine
 10
488.649968718577
 20
-278.13030285773
 30
0.0
 11
490.649968718577
 21
-278.13030285773
 31
0.0
  0
LINE
  5
1C7
330
1F
100
AcDbEntity
  8
1
  6
Continuous
 62
     3
100
AcDbLine
 10
452.649968718577
 20
-278.13030285773
 30
0.0
 11
454.649968718577
 21
-278.13030285773
 31
0.0
  0
LINE
  5
1C8
330
1F
100
AcDbEntity
  8
1
  6
Continuous
 62
     3
100
AcDbLine
 10
491.6499687185771
 20
-340.93030285773
 30
0.0
 11
491.6499687185771
 21
-304.88030285773
 31
0.0
  0
LINE
  5
1C9
330
1F
100
AcDbEntity
  8
1
  6
Continuous
 62
     3
100
AcDbLine
 10
491.6499687185771
 20
-343.5667945308337
 30
0.0
 11
491.6499687185771
 21
-342.38030285773
 31
0.0
  0
LINE
  5
1CA
330
1F
100
AcDbEntity
  8
1
  6
Continuous
 62
     3
100
AcDbLine
 10
449.7919085416868
 20
-341.63030285773
 30
0.0
 11
438.6047885896567
 21
-341.63030285773
 31
0.0
  0
LINE
  5
1CB
330
1F
100
AcDbEntity
  8
1
  6
Continuous
 62
     3
100
AcDbLine
 10
491.6499687185771
 20
-343.63030285773
 30
0.0
 11
489.0496208417274
 21
-343.63030285773
 31
0.0
  0
LINE
  5
1CC
330
1F
100
AcDbEntity
  8
1
  6
Continuous
 62
     3
100
AcDbLine
 10
450.1858671034392
 20
-333.1565822993588
 30
0.0
 11
439.5907510135309
 21
-333.156582299359
 31
0.0
  0
LINE
  5
1CD
330
1F
100
AcDbEntity
  8
1
  6
Continuous
 62
     3
100
AcDbLine
 10
450.1858671034392
 20
-314.1040234161011
 30
0.0
 11
439.5907510135309
 21
-314.1040234161011
 31
0.0
  0
LINE
  5
1CE
330
1F
100
AcDbEntity
  8
1
  6
Continuous
 62
     3
100
AcDbLine
 10
461.4430243259739
 20
-304.8587366832648
 30
0.0
 11
470.4430243259739
 21
-303.8587366832648
 31
0.0
  0
LINE
  5
1CF
330
1F
100
AcDbEntity
  8
1
  6
Continuous
 62
     3
100
AcDbLine
 10
473.5723561448211
 20
-303.7332986341677
 30
0.0
 11
483.0723561448211
 21
-303.7332986341677
 31
0.0
  0
LINE
  5
1D0
330
1F
100
AcDbEntity
  8
1
  6
Continuous
 62
     3
100
AcDbLine
 10
454.649968718577
 20
-278.13030285773
 30
0.0
 11
488.649968718577
 21
-278.13030285773
 31
0.0
  0
LINE
  5
1D1
330
1F
100
AcDbEntity
  8
1
  6
Continuous
 62
     3
100
AcDbLine
 10
491.649968718577
 20
-273.63030285773
 30
0.0
 11
471.6499687185769
 21
-273.63030285773
 31
0.0
  0
LINE
  5
1D2
330
1F
100
AcDbEntity
  8
1
  6
Continuous
 62
     3
100
AcDbLine
 10
451.6499687185769
 20
-273.63030285773
 30
0.0
 11
471.6499687185769
 21
-273.63030285773
 31
0.0
  0
LINE
  5
1D3
330
1F
100
AcDbEntity
  8
1
  6
Continuous
 62
     3
100
AcDbLine
 10
459.149968718577
 20
-287.5667945308336
 30
0.0
 11
484.149968718577
 21
-287.5667945308336
 31
0.0
  0
LINE
  5
1D4
330
1F
100
AcDbEntity
  8
1
  6
Continuous
 62
     3
100
AcDbLine
 10
457.649968718577
 20
-281.13030285773
 30
0.0
 11
457.649968718577
 21
-285.6303028577301
 31
0.0
  0
LINE
  5
1D5
330
1F
100
AcDbEntity
  8
1
  6
Continuous
 62
     3
100
AcDbLine
 10
485.649968718577
 20
-285.6303028577301
 30
0.0
 11
485.649968718577
 21
-281.13030285773
 31
0.0
  0
LINE
  5
1D6
330
1F
100
AcDbEntity
  8
1
  6
Continuous
 62
     3
100
AcDbLine
 10
493.6499687185772
 20
-273.63030285773
 30
0.0
 11
491.649968718577
 21
-273.63030285773
 31
0.0
  0
LINE
  5
1D7
330
1F
100
AcDbEntity
  8
1
  6
Continuous
 62
     3
100
AcDbLine
 10
493.6499687185772
 20
-276.13030285773
 30
0.0
 11
493.6499687185772
 21
-273.63030285773
 31
0.0
  0
LINE
  5
1D8
330
1F
100
AcDbEntity
  8
1
  6
Continuous
 62
     3
100
AcDbLine
 10
490.649968718577
 20
-278.13030285773
 30
0.0
 11
491.6499687185772
 21
-278.13030285773
 31
0.0
  0
LINE
  5
1D9
330
1F
100
AcDbEntity
  8
1
  6
DOT_CENTER
 62
     1
100
AcDbLine
 10
433.6499687185771
 20
-323.63030285773
 30
0.0
 11
511.6499687185771
 21
-323.63030285773
 31
0.0
  0
LINE
  5
1DA
330
1F
100
AcDbEntity
  8
1
  6
Continuous
 62
     3
100
AcDbLine
 10
489.6499687185771
 20
-358.7539144828636
 30
0.0
 11
489.6499687185771
 21
-346.1701358826498
 31
0.0
  0
LINE
  5
1DB
330
1F
100
AcDbEntity
  8
1
  6
Continuous
 62
     3
100
AcDbLine
 10
455.1499687185771
 20
-359.63030285773
 30
0.0
 11
453.6499687185771
 21
-358.7565052256341
 31
0.0
  0
LINE
  5
1DC
330
1F
100
AcDbEntity
  8
1
  6
Continuous
 62
     3
100
AcDbLine
 10
453.6499687185771
 20
-358.7565052256341
 30
0.0
 11
453.6499687185771
 21
-346.1423790690834
 31
0.0
  0
LINE
  5
1DD
330
1F
100
AcDbEntity
  8
1
  6
Continuous
 62
     3
100
AcDbLine
 10
462.1236892769481
 20
-357.6434881353511
 30
0.0
 11
462.1236892769481
 21
-347.0084044728678
 31
0.0
  0
LINE
  5
1DE
330
1F
100
AcDbEntity
  8
1
  6
Continuous
 62
     3
100
AcDbLine
 10
481.1762481602059
 20
-357.5574881353512
 30
0.0
 11
481.1762481602059
 21
-346.9224044728677
 31
0.0
  0
LINE
  5
1DF
330
1F
100
AcDbEntity
  8
1
  6
Continuous
 62
     3
100
AcDbLine
 10
454.874407002562
 20
-344.021589750489
 30
0.0
 11
488.4095050308078
 21
-344.021589750489
 31
0.0
  0
LINE
  5
1E0
330
1F
100
AcDbEntity
  8
1
  6
Continuous
 62
     3
100
AcDbLine
 10
489.6499687185771
 20
-346.1701358826498
 30
0.0
 11
488.6166081398351
 21
-344.38030285773
 31
0.0
  0
LINE
  5
1E1
330
1F
100
AcDbEntity
  8
1
  6
Continuous
 62
     3
100
AcDbLine
 10
453.6499687185771
 20
-346.1423790690834
 30
0.0
 11
454.874407002562
 21
-344.021589750489
 31
0.0
  0
LINE
  5
1E2
330
1F
100
AcDbEntity
  8
1
  6
Continuous
 62
     3
100
AcDbLine
 10
489.6499687185771
 20
-358.7539144828636
 30
0.0
 11
488.1339433147926
 21
-359.6291921578366
 31
0.0
  0
LINE
  5
1E3
330
1F
100
AcDbEntity
  8
1
  6
Continuous
 62
     3
100
AcDbLine
 10
454.874407002562
 20
-342.3101244308133
 30
0.0
 11
454.874407002562
 21
-344.021589750489
 31
0.0
  0
LINE
  5
1E4
330
1F
100
AcDbEntity
  8
1
  6
Continuous
 62
     3
100
AcDbLine
 10
455.1499687185771
 20
-359.63030285773
 30
0.0
 11
488.1339433147927
 21
-359.63030285773
 31
0.0
  0
LINE
  5
1E5
330
1F
100
AcDbEntity
  8
1
  6
Continuous
 62
     3
100
AcDbLine
 10
453.1726818258179
 20
-327.13030285773
 30
0.0
 11
453.1726818258179
 21
-340.3324914694648
 31
0.0
  0
LINE
  5
1E6
330
1F
100
AcDbEntity
  8
1
  6
Continuous
 62
     3
100
AcDbLine
 10
453.1726818258179
 20
-307.4320914109045
 30
0.0
 11
453.1726818258179
 21
-320.13030285773
 31
0.0
  0
LINE
  5
1E7
330
1F
100
AcDbEntity
  8
1
  6
DOT_CENTER
 62
     1
100
AcDbLine
 10
355.191917380488
 20
-323.63030285773
 30
0.0
 11
398.104497046502
 21
-323.63030285773
 31
0.0
  0
LINE
  5
1E8
330
1F
100
AcDbEntity
  8
1
  6
DOT_CENTER
 62
     1
100
AcDbLine
 10
376.6499687185771
 20
-245.63030285773
 30
0.0
 11
376.6499687185771
 21
-363.957158815897
 31
0.0
  0
LINE
  5
1E9
330
1F
100
AcDbEntity
  8
1
  6
Continuous
 62
     3
100
AcDbLine
 10
378.6700008213886
 20
-305.7440100528023
 30
0.0
 11
391.1299366157658
 21
-312.9377573377713
 31
0.0
  0
LINE
  5
1EA
330
1F
100
AcDbEntity
  8
1
  6
Continuous
 62
     3
100
AcDbLine
 10
362.1700008213886
 20
-312.9377573377713
 30
0.0
 11
374.6299366157656
 21
-305.7440100528023
 31
0.0
  0
LINE
  5
1EB
330
1F
100
AcDbEntity
  8
1
  6
Continuous
 62
     3
100
AcDbLine
 10
360.1499687185774
 20
-330.8240501426997
 30
0.0
 11
360.1499687185771
 21
-316.4365555727608
 31
0.0
  0
LINE
  5
1EC
330
1F
100
AcDbEntity
  8
1
  6
Continuous
 62
     3
100
AcDbLine
 10
374.6299366157662
 20
-341.516595662658
 30
0.0
 11
362.1700008213886
 21
-334.3228483776887
 31
0.0
  0
LINE
  5
1ED
330
1F
100
AcDbEntity
  8
1
  6
Continuous
 62
     3
100
AcDbLine
 10
391.129936615766
 20
-334.3228483776882
 30
0.0
 11
378.6700008213885
 21
-341.5165956626577
 31
0.0
  0
LINE
  5
1EE
330
1F
100
AcDbEntity
  8
1
  6
Continuous
 62
     3
100
AcDbLine
 10
393.1499687185771
 20
-316.4365555727609
 30
0.0
 11
393.1499687185771
 21
-330.824050142699
 31
0.0
  0
LINE
  5
1EF
330
1F
100
AcDbEntity
  8
1
  6
Continuous
 62
     3
100
AcDbLine
 10
488.649968718577
 20
-304.1303028577299
 30
0.0
 11
488.649968718577
 21
-318.6303028577299
 31
0.0
  0
LINE
  5
1F0
330
1F
100
AcDbEntity
  8
1
  6
Continuous
 62
     3
100
AcDbLine
 10
482.149968718577
 20
-318.6303028577299
 30
0.0
 11
488.649968718577
 21
-318.6303028577299
 31
0.0
  0
LINE
  5
1F1
330
1F
100
AcDbEntity
  8
1
  6
Continuous
 62
     3
100
AcDbLine
 10
482.149968718577
 20
-318.6303028577299
 30
0.0
 11
482.149968718577
 21
-328.6303028577299
 31
0.0
  0
LINE
  5
1F2
330
1F
100
AcDbEntity
  8
1
  6
Continuous
 62
     3
100
AcDbLine
 10
484.649968718577
 20
-323.2303028577298
 30
0.0
 11
484.649968718577
 21
-319.6303028577299
 31
0.0
  0
LINE
  5
1F3
330
1F
100
AcDbEntity
  8
1
  6
Continuous
 62
     3
100
AcDbLine
 10
488.649968718577
 20
-319.83030285773
 30
0.0
 11
489.249968718577
 21
-320.4303028577299
 31
0.0
  0
LINE
  5
1F4
330
1F
100
AcDbEntity
  8
1
  6
Continuous
 62
     3
100
AcDbLine
 10
484.649968718577
 20
-319.6303028577299
 30
0.0
 11
487.649968718577
 21
-319.6303028577299
 31
0.0
  0
LINE
  5
1F5
330
1F
100
AcDbEntity
  8
1
  6
Continuous
 62
     3
100
AcDbLine
 10
488.4499687185769
 20
-323.0303028577298
 30
0.0
 11
487.849968718577
 21
-323.2303028577298
 31
0.0
  0
LINE
  5
1F6
330
1F
100
AcDbEntity
  8
1
  6
Continuous
 62
     3
100
AcDbLine
 10
489.049968718577
 20
-322.6303028577299
 30
0.0
 11
488.4499687185769
 21
-323.0303028577298
 31
0.0
  0
LINE
  5
1F7
330
1F
100
AcDbEntity
  8
1
  6
Continuous
 62
     3
100
AcDbLine
 10
489.4499687185769
 20
-321.83030285773
 30
0.0
 11
489.049968718577
 21
-322.6303028577299
 31
0.0
  0
LINE
  5
1F8
330
1F
100
AcDbEntity
  8
1
  6
Continuous
 62
     3
100
AcDbLine
 10
489.4499687185769
 20
-321.2303028577298
 30
0.0
 11
489.4499687185769
 21
-321.83030285773
 31
0.0
  0
LINE
  5
1F9
330
1F
100
AcDbEntity
  8
1
  6
Continuous
 62
     3
100
AcDbLine
 10
489.249968718577
 20
-320.4303028577299
 30
0.0
 11
489.4499687185769
 21
-321.2303028577298
 31
0.0
  0
LINE
  5
1FA
330
1F
100
AcDbEntity
  8
1
  6
Continuous
 62
     3
100
AcDbLine
 10
487.649968718577
 20
-319.6303028577299
 30
0.0
 11
488.649968718577
 21
-319.83030285773
 31
0.0
  0
LINE
  5
1FB
330
1F
100
AcDbEntity
  8
1
  6
Continuous
 62
     3
100
AcDbLine
 10
484.649968718577
 20
-327.6303028577299
 30
0.0
 11
484.649968718577
 21
-323.2303028577298
 31
0.0
  0
LINE
  5
1FC
330
1F
100
AcDbEntity
  8
1
  6
Continuous
 62
     3
100
AcDbLine
 10
488.249968718577
 20
-327.6303028577299
 30
0.0
 11
484.649968718577
 21
-327.6303028577299
 31
0.0
  0
LINE
  5
1FD
330
1F
100
AcDbEntity
  8
1
  6
Continuous
 62
     3
100
AcDbLine
 10
489.049968718577
 20
-327.2303028577298
 30
0.0
 11
488.249968718577
 21
-327.6303028577299
 31
0.0
  0
LINE
  5
1FE
330
1F
100
AcDbEntity
  8
1
  6
Continuous
 62
     3
100
AcDbLine
 10
489.4499687185769
 20
-326.83030285773
 30
0.0
 11
489.049968718577
 21
-327.2303028577298
 31
0.0
  0
LINE
  5
1FF
330
1F
100
AcDbEntity
  8
1
  6
Continuous
 62
     3
100
AcDbLine
 10
489.849968718577
 20
-326.0303028577298
 30
0.0
 11
489.4499687185769
 21
-326.83030285773
 31
0.0
  0
LINE
  5
200
330
1F
100
AcDbEntity
  8
1
  6
Continuous
 62
     3
100
AcDbLine
 10
489.849968718577
 20
-325.0303028577298
 30
0.0
 11
489.849968718577
 21
-326.0303028577298
 31
0.0
  0
LINE
  5
201
330
1F
100
AcDbEntity
  8
1
  6
Continuous
 62
     3
100
AcDbLine
 10
489.4499687185769
 20
-324.0303028577298
 30
0.0
 11
489.849968718577
 21
-325.0303028577298
 31
0.0
  0
LINE
  5
202
330
1F
100
AcDbEntity
  8
1
  6
Continuous
 62
     3
100
AcDbLine
 10
489.049968718577
 20
-323.6303028577299
 30
0.0
 11
489.4499687185769
 21
-324.0303028577298
 31
0.0
  0
LINE
  5
203
330
1F
100
AcDbEntity
  8
1
  6
Continuous
 62
     3
100
AcDbLine
 10
488.249968718577
 20
-323.2303028577298
 30
0.0
 11
489.049968718577
 21
-323.6303028577299
 31
0.0
  0
LINE
  5
204
330
1F
100
AcDbEntity
  8
1
  6
Continuous
 62
     3
100
AcDbLine
 10
487.849968718577
 20
-323.2303028577298
 30
0.0
 11
488.249968718577
 21
-323.2303028577298
 31
0.0
  0
LINE
  5
205
330
1F
100
AcDbEntity
  8
1
  6
Continuous
 62
     3
100
AcDbLine
 10
484.649968718577
 20
-323.2303028577298
 30
0.0
 11
487.849968718577
 21
-323.2303028577298
 31
0.0
  0
LINE
  5
206
330
1F
100
AcDbEntity
  8
1
  6
Continuous
 62
     3
100
AcDbLine
 10
488.649968718577
 20
-328.6303028577299
 30
0.0
 11
482.149968718577
 21
-328.6303028577299
 31
0.0
  0
LINE
  5
207
330
1F
100
AcDbEntity
  8
1
  6
Continuous
 62
     3
100
AcDbLine
 10
488.649968718577
 20
-328.6303028577299
 30
0.0
 11
488.649968718577
 21
-343.6303028577299
 31
0.0
  0
LINE
  5
208
330
1F
100
AcDbEntity
  8
1
  6
Continuous
 62
     3
100
AcDbLine
 10
466.499968718577
 20
-319.6303028577299
 30
0.0
 11
470.2392081220849
 21
-319.6303028577299
 31
0.0
  0
LINE
  5
209
330
1F
100
AcDbEntity
  8
1
  6
Continuous
 62
     3
100
AcDbLine
 10
470.2392081220849
 20
-323.6303028577299
 30
0.0
 11
470.6603191513532
 21
-323.6303028577299
 31
0.0
  0
LINE
  5
20A
330
1F
100
AcDbEntity
  8
1
  6
Continuous
 62
     3
100
AcDbLine
 10
472.6613980116259
 20
-321.6292239974573
 30
0.0
 11
472.6613980116259
 21
-319.6303028577299
 31
0.0
  0
LINE
  5
20B
330
1F
100
AcDbEntity
  8
1
  6
Continuous
 62
     3
100
AcDbLine
 10
470.2392081220849
 20
-323.6303028577299
 30
0.0
 11
466.499968718577
 21
-327.6303028577299
 31
0.0
  0
LINE
  5
20C
330
1F
100
AcDbEntity
  8
1
  6
Continuous
 62
     3
100
AcDbLine
 10
466.499968718577
 20
-327.6303028577299
 30
0.0
 11
470.2392081220849
 21
-327.6303028577299
 31
0.0
  0
LINE
  5
20D
330
1F
100
AcDbEntity
  8
1
  6
Continuous
 62
     3
100
AcDbLine
 10
472.6613980116259
 20
-319.6303028577299
 30
0.0
 11
476.4925795604364
 21
-319.6303028577299
 31
0.0
  0
LINE
  5
20E
330
1F
100
AcDbEntity
  8
1
  6
Continuous
 62
     3
100
AcDbLine
 10
476.4925795604364
 20
-319.6303028577299
 30
0.0
 11
470.2392081220849
 21
-327.6303028577299
 31
0.0
  0
LINE
  5
20F
330
1F
100
AcDbEntity
  8
1
  6
Continuous
 62
     3
100
AcDbLine
 10
470.2392081220849
 20
-319.6303028577299
 30
0.0
 11
470.2392081220849
 21
-323.4157307844687
 31
0.0
  0
LINE
  5
210
330
1F
100
AcDbEntity
  8
1
  6
Continuous
 62
     3
100
AcDbLine
 10
470.2392081220849
 20
-323.4157307844687
 30
0.0
 11
466.499968718577
 21
-319.6303028577299
 31
0.0
  0
LINE
  5
211
330
1F
100
AcDbEntity
  8
1
  6
Continuous
 62
     3
100
AcDbLine
 10
463.649968718577
 20
-334.7612158805403
 30
0.0
 11
463.649968718577
 21
-333.6260986733485
 31
0.0
  0
LINE
  5
212
330
1F
100
AcDbEntity
  8
1
  6
Continuous
 62
     3
100
AcDbLine
 10
467.849968718577
 20
-348.6303028577299
 30
0.0
 11
471.049968718577
 21
-356.7163028577297
 31
0.0
  0
LINE
  5
213
330
1F
100
AcDbEntity
  8
1
  6
Continuous
 62
     3
100
AcDbLine
 10
464.649968718577
 20
-356.7163028577298
 30
0.0
 11
467.849968718577
 21
-348.6303028577299
 31
0.0
  0
LINE
  5
214
330
1F
100
AcDbEntity
  8
1
  6
Continuous
 62
     3
100
AcDbLine
 10
465.649968718577
 20
-354.3163028577297
 30
0.0
 11
470.049968718577
 21
-354.3163028577297
 31
0.0
  0
LINE
  5
215
330
1F
100
AcDbEntity
  8
1
  6
Continuous
 62
     3
100
AcDbLine
 10
473.4499687185769
 20
-352.2303028577298
 30
0.0
 11
473.4499687185769
 21
-348.6303028577299
 31
0.0
  0
LINE
  5
216
330
1F
100
AcDbEntity
  8
1
  6
Continuous
 62
     3
100
AcDbLine
 10
477.249968718577
 20
-352.0303028577298
 30
0.0
 11
476.649968718577
 21
-352.2303028577298
 31
0.0
  0
LINE
  5
217
330
1F
100
AcDbEntity
  8
1
  6
Continuous
 62
     3
100
AcDbLine
 10
477.849968718577
 20
-351.6303028577299
 30
0.0
 11
477.249968718577
 21
-352.0303028577298
 31
0.0
  0
LINE
  5
218
330
1F
100
AcDbEntity
  8
1
  6
Continuous
 62
     3
100
AcDbLine
 10
478.249968718577
 20
-350.83030285773
 30
0.0
 11
477.849968718577
 21
-351.6303028577299
 31
0.0
  0
LINE
  5
219
330
1F
100
AcDbEntity
  8
1
  6
Continuous
 62
     3
100
AcDbLine
 10
478.249968718577
 20
-350.2303028577298
 30
0.0
 11
478.249968718577
 21
-350.83030285773
 31
0.0
  0
LINE
  5
21A
330
1F
100
AcDbEntity
  8
1
  6
Continuous
 62
     3
100
AcDbLine
 10
478.049968718577
 20
-349.4303028577299
 30
0.0
 11
478.249968718577
 21
-350.2303028577298
 31
0.0
  0
LINE
  5
21B
330
1F
100
AcDbEntity
  8
1
  6
Continuous
 62
     3
100
AcDbLine
 10
477.4499687185769
 20
-348.83030285773
 30
0.0
 11
478.049968718577
 21
-349.4303028577299
 31
0.0
  0
LINE
  5
21C
330
1F
100
AcDbEntity
  8
1
  6
Continuous
 62
     3
100
AcDbLine
 10
476.4499687185769
 20
-348.6303028577299
 30
0.0
 11
477.4499687185769
 21
-348.83030285773
 31
0.0
  0
LINE
  5
21D
330
1F
100
AcDbEntity
  8
1
  6
Continuous
 62
     3
100
AcDbLine
 10
473.4499687185769
 20
-348.6303028577299
 30
0.0
 11
476.4499687185769
 21
-348.6303028577299
 31
0.0
  0
LINE
  5
21E
330
1F
100
AcDbEntity
  8
1
  6
Continuous
 62
     3
100
AcDbLine
 10
473.4499687185769
 20
-356.7163028577298
 30
0.0
 11
473.4499687185769
 21
-352.2303028577298
 31
0.0
  0
LINE
  5
21F
330
1F
100
AcDbEntity
  8
1
  6
Continuous
 62
     3
100
AcDbLine
 10
477.049968718577
 20
-356.7163028577298
 30
0.0
 11
473.4499687185769
 21
-356.7163028577298
 31
0.0
  0
LINE
  5
220
330
1F
100
AcDbEntity
  8
1
  6
Continuous
 62
     3
100
AcDbLine
 10
477.849968718577
 20
-356.3163028577297
 30
0.0
 11
477.049968718577
 21
-356.7163028577298
 31
0.0
  0
LINE
  5
221
330
1F
100
AcDbEntity
  8
1
  6
Continuous
 62
     3
100
AcDbLine
 10
478.249968718577
 20
-355.9163028577299
 30
0.0
 11
477.849968718577
 21
-356.3163028577297
 31
0.0
  0
LINE
  5
222
330
1F
100
AcDbEntity
  8
1
  6
Continuous
 62
     3
100
AcDbLine
 10
478.649968718577
 20
-355.1163028577297
 30
0.0
 11
478.249968718577
 21
-355.9163028577299
 31
0.0
  0
LINE
  5
223
330
1F
100
AcDbEntity
  8
1
  6
Continuous
 62
     3
100
AcDbLine
 10
478.649968718577
 20
-354.1163028577296
 30
0.0
 11
478.649968718577
 21
-355.1163028577297
 31
0.0
  0
LINE
  5
224
330
1F
100
AcDbEntity
  8
1
  6
Continuous
 62
     3
100
AcDbLine
 10
478.249968718577
 20
-353.0303028577298
 30
0.0
 11
478.649968718577
 21
-354.1163028577296
 31
0.0
  0
LINE
  5
225
330
1F
100
AcDbEntity
  8
1
  6
Continuous
 62
     3
100
AcDbLine
 10
477.849968718577
 20
-352.6303028577299
 30
0.0
 11
478.249968718577
 21
-353.0303028577298
 31
0.0
  0
LINE
  5
226
330
1F
100
AcDbEntity
  8
1
  6
Continuous
 62
     3
100
AcDbLine
 10
477.049968718577
 20
-352.2303028577298
 30
0.0
 11
477.849968718577
 21
-352.6303028577299
 31
0.0
  0
LINE
  5
227
330
1F
100
AcDbEntity
  8
1
  6
Continuous
 62
     3
100
AcDbLine
 10
476.649968718577
 20
-352.2303028577298
 30
0.0
 11
477.049968718577
 21
-352.2303028577298
 31
0.0
  0
LINE
  5
228
330
1F
100
AcDbEntity
  8
1
  6
Continuous
 62
     3
100
AcDbLine
 10
473.4499687185769
 20
-352.2303028577298
 30
0.0
 11
476.649968718577
 21
-352.2303028577298
 31
0.0
  0
LINE
  5
229
330
1F
100
AcDbEntity
  8
1
  6
Continuous
 62
     3
100
AcDbLine
 10
441.249968718577
 20
-327.6303028577299
 30
0.0
 11
444.4499687185769
 21
-319.6303028577299
 31
0.0
  0
LINE
  5
22A
330
1F
100
AcDbEntity
  8
1
  6
Continuous
 62
     3
100
AcDbLine
 10
442.249968718577
 20
-325.2303028577298
 30
0.0
 11
446.649968718577
 21
-325.2303028577298
 31
0.0
  0
LINE
  5
22B
330
1F
100
AcDbEntity
  8
1
  6
Continuous
 62
     3
100
AcDbLine
 10
444.4499687185769
 20
-319.6303028577299
 30
0.0
 11
447.649968718577
 21
-327.6303028577299
 31
0.0
  0
LINE
  5
22C
330
1F
100
AcDbEntity
  8
1
  6
Continuous
 62
     3
100
AcDbLine
 10
491.649968718577
 20
-201.4587299824762
 30
0.0
 11
491.649968718577
 21
-212.63030285773
 31
0.0
  0
LINE
  5
22D
330
1F
100
AcDbEntity
  8
1
  6
Continuous
 62
     3
100
AcDbLine
 10
451.649968718577
 20
-212.63030285773
 30
0.0
 11
451.649968718577
 21
-198.63030285773
 31
0.0
  0
LINE
  5
22E
330
1F
100
AcDbEntity
  8
1
  6
DASH_CENTER
 62
     1
100
AcDbLine
 10
471.649968718577
 20
-175.6303028577302
 30
0.0
 11
471.649968718577
 21
-221.6303028577299
 31
0.0
  0
LINE
  5
22F
330
1F
100
AcDbEntity
  8
1
  6
Continuous
 62
     3
100
AcDbLine
 10
451.649968718577
 20
-198.63030285773
 30
0.0
 11
451.649968718577
 21
-184.6303028577301
 31
0.0
  0
LINE
  5
230
330
1F
100
AcDbEntity
  8
1
  6
DASH_CENTER
 62
     1
100
AcDbLine
 10
433.702779265809
 20
-198.63030285773
 30
0.0
 11
511.448346223879
 21
-198.63030285773
 31
0.0
  0
LINE
  5
231
330
1F
100
AcDbEntity
  8
1
  6
Continuous
 62
     3
100
AcDbLine
 10
491.649968718577
 20
-184.6303028577301
 30
0.0
 11
491.649968718577
 21
-195.8018757329838
 31
0.0
  0
LINE
  5
232
330
1F
100
AcDbEntity
  8
1
  6
Continuous
 62
     3
100
AcDbLine
 10
390.6499687185771
 20
-285.6303028577301
 30
0.0
 11
390.6499687185771
 21
-281.13030285773
 31
0.0
  0
LINE
  5
233
330
1F
100
AcDbEntity
  8
1
  6
Continuous
 62
     3
100
AcDbLine
 10
362.6499687185771
 20
-281.13030285773
 30
0.0
 11
362.6499687185771
 21
-285.6303028577301
 31
0.0
  0
LINE
  5
234
330
1F
100
AcDbEntity
  8
1
  6
Continuous
 62
     3
100
AcDbLine
 10
364.1499687185771
 20
-287.5667945308336
 30
0.0
 11
389.1499687185771
 21
-287.5667945308336
 31
0.0
  0
LINE
  5
235
330
1F
100
AcDbEntity
  8
1
  6
Continuous
 62
     3
100
AcDbLine
 10
356.649968718577
 20
-273.63030285773
 30
0.0
 11
376.649968718577
 21
-273.63030285773
 31
0.0
  0
LINE
  5
236
330
1F
100
AcDbEntity
  8
1
  6
Continuous
 62
     3
100
AcDbLine
 10
396.6499687185771
 20
-273.63030285773
 30
0.0
 11
376.649968718577
 21
-273.63030285773
 31
0.0
  0
LINE
  5
237
330
1F
100
AcDbEntity
  8
1
  6
Continuous
 62
     3
100
AcDbLine
 10
359.6499687185771
 20
-278.13030285773
 30
0.0
 11
393.6499687185771
 21
-278.13030285773
 31
0.0
  0
LINE
  5
238
330
1F
100
AcDbEntity
  8
1
  6
Continuous
 62
     3
100
AcDbLine
 10
357.6499687185771
 20
-278.13030285773
 30
0.0
 11
359.6499687185771
 21
-278.13030285773
 31
0.0
  0
LINE
  5
239
330
1F
100
AcDbEntity
  8
1
  6
Continuous
 62
     3
100
AcDbLine
 10
393.6499687185771
 20
-278.13030285773
 30
0.0
 11
395.6499687185771
 21
-278.13030285773
 31
0.0
  0
LINE
  5
23A
330
1F
100
AcDbEntity
  8
1
  6
Continuous
 62
     3
100
AcDbLine
 10
396.6499687185771
 20
-277.13030285773
 30
0.0
 11
396.6499687185771
 21
-273.63030285773
 31
0.0
  0
LINE
  5
23B
330
1F
100
AcDbEntity
  8
1
  6
Continuous
 62
     3
100
AcDbLine
 10
356.649968718577
 20
-273.63030285773
 30
0.0
 11
363.6499687185771
 21
-273.63030285773
 31
0.0
  0
LINE
  5
23C
330
1F
100
AcDbEntity
  8
1
  6
Continuous
 62
     3
100
AcDbLine
 10
396.6499687185771
 20
-273.63030285773
 30
0.0
 11
389.6499687185771
 21
-273.63030285773
 31
0.0
  0
LINE
  5
23D
330
1F
100
AcDbEntity
  8
1
  6
Continuous
 62
     3
100
AcDbLine
 10
356.649968718577
 20
-273.63030285773
 30
0.0
 11
356.649968718577
 21
-277.13030285773
 31
0.0
  0
LINE
  5
23E
330
1F
100
AcDbEntity
  8
1
  6
Continuous
 62
     3
100
AcDbLine
 10
365.6499687185771
 20
-289.5032862039374
 30
0.0
 11
365.6499687185772
 21
-305.7417590377315
 31
0.0
  0
LINE
  5
23F
330
1F
100
AcDbEntity
  8
1
  6
Continuous
 62
     3
100
AcDbLine
 10
387.6499687185772
 20
-305.7417590377318
 30
0.0
 11
387.6499687185771
 21
-289.5032862039374
 31
0.0
  0
LINE
  5
240
330
1F
100
AcDbEntity
  8
1
  6
Continuous
 62
     3
100
AcDbLine
 10
360.1499687185771
 20
-343.63030285773
 30
0.0
 11
361.8705640221401
 21
-340.6501443726947
 31
0.0
  0
LINE
  5
241
330
1F
100
AcDbEntity
  8
1
  6
Continuous
 62
     3
100
AcDbLine
 10
360.1659941223618
 20
-343.63030285773
 30
0.0
 11
360.1659941223618
 21
-358.681165580458
 31
0.0
  0
LINE
  5
242
330
1F
100
AcDbEntity
  8
1
  6
Continuous
 62
     3
100
AcDbLine
 10
391.4293734150142
 20
-340.6501443726947
 30
0.0
 11
393.1499687185771
 21
-343.63030285773
 31
0.0
  0
LINE
  5
243
330
1F
100
AcDbEntity
  8
1
  6
Continuous
 62
     3
100
AcDbLine
 10
393.1499687185771
 20
-343.63030285773
 30
0.0
 11
393.1499687185771
 21
-358.6679144828637
 31
0.0
  0
LINE
  5
244
330
1F
100
AcDbEntity
  8
1
  6
Continuous
 62
     3
100
AcDbLine
 10
376.6499687185771
 20
-357.4714881353512
 30
0.0
 11
376.6499687185772
 21
-345.8364044728679
 31
0.0
  0
LINE
  5
245
330
1F
100
AcDbEntity
  8
1
  6
Continuous
 62
     3
100
AcDbLine
 10
393.1499687185771
 20
-358.6679144828637
 30
0.0
 11
391.6339433147926
 21
-359.5431921578367
 31
0.0
  0
LINE
  5
246
330
1F
100
AcDbEntity
  8
1
  6
Continuous
 62
     3
100
AcDbLine
 10
361.6659941223616
 20
-359.5431921578367
 30
0.0
 11
360.1499687185771
 21
-358.6679144828637
 31
0.0
  0
LINE
  5
247
330
1F
100
AcDbEntity
  8
1
  6
Continuous
 62
     3
100
AcDbLine
 10
361.6993816963691
 20
-359.63030285773
 30
0.0
 11
391.6012648489481
 21
-359.63030285773
 31
0.0
  0
LINE
  5
248
330
1F
100
AcDbEntity
  8
1
  6
Continuous
 62
     3
100
AcDbLine
 10
393.1499687185771
 20
-343.63030285773
 30
0.0
 11
360.1499687185771
 21
-343.63030285773
 31
0.0
  0
ARC
  5
249
330
1F
100
AcDbEntity
  8
1
  6
Continuous
 62
     3
100
AcDbCircle
 10
543.8214967324323
 20
-305.7417590377316
 30
0.0
 40
5.000000000000001
100
AcDbArc
 50
-15.06674489647793
 51
0.00000000000065
  0
ARC
  5
24A
330
1F
100
AcDbEntity
  8
1
  6
Continuous
 62
     3
100
AcDbCircle
 10
575.8214967324323
 20
-305.7417590377318
 30
0.0
 40
5.0
100
AcDbArc
 50
180.0
 51
-164.9332551035211
  0
ARC
  5
24B
330
1F
100
AcDbEntity
  8
1
  6
Continuous
 62
     3
100
AcDbCircle
 10
550.2952172908033
 20
-359.4856663962012
 30
0.0
 40
16.75436217431057
100
AcDbArc
 50
55.47318957348905
 51
71.14552167693775
  0
ARC
  5
24C
330
1F
100
AcDbEntity
  8
1
  6
Continuous
 62
     3
100
AcDbCircle
 10
569.3477761740611
 20
-359.4856663962012
 30
0.0
 40
16.7543621743107
100
AcDbArc
 50
108.8544783230623
 51
124.5268104265107
  0
ARC
  5
24D
330
1F
100
AcDbEntity
  8
1
  6
Continuous
 62
     3
100
AcDbCircle
 10
569.3477761740611
 20
-343.6889393192589
 30
0.0
 40
16.75436217431046
100
AcDbArc
 50
-124.5268104265108
 51
-108.8544783230623
  0
ARC
  5
24E
330
1F
100
AcDbEntity
  8
1
  6
Continuous
 62
     3
100
AcDbCircle
 10
550.2952172908033
 20
-343.6889393192589
 30
0.0
 40
16.75436217431065
100
AcDbArc
 50
-71.14552167693768
 51
-55.47318957348894
  0
ARC
  5
24F
330
1F
100
AcDbEntity
  8
1
  6
Continuous
 62
     3
100
AcDbCircle
 10
685.561735589543
 20
-323.63030285773
 30
0.0
 40
16.75436217431042
100
AcDbArc
 50
145.3483859040997
 51
167.9420547163162
  0
ARC
  5
250
330
1F
100
AcDbEntity
  8
1
  6
Continuous
 62
     3
100
AcDbCircle
 10
673.9842860957647
 20
-309.3985700518607
 30
0.0
 40
5.196513675947101
100
AcDbArc
 50
177.5891225183181
 51
-115.1090251133341
  0
ARC
  5
251
330
1F
100
AcDbEntity
  8
1
  6
Continuous
 62
     3
100
AcDbCircle
 10
685.561735589543
 20
-323.63030285773
 30
0.0
 40
16.75436217431022
100
AcDbArc
 50
-167.9420547163162
 51
-145.3483859041
  0
ARC
  5
252
330
1F
100
AcDbEntity
  8
1
  6
Continuous
 62
     3
100
AcDbCircle
 10
673.9842860957647
 20
-337.8620356635992
 30
0.0
 40
5.196513675947602
100
AcDbArc
 50
115.1090251133339
 51
177.5891225183193
  0
ARC
  5
253
330
1F
100
AcDbEntity
  8
1
  6
Continuous
 62
     3
100
AcDbCircle
 10
650.315085158313
 20
-343.7749393192588
 30
0.0
 40
16.75436217431046
100
AcDbArc
 50
-124.5268104265108
 51
-108.8544783230623
  0
ARC
  5
254
330
1F
100
AcDbEntity
  8
1
  6
Continuous
 62
     3
100
AcDbCircle
 10
664.5468179641822
 20
-355.4383888130373
 30
0.0
 40
5.196513675947551
100
AcDbArc
 50
-154.8909748866659
 51
-126.227364044851
  0
ARC
  5
255
330
1F
100
AcDbEntity
  8
1
  6
Continuous
 62
     3
100
AcDbCircle
 10
664.5468179641822
 20
-349.2135037951816
 30
0.0
 40
5.196513675947264
100
AcDbArc
 50
92.41087748168
 51
154.8909748866659
  0
ARC
  5
256
330
1F
100
AcDbEntity
  8
1
  6
Continuous
 62
     3
100
AcDbCircle
 10
650.315085158313
 20
-360.79095328896
 30
0.0
 40
16.75436217431043
100
AcDbArc
 50
55.34838590409994
 51
124.6516140959001
  0
ARC
  5
257
330
1F
100
AcDbEntity
  8
1
  6
Continuous
 62
     3
100
AcDbCircle
 10
650.315085158313
 20
-343.7749393192588
 30
0.0
 40
16.75436217431065
100
AcDbArc
 50
-71.14552167693768
 51
-55.34838590410038
  0
ARC
  5
258
330
1F
100
AcDbEntity
  8
1
  6
Continuous
 62
     3
100
AcDbCircle
 10
636.0833523524437
 20
-355.4383888130373
 30
0.0
 40
5.196513675947521
100
AcDbArc
 50
-53.77263595514597
 51
-25.10902511333411
  0
ARC
  5
259
330
1F
100
AcDbEntity
  8
1
  6
Continuous
 62
     3
100
AcDbCircle
 10
636.0833523524437
 20
-349.2135037951816
 30
0.0
 40
5.196513675947551
100
AcDbArc
 50
25.10902511333411
 51
87.5891225183175
  0
ARC
  5
25A
330
1F
100
AcDbEntity
  8
1
  6
Continuous
 62
     3
100
AcDbCircle
 10
680.1692035410454
 20
-337.8620356635992
 30
0.0
 40
5.196513675947194
100
AcDbArc
 50
2.41087748176597
 51
64.89097488666509
  0
ARC
  5
25B
330
1F
100
AcDbEntity
  8
1
  6
Continuous
 62
     3
100
AcDbCircle
 10
680.1692035410454
 20
-309.3985700518607
 30
0.0
 40
5.196513675947551
100
AcDbArc
 50
-64.89097488666589
 51
-8.00474765084914
  0
ARC
  5
25C
330
1F
100
AcDbEntity
  8
1
  6
Continuous
 62
     3
100
AcDbCircle
 10
668.5917540472671
 20
-323.63030285773
 30
0.0
 40
16.75436217431048
100
AcDbArc
 50
-34.65161409590066
 51
34.65161409590034
  0
ARC
  5
25D
330
1F
100
AcDbEntity
  8
1
  6
Continuous
 62
     3
100
AcDbCircle
 10
650.315085158313
 20
-343.63030285773
 30
0.0
 40
39.00000000000002
100
AcDbArc
 50
67.21237030373436
 51
68.67631373650214
  0
ARC
  5
25E
330
1F
100
AcDbEntity
  8
1
  6
Continuous
 62
     3
100
AcDbCircle
 10
471.649968718577
 20
-343.63030285773
 30
0.0
 40
38.99999999999989
100
AcDbArc
 50
111.3236862634976
 51
112.7876296962655
  0
ARC
  5
25F
330
1F
100
AcDbEntity
  8
1
  6
Continuous
 62
     3
100
AcDbCircle
 10
453.373299829623
 20
-323.63030285773
 30
0.0
 40
16.75436217431042
100
AcDbArc
 50
145.3483859040997
 51
-145.3483859040994
  0
ARC
  5
260
330
1F
100
AcDbEntity
  8
1
  6
Continuous
 62
     3
100
AcDbCircle
 10
441.7958503358447
 20
-309.3985700518607
 30
0.0
 40
5.196513675947177
100
AcDbArc
 50
-171.9952523491509
 51
-115.1090251133341
  0
ARC
  5
261
330
1F
100
AcDbEntity
  8
1
  6
Continuous
 62
     3
100
AcDbCircle
 10
441.7958503358447
 20
-337.8620356635992
 30
0.0
 40
5.196513675947396
100
AcDbArc
 50
115.1090251133349
 51
177.589122518234
  0
ARC
  5
262
330
1F
100
AcDbEntity
  8
1
  6
Continuous
 62
     3
100
AcDbCircle
 10
485.8817015244463
 20
-349.2135037951816
 30
0.0
 40
5.196513675947271
100
AcDbArc
 50
92.41087748168189
 51
154.8909748866667
  0
ARC
  5
263
330
1F
100
AcDbEntity
  8
1
  6
Continuous
 62
     3
100
AcDbCircle
 10
485.8817015244463
 20
-355.4383888130373
 30
0.0
 40
5.196513675947602
100
AcDbArc
 50
-154.8909748866662
 51
-126.227364044854
  0
ARC
  5
264
330
1F
100
AcDbEntity
  8
1
  6
Continuous
 62
     3
100
AcDbCircle
 10
471.649968718577
 20
-343.7749393192588
 30
0.0
 40
16.75436217431056
100
AcDbArc
 50
-124.6516140959
 51
-108.854478323062
  0
ARC
  5
265
330
1F
100
AcDbEntity
  8
1
  6
Continuous
 62
     3
100
AcDbCircle
 10
471.649968718577
 20
-360.79095328896
 30
0.0
 40
16.7543621743104
100
AcDbArc
 50
55.3483859041001
 51
124.6516140959002
  0
ARC
  5
266
330
1F
100
AcDbEntity
  8
1
  6
Continuous
 62
     3
100
AcDbCircle
 10
457.4182359127078
 20
-349.2135037951816
 30
0.0
 40
5.196513675947448
100
AcDbArc
 50
25.10902511333464
 51
87.58912251831812
  0
ARC
  5
267
330
1F
100
AcDbEntity
  8
1
  6
Continuous
 62
     3
100
AcDbCircle
 10
457.4182359127078
 20
-355.4383888130373
 30
0.0
 40
5.196513675947487
100
AcDbArc
 50
-53.77263595514647
 51
-25.10902511333464
  0
ARC
  5
268
330
1F
100
AcDbEntity
  8
1
  6
Continuous
 62
     3
100
AcDbCircle
 10
471.649968718577
 20
-343.7749393192588
 30
0.0
 40
16.75436217431065
100
AcDbArc
 50
-71.14552167693768
 51
-55.47318957348894
  0
ARC
  5
269
330
1F
100
AcDbEntity
  8
1
  6
Continuous
 62
     3
100
AcDbCircle
 10
447.9807677811254
 20
-337.8620356635992
 30
0.0
 40
5.196513675947152
100
AcDbArc
 50
2.41087748168068
 51
64.89097488666616
  0
ARC
  5
26A
330
1F
100
AcDbEntity
  8
1
  6
Continuous
 62
     3
100
AcDbCircle
 10
447.9807677811254
 20
-309.3985700518607
 30
0.0
 40
5.196513675947551
100
AcDbArc
 50
-64.89097488666589
 51
2.41087748168193
  0
ARC
  5
26B
330
1F
100
AcDbEntity
  8
1
  6
Continuous
 62
     3
100
AcDbCircle
 10
376.6499687185771
 20
-323.63030285773
 30
0.0
 40
17.99999999999991
100
AcDbArc
 50
83.55646430910097
 51
96.44353569089904
  0
ARC
  5
26C
330
1F
100
AcDbEntity
  8
1
  6
Continuous
 62
     3
100
AcDbCircle
 10
376.6499687185771
 20
-323.63030285773
 30
0.0
 40
18.0
100
AcDbArc
 50
-156.4435356908965
 51
-143.5564643091011
  0
ARC
  5
26D
330
1F
100
AcDbEntity
  8
1
  6
Continuous
 62
     3
100
AcDbCircle
 10
376.6499687185771
 20
-323.63030285773
 30
0.0
 40
17.99999999999994
100
AcDbArc
 50
143.5564643091011
 51
156.4435356908985
  0
ARC
  5
26E
330
1F
100
AcDbEntity
  8
1
  6
Continuous
 62
     3
100
AcDbCircle
 10
376.6499687185771
 20
-323.63030285773
 30
0.0
 40
18.00000000000018
100
AcDbArc
 50
-96.44353569089692
 51
-83.55646430910136
  0
ARC
  5
26F
330
1F
100
AcDbEntity
  8
1
  6
Continuous
 62
     3
100
AcDbCircle
 10
376.6499687185771
 20
-323.63030285773
 30
0.0
 40
18.00000000000001
100
AcDbArc
 50
23.55646430910131
 51
36.44353569089844
  0
ARC
  5
270
330
1F
100
AcDbEntity
  8
1
  6
Continuous
 62
     3
100
AcDbCircle
 10
376.6499687185771
 20
-323.63030285773
 30
0.0
 40
17.99999999999999
100
AcDbArc
 50
-36.44353569089695
 51
-23.55646430910098
  0
ARC
  5
271
330
1F
100
AcDbEntity
  8
1
  6
Continuous
 62
     3
100
AcDbCircle
 10
436.4033182873471
 20
-323.63030285773
 30
0.0
 40
16.75436217431035
100
AcDbArc
 50
-34.65161409590002
 51
34.65161409590034
  0
ARC
  5
272
330
1F
100
AcDbEntity
  8
1
  6
Continuous
 62
     3
100
AcDbCircle
 10
471.649968718577
 20
-226.6303028577301
 30
0.0
 40
14.00000000000014
100
AcDbArc
 50
50.30180115945502
 51
129.698198840545
  0
ARC
  5
273
330
1F
100
AcDbEntity
  8
1
  6
Continuous
 62
     3
100
AcDbCircle
 10
471.649968718577
 20
-170.6303028577301
 30
0.0
 40
14.0
100
AcDbArc
 50
-129.6981988405449
 51
-50.3018011594545
  0
ARC
  5
274
330
1F
100
AcDbEntity
  8
1
  6
Continuous
 62
     3
100
AcDbCircle
 10
491.649968718577
 20
-198.63030285773
 30
0.0
 40
2.000000000000004
100
AcDbArc
 50
-70.52877936550705
 51
70.52877936550677
  0
ARC
  5
275
330
1F
100
AcDbEntity
  8
1
  6
Continuous
 62
     3
100
AcDbCircle
 10
392.6499687185772
 20
-305.7417590377318
 30
0.0
 40
5.0
100
AcDbArc
 50
180.0
 51
-131.8103148957791
  0
ARC
  5
276
330
1F
100
AcDbEntity
  8
1
  6
Continuous
 62
     3
100
AcDbCircle
 10
376.6499687185771
 20
-323.63030285773
 30
0.0
 40
19.0
100
AcDbArc
 50
0.0
 51
48.18968510422099
  0
ARC
  5
277
330
1F
100
AcDbEntity
  8
1
  6
Continuous
 62
     3
100
AcDbCircle
 10
376.6499687185771
 20
-323.63030285773
 30
0.0
 40
18.9999999999999
100
AcDbArc
 50
131.8103148957783
 51
0.0
  0
ARC
  5
278
330
1F
100
AcDbEntity
  8
1
  6
Continuous
 62
     3
100
AcDbCircle
 10
360.6499687185772
 20
-305.7417590377316
 30
0.0
 40
5.000000000000088
100
AcDbArc
 50
-48.18968510422172
 51
0.00000000000065
  0
ARC
  5
279
330
1F
100
AcDbEntity
  8
1
  6
Continuous
 62
     3
100
AcDbCircle
 10
367.1236892769482
 20
-343.6889393192589
 30
0.0
 40
16.75436217431067
100
AcDbArc
 50
-71.14552167693749
 51
-55.47318957348894
  0
ARC
  5
27A
330
1F
100
AcDbEntity
  8
1
  6
Continuous
 62
     3
100
AcDbCircle
 10
386.1762481602061
 20
-343.6889393192589
 30
0.0
 40
16.75436217431049
100
AcDbArc
 50
-124.5268104265109
 51
-108.8544783230623
  0
ARC
  5
27B
330
1F
100
AcDbEntity
  8
1
  6
Continuous
 62
     3
100
AcDbCircle
 10
386.1762481602061
 20
-359.4856663962012
 30
0.0
 40
16.7543621743107
100
AcDbArc
 50
108.8544783230623
 51
124.5268104265108
  0
ARC
  5
27C
330
1F
100
AcDbEntity
  8
1
  6
Continuous
 62
     3
100
AcDbCircle
 10
367.1236892769482
 20
-359.4856663962012
 30
0.0
 40
16.75436217431057
100
AcDbArc
 50
55.47318957348905
 51
71.14552167693755
  0
CIRCLE
  5
27D
330
1F
100
AcDbEntity
  8
1
  6
Continuous
 62
     3
100
AcDbCircle
 10
376.6499687185771
 20
-323.63030285773
 30
0.0
 40
16.5
  0
CIRCLE
  5
27E
330
1F
100
AcDbEntity
  8
1
  6
Continuous
 62
     1
100
AcDbCircle
 10
376.6499687185771
 20
-323.63030285773
 30
0.0
 40
13.36294291552429
  0
CIRCLE
  5
27F
330
1F
100
AcDbEntity
  8
1
  6
Continuous
 62
     3
100
AcDbCircle
 10
376.6499687185771
 20
-323.63030285773
 30
0.0
 40
11.76937548629149
  0
CIRCLE
  5
280
330
1F
100
AcDbEntity
  8
1
  6
Continuous
 62
     3
100
AcDbCircle
 10
457.507833094846
 20
-212.7724384814609
 30
0.0
 40
2.5
  0
CIRCLE
  5
281
330
1F
100
AcDbEntity
  8
1
  6
Continuous
 62
     3
100
AcDbCircle
 10
457.507833094846
 20
-184.488167233999
 30
0.0
 40
2.5
  0
CIRCLE
  5
282
330
1F
100
AcDbEntity
  8
1
  6
Continuous
 62
     3
100
AcDbCircle
 10
485.7921043423079
 20
-212.7724384814609
 30
0.0
 40
2.5
  0
CIRCLE
  5
283
330
1F
100
AcDbEntity
  8
1
  6
Continuous
 62
     3
100
AcDbCircle
 10
485.7921043423079
 20
-184.488167233999
 30
0.0
 40
2.5
  0
ARC
  5
284
330
1F
100
AcDbEntity
  8
1
  6
Continuous
 62
     3
100
AcDbCircle
 10
578.9310284477914
 20
-338.1501443726946
 30
0.0
 40
4.999999999999939
100
AcDbArc
 50
175.8945735171133
 51
-149.9999999999989
  0
ARC
  5
285
330
1F
100
AcDbEntity
  8
1
  6
Continuous
 62
     3
100
AcDbCircle
 10
540.8214967324323
 20
-277.13030285773
 30
0.0
 40
1.000000000000227
100
AcDbArc
 50
180.0
 51
-90.00000000000651
  0
ARC
  5
286
330
1F
100
AcDbEntity
  8
1
  6
Continuous
 62
     3
100
AcDbCircle
 10
578.8214967324321
 20
-277.13030285773
 30
0.0
 40
1.0
100
AcDbArc
 50
-90.0
 51
0.0
  0
ARC
  5
287
330
1F
100
AcDbEntity
  8
1
  6
Continuous
 62
     3
100
AcDbCircle
 10
547.8214967324323
 20
-285.6303028577301
 30
0.0
 40
2.000000000000114
100
AcDbArc
 50
180.0
 51
-104.4775121859347
  0
ARC
  5
288
330
1F
100
AcDbEntity
  8
1
  6
Continuous
 62
     3
100
AcDbCircle
 10
546.8214967324323
 20
-289.5032862039374
 30
0.0
 40
1.999999999999886
100
AcDbArc
 50
0.0
 51
75.52248781407411
  0
ARC
  5
289
330
1F
100
AcDbEntity
  8
1
  6
Continuous
 62
     3
100
AcDbCircle
 10
542.8214967324323
 20
-281.13030285773
 30
0.0
 40
2.999999999999886
100
AcDbArc
 50
0.0
 51
90.00000000000217
  0
ARC
  5
28A
330
1F
100
AcDbEntity
  8
1
  6
Continuous
 62
     3
100
AcDbCircle
 10
576.8214967324321
 20
-281.13030285773
 30
0.0
 40
3.0
100
AcDbArc
 50
90.0
 51
180.0
  0
ARC
  5
28B
330
1F
100
AcDbEntity
  8
1
  6
Continuous
 62
     3
100
AcDbCircle
 10
571.8214967324321
 20
-285.6303028577301
 30
0.0
 40
1.999999999999788
100
AcDbArc
 50
-75.52248781406851
 51
0.0
  0
ARC
  5
28C
330
1F
100
AcDbEntity
  8
1
  6
Continuous
 62
     3
100
AcDbCircle
 10
572.8214967324321
 20
-289.5032862039374
 30
0.0
 40
2.000000000000118
100
AcDbArc
 50
104.4775121859291
 51
180.0
  0
ARC
  5
28D
330
1F
100
AcDbEntity
  8
1
  6
Continuous
 62
     3
100
AcDbCircle
 10
632.9154330351627
 20
-344.13030285773
 30
0.0
 40
0.500000000000041
100
AcDbArc
 50
-29.99999999999729
 51
90.0
  0
ARC
  5
28E
330
1F
100
AcDbEntity
  8
1
  6
Continuous
 62
     3
100
AcDbCircle
 10
669.0906468743281
 20
-342.3101244308133
 30
0.0
 40
1.999999999999918
100
AcDbArc
 50
59.99999999999865
 51
180.0
  0
ARC
  5
28F
330
1F
100
AcDbEntity
  8
1
  6
Continuous
 62
     3
100
AcDbCircle
 10
630.3150851583129
 20
-276.13030285773
 30
0.0
 40
2.0
100
AcDbArc
 50
180.0
 51
-90.0
  0
ARC
  5
290
330
1F
100
AcDbEntity
  8
1
  6
Continuous
 62
     3
100
AcDbCircle
 10
637.315085158313
 20
-289.5032862039374
 30
0.0
 40
2.0
100
AcDbArc
 50
0.0
 51
75.52248781407096
  0
ARC
  5
291
330
1F
100
AcDbEntity
  8
1
  6
Continuous
 62
     3
100
AcDbCircle
 10
638.315085158313
 20
-285.6303028577301
 30
0.0
 40
2.0
100
AcDbArc
 50
180.0
 51
-104.4775121859315
  0
ARC
  5
292
330
1F
100
AcDbEntity
  8
1
  6
Continuous
 62
     3
100
AcDbCircle
 10
633.315085158313
 20
-281.13030285773
 30
0.0
 40
3.0
100
AcDbArc
 50
0.0
 51
90.0
  0
ARC
  5
293
330
1F
100
AcDbEntity
  8
1
  6
Continuous
 62
     3
100
AcDbCircle
 10
667.315085158313
 20
-281.13030285773
 30
0.0
 40
3.0
100
AcDbArc
 50
90.0
 51
180.0
  0
ARC
  5
294
330
1F
100
AcDbEntity
  8
1
  6
Continuous
 62
     3
100
AcDbCircle
 10
663.315085158313
 20
-289.5032862039374
 30
0.0
 40
2.000000000000118
100
AcDbArc
 50
104.4775121859291
 51
180.0
  0
ARC
  5
295
330
1F
100
AcDbEntity
  8
1
  6
Continuous
 62
     3
100
AcDbCircle
 10
662.315085158313
 20
-285.6303028577301
 30
0.0
 40
1.999999999999788
100
AcDbArc
 50
-75.52248781406851
 51
0.0
  0
ARC
  5
296
330
1F
100
AcDbEntity
  8
1
  6
Continuous
 62
     3
100
AcDbCircle
 10
631.3150851583129
 20
-277.13030285773
 30
0.0
 40
1.0
100
AcDbArc
 50
180.0
 51
-89.99999999999349
  0
ARC
  5
297
330
1F
100
AcDbEntity
  8
1
  6
Continuous
 62
     3
100
AcDbCircle
 10
666.315085158313
 20
-302.6424997938916
 30
0.0
 40
5.0
100
AcDbArc
 50
180.0
 51
-111.3236862634984
  0
ARC
  5
298
330
1F
100
AcDbEntity
  8
1
  6
Continuous
 62
     3
100
AcDbCircle
 10
634.315085158313
 20
-299.63030285773
 30
0.0
 40
5.000000000000074
100
AcDbArc
 50
-84.52360790055553
 51
0.0
  0
ARC
  5
299
330
1F
100
AcDbEntity
  8
1
  6
Continuous
 62
     3
100
AcDbCircle
 10
666.8570131310722
 20
-304.0721603922317
 30
0.0
 40
3.878110411033581
100
AcDbArc
 50
-111.7423661422878
 51
-58.95473644602242
  0
ARC
  5
29A
330
1F
100
AcDbEntity
  8
1
  6
Continuous
 62
     3
100
AcDbCircle
 10
669.315085158313
 20
-277.13030285773
 30
0.0
 40
1.0
100
AcDbArc
 50
-90.0
 51
0.0
  0
ARC
  5
29B
330
1F
100
AcDbEntity
  8
1
  6
Continuous
 62
     3
100
AcDbCircle
 10
452.6499687185771
 20
-277.13030285773
 30
0.0
 40
1.000000000000227
100
AcDbArc
 50
180.0
 51
-90.00000000000651
  0
ARC
  5
29C
330
1F
100
AcDbEntity
  8
1
  6
Continuous
 62
     3
100
AcDbCircle
 10
455.1080407458179
 20
-304.0721603922317
 30
0.0
 40
3.87811041103367
100
AcDbArc
 50
-121.0452635539776
 51
-68.25763385771293
  0
ARC
  5
29D
330
1F
100
AcDbEntity
  8
1
  6
Continuous
 62
     3
100
AcDbCircle
 10
487.6499687185771
 20
-299.63030285773
 30
0.0
 40
5.0
100
AcDbArc
 50
180.0
 51
-95.47639209944383
  0
ARC
  5
29E
330
1F
100
AcDbEntity
  8
1
  6
Continuous
 62
     3
100
AcDbCircle
 10
455.6499687185771
 20
-302.6424997938916
 30
0.0
 40
5.000000000000057
100
AcDbArc
 50
-68.67631373650099
 51
0.0
  0
ARC
  5
29F
330
1F
100
AcDbEntity
  8
1
  6
Continuous
 62
     3
100
AcDbCircle
 10
490.649968718577
 20
-277.13030285773
 30
0.0
 40
1.0
100
AcDbArc
 50
-90.0
 51
0.0
  0
ARC
  5
2A0
330
1F
100
AcDbEntity
  8
1
  6
Continuous
 62
     3
100
AcDbCircle
 10
459.6499687185771
 20
-285.6303028577301
 30
0.0
 40
2.000000000000114
100
AcDbArc
 50
180.0
 51
-104.4775121859347
  0
ARC
  5
2A1
330
1F
100
AcDbEntity
  8
1
  6
Continuous
 62
     3
100
AcDbCircle
 10
458.6499687185771
 20
-289.5032862039374
 30
0.0
 40
1.999999999999886
100
AcDbArc
 50
0.0
 51
75.52248781407411
  0
ARC
  5
2A2
330
1F
100
AcDbEntity
  8
1
  6
Continuous
 62
     3
100
AcDbCircle
 10
454.6499687185771
 20
-281.13030285773
 30
0.0
 40
2.999999999999886
100
AcDbArc
 50
0.0
 51
90.00000000000217
  0
ARC
  5
2A3
330
1F
100
AcDbEntity
  8
1
  6
Continuous
 62
     3
100
AcDbCircle
 10
488.649968718577
 20
-281.13030285773
 30
0.0
 40
3.0
100
AcDbArc
 50
90.0
 51
180.0
  0
ARC
  5
2A4
330
1F
100
AcDbEntity
  8
1
  6
Continuous
 62
     3
100
AcDbCircle
 10
483.649968718577
 20
-285.6303028577301
 30
0.0
 40
1.999999999999788
100
AcDbArc
 50
-75.52248781406851
 51
0.0
  0
ARC
  5
2A5
330
1F
100
AcDbEntity
  8
1
  6
Continuous
 62
     3
100
AcDbCircle
 10
484.649968718577
 20
-289.5032862039374
 30
0.0
 40
2.000000000000118
100
AcDbArc
 50
104.4775121859291
 51
180.0
  0
ARC
  5
2A6
330
1F
100
AcDbEntity
  8
1
  6
Continuous
 62
     3
100
AcDbCircle
 10
491.6499687185772
 20
-276.13030285773
 30
0.0
 40
2.0
100
AcDbArc
 50
-90.0
 51
0.0
  0
ARC
  5
2A7
330
1F
100
AcDbEntity
  8
1
  6
Continuous
 62
     3
100
AcDbCircle
 10
452.874407002562
 20
-342.3101244308133
 30
0.0
 40
2.0
100
AcDbArc
 50
0.0
 51
120.0000000000014
  0
ARC
  5
2A8
330
1F
100
AcDbEntity
  8
1
  6
Continuous
 62
     3
100
AcDbCircle
 10
489.0496208417274
 20
-344.13030285773
 30
0.0
 40
0.5
100
AcDbArc
 50
90.0
 51
-150.000000000006
  0
ARC
  5
2A9
330
1F
100
AcDbEntity
  8
1
  6
Continuous
 62
     3
100
AcDbCircle
 10
470.6603191513532
 20
-321.6292239974573
 30
0.0
 40
2.001078860272571
100
AcDbArc
 50
-90.0
 51
0.0
  0
ARC
  5
2AA
330
1F
100
AcDbEntity
  8
1
  6
Continuous
 62
     3
100
AcDbCircle
 10
457.649968718577
 20
-184.6303028577301
 30
0.0
 40
6.0
100
AcDbArc
 50
90.0
 51
180.0
  0
ARC
  5
2AB
330
1F
100
AcDbEntity
  8
1
  6
Continuous
 62
     3
100
AcDbCircle
 10
457.649968718577
 20
-212.63030285773
 30
0.0
 40
6.000000000000114
100
AcDbArc
 50
-90.0
 51
-32.54901099750765
  0
ARC
  5
2AC
330
1F
100
AcDbEntity
  8
1
  6
Continuous
 62
     3
100
AcDbCircle
 10
485.649968718577
 20
-212.63030285773
 30
0.0
 40
5.99999999999996
100
AcDbArc
 50
-147.4509890024924
 51
0.0
  0
ARC
  5
2AD
330
1F
100
AcDbEntity
  8
1
  6
Continuous
 62
     3
100
AcDbCircle
 10
457.649968718577
 20
-184.6303028577301
 30
0.0
 40
6.000000000000041
100
AcDbArc
 50
32.54901099750684
 51
90.0
  0
ARC
  5
2AE
330
1F
100
AcDbEntity
  8
1
  6
Continuous
 62
     3
100
AcDbCircle
 10
457.649968718577
 20
-212.63030285773
 30
0.0
 40
6.0
100
AcDbArc
 50
180.0
 51
-90.0
  0
ARC
  5
2AF
330
1F
100
AcDbEntity
  8
1
  6
Continuous
 62
     3
100
AcDbCircle
 10
485.649968718577
 20
-184.6303028577301
 30
0.0
 40
6.0
100
AcDbArc
 50
0.0
 51
147.4509890024917
  0
ARC
  5
2B0
330
1F
100
AcDbEntity
  8
1
  6
Continuous
 62
     3
100
AcDbCircle
 10
492.649968718577
 20
-201.4587299824762
 30
0.0
 40
1.000000000000018
100
AcDbArc
 50
109.4712206344857
 51
180.0
  0
ARC
  5
2B1
330
1F
100
AcDbEntity
  8
1
  6
Continuous
 62
     3
100
AcDbCircle
 10
492.649968718577
 20
-195.8018757329838
 30
0.0
 40
1.0
100
AcDbArc
 50
180.0
 51
-109.4712206344857
  0
ARC
  5
2B2
330
1F
100
AcDbEntity
  8
1
  6
Continuous
 62
     3
100
AcDbCircle
 10
389.6499687185771
 20
-289.5032862039374
 30
0.0
 40
2.000000000000118
100
AcDbArc
 50
104.4775121859291
 51
180.0
  0
ARC
  5
2B3
330
1F
100
AcDbEntity
  8
1
  6
Continuous
 62
     3
100
AcDbCircle
 10
388.6499687185771
 20
-285.6303028577301
 30
0.0
 40
1.999999999999788
100
AcDbArc
 50
-75.52248781406851
 51
0.0
  0
ARC
  5
2B4
330
1F
100
AcDbEntity
  8
1
  6
Continuous
 62
     3
100
AcDbCircle
 10
393.6499687185771
 20
-281.13030285773
 30
0.0
 40
3.0
100
AcDbArc
 50
90.0
 51
180.0
  0
ARC
  5
2B5
330
1F
100
AcDbEntity
  8
1
  6
Continuous
 62
     3
100
AcDbCircle
 10
359.6499687185772
 20
-281.13030285773
 30
0.0
 40
2.999999999999886
100
AcDbArc
 50
0.0
 51
90.00000000000217
  0
ARC
  5
2B6
330
1F
100
AcDbEntity
  8
1
  6
Continuous
 62
     3
100
AcDbCircle
 10
363.6499687185772
 20
-289.5032862039374
 30
0.0
 40
1.999999999999886
100
AcDbArc
 50
0.0
 51
75.52248781407411
  0
ARC
  5
2B7
330
1F
100
AcDbEntity
  8
1
  6
Continuous
 62
     3
100
AcDbCircle
 10
364.6499687185772
 20
-285.6303028577301
 30
0.0
 40
2.000000000000114
100
AcDbArc
 50
180.0
 51
-104.4775121859347
  0
ARC
  5
2B8
330
1F
100
AcDbEntity
  8
1
  6
Continuous
 62
     3
100
AcDbCircle
 10
395.6499687185771
 20
-277.13030285773
 30
0.0
 40
1.0
100
AcDbArc
 50
-90.0
 51
0.0
  0
ARC
  5
2B9
330
1F
100
AcDbEntity
  8
1
  6
Continuous
 62
     3
100
AcDbCircle
 10
357.6499687185772
 20
-277.13030285773
 30
0.0
 40
1.000000000000227
100
AcDbArc
 50
180.0
 51
-90.00000000000651
  0
ARC
  5
2BA
330
1F
100
AcDbEntity
  8
1
  6
Continuous
 62
     3
100
AcDbCircle
 10
395.7595004339364
 20
-338.1501443726946
 30
0.0
 40
5.000000000000061
100
AcDbArc
 50
142.7716333093728
 51
-149.9999999999996
  0
ARC
  5
2BB
330
1F
100
AcDbEntity
  8
1
  6
Continuous
 62
     3
100
AcDbCircle
 10
357.5404370032181
 20
-338.1501443726946
 30
0.0
 40
4.999999999999897
100
AcDbArc
 50
-30.00000000000144
 51
37.22836669062718
  0
TEXT
  5
2BD
330
1F
100
AcDbEntity
  8
1
 62
     1
100
AcDbText
 10
632.0743241647431
 20
-325.4671286699648
 30
0.0
 40
4.0
  1
VY5303A002
 41
0.855
  7
CONVERTER_2
100
AcDbText
  0
MTEXT
  5
2BF
330
1F
100
AcDbEntity
  8
1
 62
     3
100
AcDbMText
 10
471.649968718577
 20
-329.6303028577299
 30
0.0
 40
5.0
 41
0.0
 71
     2
 72
     1
  1
PN16
  7
CONVERTER_3
 73
     1
 44
0.84033613445378
  0
MTEXT
  5
2C1
330
1F
100
AcDbEntity
  8
1
 62
     3
100
AcDbMText
 10
471.649968718577
 20
-317.6303028577299
 30
0.0
 40
5.0
 41
0.0
 71
     8
 72
     1
  1
20
  7
CONVERTER_4
 73
     1
 44
0.84033613445378
  0
ENDSEC
  0
SECTION
  2
OBJECTS
  0
DICTIONARY
  5
C
330
0
100
AcDbDictionary
281
     1
  3
ACAD_GROUP
350
D
  3
ACAD_LAYOUT
350
1A
  3
ACAD_MLINESTYLE
350
17
  3
ACAD_PLOTSETTINGS
350
19
  3
ACAD_PLOTSTYLENAME
350
E
  0
DICTIONARY
  5
D
102
{ACAD_REACTORS
330
C
102
}
330
C
100
AcDbDictionary
281
     1
  0
DICTIONARY
  5
1A
102
{ACAD_REACTORS
330
C
102
}
330
C
100
AcDbDictionary
281
     1
  3
Layout1
350
1E
  3
Layout2
350
26
  3
Model
350
22
  0
DICTIONARY
  5
17
102
{ACAD_REACTORS
330
C
102
}
330
C
100
AcDbDictionary
281
     1
  3
Standard
350
18
  0
DICTIONARY
  5
19
102
{ACAD_REACTORS
330
C
102
}
330
C
100
AcDbDictionary
281
     1
  0
ACDBDICTIONARYWDFLT
  5
E
102
{ACAD_REACTORS
330
C
102
}
330
C
100
AcDbDictionary
281
     1
  3
Normal
350
F
100
AcDbDictionaryWithDefault
340
F
  0
LAYOUT
  5
1E
102
{ACAD_REACTORS
330
1A
102
}
330
1A
100
AcDbPlotSettings
  1

  2

  4

  6

 40
0.0
 41
0.0
 42
0.0
 43
0.0
 44
0.0
 45
0.0
 46
0.0
 47
0.0
 48
0.0
 49
0.0
140
0.0
141
0.0
142
1.0
143
1.0
 70
   688
 72
     0
 73
     0
 74
     5
  7

 75
    16
147
1.0
148
0.0
149
0.0
100
AcDbLayout
  1
Layout1
 70
     1
 71
     1
 10
0.0
 20
0.0
 11
0.0
 21
0.0
 12
0.0
 22
0.0
 32
0.0
 14
0.0
 24
0.0
 34
0.0
 15
0.0
 25
0.0
 35
0.0
146
0.0
 13
0.0
 23
0.0
 33
0.0
 16
1.0
 26
0.0
 36
0.0
 17
0.0
 27
1.0
 37
0.0
 76
     0
330
1B
  0
LAYOUT
  5
26
102
{ACAD_REACTORS
330
1A
102
}
330
1A
100
AcDbPlotSettings
  1

  2

  4

  6

 40
0.0
 41
0.0
 42
0.0
 43
0.0
 44
0.0
 45
0.0
 46
0.0
 47
0.0
 48
0.0
 49
0.0
140
0.0
141
0.0
142
1.0
143
1.0
 70
   688
 72
     0
 73
     0
 74
     5
  7

 75
    16
147
1.0
148
0.0
149
0.0
100
AcDbLayout
  1
Layout2
 70
     1
 71
     2
 10
0.0
 20
0.0
 11
0.0
 21
0.0
 12
0.0
 22
0.0
 32
0.0
 14
0.0
 24
0.0
 34
0.0
 15
0.0
 25
0.0
 35
0.0
146
0.0
 13
0.0
 23
0.0
 33
0.0
 16
1.0
 26
0.0
 36
0.0
 17
0.0
 27
1.0
 37
0.0
 76
     0
330
23
  0
LAYOUT
  5
22
102
{ACAD_REACTORS
330
1A
102
}
330
1A
100
AcDbPlotSettings
  1

  2

  4

  6

 40
0.0
 41
0.0
 42
0.0
 43
0.0
 44
0.0
 45
0.0
 46
0.0
 47
0.0
 48
0.0
 49
0.0
140
0.0
141
0.0
142
1.0
143
1.0
 70
  1712
 72
     0
 73
     0
 74
     0
  7

 75
     0
147
1.0
148
0.0
149
0.0
100
AcDbLayout
  1
Model
 70
     1
 71
     0
 10
0.0
 20
0.0
 11
0.0
 21
0.0
 12
0.0
 22
0.0
 32
0.0
 14
355.191917380488
 24
-363.957158815897
 34
0.0
 15
688.315085158313
 25
-175.6303028577302
 35
0.0
146
0.0
 13
0.0
 23
0.0
 33
0.0
 16
1.0
 26
0.0
 36
0.0
 17
0.0
 27
1.0
 37
0.0
 76
     0
330
1F
  0
MLINESTYLE
  5
18
102
{ACAD_REACTORS
330
17
102
}
330
17
100
AcDbMlineStyle
  2
Standard
 70
     0
  3

 62
   256
 51
90.0
 52
90.0
 71
     2
 49
0.5
 62
   256
  6
BYLAYER
 49
-0.5
 62
   256
  6
BYLAYER
  0
ACDBPLACEHOLDER
  5
F
102
{ACAD_REACTORS
330
E
102
}
330
E
  0
ENDSEC
  0
EOF
