  0
SECTION
  2
HEADER
  9
$ACADVER
  1
AC1015
  9
$ACADMAINTVER
 70
     6
  9
$DWGCODEPAGE
  3
ANSI_1252
  9
$INSBASE
 10
0.0
 20
0.0
 30
0.0
  9
$EXTMIN
 10
310.507384558913
 20
-1272.67910772598
 30
0.0
  9
$EXTMAX
 10
758.6499687185763
 20
-1029.132282148272
 30
0.0
  9
$LIMMIN
 10
0.0
 20
0.0
  9
$LIMMAX
 10
12.0
 20
9.0
  9
$ORTHOMODE
 70
     0
  9
$REGENMODE
 70
     1
  9
$FILLMODE
 70
     1
  9
$QTEXTMODE
 70
     0
  9
$MIRRTEXT
 70
     1
  9
$LTSCALE
 40
1.0
  9
$ATTMODE
 70
     1
  9
$TEXTSIZE
 40
0.2
  9
$TRACEWID
 40
0.05
  9
$TEXTSTYLE
  7
Standard
  9
$CLAYER
  8
0
  9
$CELTYPE
  6
ByLayer
  9
$CECOLOR
 62
   256
  9
$CELTSCALE
 40
1.0
  9
$DISPSILH
 70
     0
  9
$DIMSCALE
 40
1.0
  9
$DIMASZ
 40
0.18
  9
$DIMEXO
 40
0.0625
  9
$DIMDLI
 40
0.38
  9
$DIMRND
 40
0.0
  9
$DIMDLE
 40
0.0
  9
$DIMEXE
 40
0.18
  9
$DIMTP
 40
0.0
  9
$DIMTM
 40
0.0
  9
$DIMTXT
 40
0.18
  9
$DIMCEN
 40
0.09
  9
$DIMTSZ
 40
0.0
  9
$DIMTOL
 70
     0
  9
$DIMLIM
 70
     0
  9
$DIMTIH
 70
     1
  9
$DIMTOH
 70
     1
  9
$DIMSE1
 70
     0
  9
$DIMSE2
 70
     0
  9
$DIMTAD
 70
     0
  9
$DIMZIN
 70
     0
  9
$DIMBLK
  1

  9
$DIMASO
 70
     1
  9
$DIMSHO
 70
     1
  9
$DIMPOST
  1

  9
$DIMAPOST
  1

  9
$DIMALT
 70
     0
  9
$DIMALTD
 70
     2
  9
$DIMALTF
 40
25.4
  9
$DIMLFAC
 40
1.0
  9
$DIMTOFL
 70
     0
  9
$DIMTVP
 40
0.0
  9
$DIMTIX
 70
     0
  9
$DIMSOXD
 70
     0
  9
$DIMSAH
 70
     0
  9
$DIMBLK1
  1

  9
$DIMBLK2
  1

  9
$DIMSTYLE
  2
Standard
  9
$DIMCLRD
 70
     0
  9
$DIMCLRE
 70
     0
  9
$DIMCLRT
 70
     0
  9
$DIMTFAC
 40
1.0
  9
$DIMGAP
 40
0.09
  9
$DIMJUST
 70
     0
  9
$DIMSD1
 70
     0
  9
$DIMSD2
 70
     0
  9
$DIMTOLJ
 70
     1
  9
$DIMTZIN
 70
     0
  9
$DIMALTZ
 70
     0
  9
$DIMALTTZ
 70
     0
  9
$DIMUPT
 70
     0
  9
$DIMDEC
 70
     4
  9
$DIMTDEC
 70
     4
  9
$DIMALTU
 70
     2
  9
$DIMALTTD
 70
     2
  9
$DIMTXSTY
  7
Standard
  9
$DIMAUNIT
 70
     0
  9
$DIMADEC
 70
     0
  9
$DIMALTRND
 40
0.0
  9
$DIMAZIN
 70
     0
  9
$DIMDSEP
 70
    46
  9
$DIMATFIT
 70
     3
  9
$DIMFRAC
 70
     0
  9
$DIMLDRBLK
  1

  9
$DIMLUNIT
 70
     2
  9
$DIMLWD
 70
    -2
  9
$DIMLWE
 70
    -2
  9
$DIMTMOVE
 70
     0
  9
$LUNITS
 70
     2
  9
$LUPREC
 70
     4
  9
$SKETCHINC
 40
0.1
  9
$FILLETRAD
 40
0.5
  9
$AUNITS
 70
     0
  9
$AUPREC
 70
     0
  9
$MENU
  1
.
  9
$ELEVATION
 40
0.0
  9
$PELEVATION
 40
0.0
  9
$THICKNESS
 40
0.0
  9
$LIMCHECK
 70
     0
  9
$CHAMFERA
 40
0.5
  9
$CHAMFERB
 40
0.5
  9
$CHAMFERC
 40
1.0
  9
$CHAMFERD
 40
0.0
  9
$SKPOLY
 70
     0
  9
$TDCREATE
 40
2455075.625307431
  9
$TDUCREATE
 40
2455075.250307431
  9
$TDUPDATE
 40
2455075.625307442
  9
$TDUUPDATE
 40
2455075.250307442
  9
$TDINDWG
 40
0.0000000116
  9
$TDUSRTIMER
 40
0.0000000116
  9
$USRTIMER
 70
     1
  9
$ANGBASE
 50
0.0
  9
$ANGDIR
 70
     0
  9
$PDMODE
 70
     0
  9
$PDSIZE
 40
0.0
  9
$PLINEWID
 40
0.0
  9
$SPLFRAME
 70
     0
  9
$SPLINETYPE
 70
     6
  9
$SPLINESEGS
 70
     8
  9
$HANDSEED
  5
3BA
  9
$SURFTAB1
 70
     6
  9
$SURFTAB2
 70
     6
  9
$SURFTYPE
 70
     6
  9
$SURFU
 70
     6
  9
$SURFV
 70
     6
  9
$UCSBASE
  2

  9
$UCSNAME
  2

  9
$UCSORG
 10
0.0
 20
0.0
 30
0.0
  9
$UCSXDIR
 10
1.0
 20
0.0
 30
0.0
  9
$UCSYDIR
 10
0.0
 20
1.0
 30
0.0
  9
$UCSORTHOREF
  2

  9
$UCSORTHOVIEW
 70
     0
  9
$UCSORGTOP
 10
0.0
 20
0.0
 30
0.0
  9
$UCSORGBOTTOM
 10
0.0
 20
0.0
 30
0.0
  9
$UCSORGLEFT
 10
0.0
 20
0.0
 30
0.0
  9
$UCSORGRIGHT
 10
0.0
 20
0.0
 30
0.0
  9
$UCSORGFRONT
 10
0.0
 20
0.0
 30
0.0
  9
$UCSORGBACK
 10
0.0
 20
0.0
 30
0.0
  9
$PUCSBASE
  2

  9
$PUCSNAME
  2

  9
$PUCSORG
 10
0.0
 20
0.0
 30
0.0
  9
$PUCSXDIR
 10
1.0
 20
0.0
 30
0.0
  9
$PUCSYDIR
 10
0.0
 20
1.0
 30
0.0
  9
$PUCSORTHOREF
  2

  9
$PUCSORTHOVIEW
 70
     0
  9
$PUCSORGTOP
 10
0.0
 20
0.0
 30
0.0
  9
$PUCSORGBOTTOM
 10
0.0
 20
0.0
 30
0.0
  9
$PUCSORGLEFT
 10
0.0
 20
0.0
 30
0.0
  9
$PUCSORGRIGHT
 10
0.0
 20
0.0
 30
0.0
  9
$PUCSORGFRONT
 10
0.0
 20
0.0
 30
0.0
  9
$PUCSORGBACK
 10
0.0
 20
0.0
 30
0.0
  9
$USERI1
 70
     0
  9
$USERI2
 70
     0
  9
$USERI3
 70
     0
  9
$USERI4
 70
     0
  9
$USERI5
 70
     0
  9
$USERR1
 40
14.0
  9
$USERR2
 40
0.0
  9
$USERR3
 40
0.0
  9
$USERR4
 40
0.0
  9
$USERR5
 40
0.0
  9
$WORLDVIEW
 70
     1
  9
$SHADEDGE
 70
     3
  9
$SHADEDIF
 70
    70
  9
$TILEMODE
 70
     1
  9
$MAXACTVP
 70
    64
  9
$PINSBASE
 10
0.0
 20
0.0
 30
0.0
  9
$PLIMCHECK
 70
     0
  9
$PEXTMIN
 10
1.00000000000000E+20
 20
1.00000000000000E+20
 30
1.00000000000000E+20
  9
$PEXTMAX
 10
-1.00000000000000E+20
 20
-1.00000000000000E+20
 30
-1.00000000000000E+20
  9
$PLIMMIN
 10
0.0
 20
0.0
  9
$PLIMMAX
 10
12.0
 20
9.0
  9
$UNITMODE
 70
     0
  9
$VISRETAIN
 70
     1
  9
$PLINEGEN
 70
     0
  9
$PSLTSCALE
 70
     1
  9
$TREEDEPTH
 70
  3020
  9
$CMLSTYLE
  2
Standard
  9
$CMLJUST
 70
     0
  9
$CMLSCALE
 40
1.0
  9
$PROXYGRAPHICS
 70
     1
  9
$MEASUREMENT
 70
     1
  9
$CELWEIGHT
370
    -1
  9
$ENDCAPS
280
     0
  9
$JOINSTYLE
280
     0
  9
$LWDISPLAY
290
     0
  9
$INSUNITS
 70
     1
  9
$HYPERLINKBASE
  1

  9
$STYLESHEET
  1

  9
$XEDIT
290
     1
  9
$CEPSNTYPE
380
     0
  9
$PSTYLEMODE
290
     1
  9
$FINGERPRINTGUID
  2
{63CA1CC1-0904-4F18-891F-5BBEE554FC1F}
  9
$VERSIONGUID
  2
{FAEB1C32-E019-11D5-929B-00C0DF256EC4}
  9
$EXTNAMES
290
     1
  9
$PSVPSCALE
 40
0.0
  9
$OLESTARTUP
290
     0
  0
ENDSEC
  0
SECTION
  2
CLASSES
  0
CLASS
  1
ACDBDICTIONARYWDFLT
  2
AcDbDictionaryWithDefault
  3
ObjectDBX Classes
 90
        0
280
     0
281
     0
  0
CLASS
  1

  2
exOdDbCircle
  3

 90
        0
280
     0
281
     1
  0
CLASS
  1

  2
exOdDbPolyline
  3

 90
        0
280
     0
281
     1
  0
CLASS
  1
ACDBPLACEHOLDER
  2
AcDbPlaceHolder
  3
ObjectDBX Classes
 90
        0
280
     0
281
     0
  0
CLASS
  1
LAYOUT
  2
AcDbLayout
  3
ObjectDBX Classes
 90
        0
280
     0
281
     0
  0
ENDSEC
  0
SECTION
  2
TABLES
  0
TABLE
  2
VPORT
  5
8
330
0
100
AcDbSymbolTable
 70
     1
  0
VPORT
  5
29
330
8
100
AcDbSymbolTableRecord
100
AcDbViewportTableRecord
  2
*Active
 70
     0
 10
0.0
 20
0.0
 11
1.0
 21
1.0
 12
534.5786766387446
 22
-1150.905694937126
 13
0.0
 23
0.0
 14
0.5
 24
0.5
 15
0.5
 25
0.5
 16
0.0
 26
0.0
 36
1.0
 17
0.0
 27
0.0
 37
0.0
 40
307.5830995457969
 41
1.60267857142857
 42
50.0
 43
0.0
 44
0.0
 50
0.0
 51
0.0
 71
     0
 72
   100
 73
     1
 74
     3
 75
     0
 76
     0
 77
     0
 78
     0
281
     0
 65
     1
110
0.0
120
0.0
130
0.0
111
1.0
121
0.0
131
0.0
112
0.0
122
1.0
132
0.0
 79
     0
146
0.0
  0
ENDTAB
  0
TABLE
  2
LTYPE
  5
5
330
0
100
AcDbSymbolTable
 70
     8
  0
LTYPE
  5
14
330
5
100
AcDbSymbolTableRecord
100
AcDbLinetypeTableRecord
  2
ByBlock
 70
     0
  3

 72
    65
 73
     0
 40
0.0
  0
LTYPE
  5
15
330
5
100
AcDbSymbolTableRecord
100
AcDbLinetypeTableRecord
  2
ByLayer
 70
     0
  3

 72
    65
 73
     0
 40
0.0
  0
LTYPE
  5
16
330
5
100
AcDbSymbolTableRecord
100
AcDbLinetypeTableRecord
  2
Continuous
 70
     0
  3
Solid line
 72
    65
 73
     0
 40
0.0
  0
LTYPE
  5
2A
330
5
100
AcDbSymbolTableRecord
100
AcDbLinetypeTableRecord
  2
DASHED
 70
     0
  3
Dashed
 72
    65
 73
     2
 40
15.0
 49
7.0
 74
     0
 49
-8.0
 74
     0
  0
LTYPE
  5
2B
330
5
100
AcDbSymbolTableRecord
100
AcDbLinetypeTableRecord
  2
DOTTED
 70
     0
  3
Dotted
 72
    65
 73
     2
 40
1.0
 49
0.0
 74
     0
 49
-1.0
 74
     0
  0
LTYPE
  5
2C
330
5
100
AcDbSymbolTableRecord
100
AcDbLinetypeTableRecord
  2
DOT_CENTER
 70
     0
  3
Dot_Center
 72
    65
 73
     4
 40
14.0
 49
12.0
 74
     0
 49
-1.0
 74
     0
 49
0.0
 74
     0
 49
-1.0
 74
     0
  0
LTYPE
  5
2D
330
5
100
AcDbSymbolTableRecord
100
AcDbLinetypeTableRecord
  2
LONG_DASHED
 70
     0
  3
Long_Dashed
 72
    65
 73
     2
 40
15.0
 49
10.0
 74
     0
 49
-5.0
 74
     0
  0
LTYPE
  5
2E
330
5
100
AcDbSymbolTableRecord
100
AcDbLinetypeTableRecord
  2
DASH_CENTER
 70
     0
  3
Dash_Center
 72
    65
 73
     4
 40
14.0
 49
11.0
 74
     0
 49
-1.0
 74
     0
 49
1.0
 74
     0
 49
-1.0
 74
     0
  0
LTYPE
  5
2F
330
5
100
AcDbSymbolTableRecord
100
AcDbLinetypeTableRecord
  2
PHANTOM
 70
     0
  3
Phantom
 72
    65
 73
     6
 40
13.0
 49
10.0
 74
     0
 49
-1.0
 74
     0
 49
0.0
 74
     0
 49
-1.0
 74
     0
 49
0.0
 74
     0
 49
-1.0
 74
     0
  0
LTYPE
  5
30
330
5
100
AcDbSymbolTableRecord
100
AcDbLinetypeTableRecord
  2
CENTER_DASH_DASH
 70
     0
  3
Center_Dash_Dash
 72
    65
 73
     6
 40
14.0
 49
9.0
 74
     0
 49
-1.0
 74
     0
 49
1.0
 74
     0
 49
-1.0
 74
     0
 49
1.0
 74
     0
 49
-1.0
 74
     0
  0
ENDTAB
  0
TABLE
  2
LAYER
  5
2
330
0
100
AcDbSymbolTable
 70
     3
  0
LAYER
  5
10
330
2
100
AcDbSymbolTableRecord
100
AcDbLayerTableRecord
  2
0
 70
     0
 62
     7
  6
Continuous
370
    -3
390
F
  0
LAYER
  5
31
330
2
100
AcDbSymbolTableRecord
100
AcDbLayerTableRecord
  2
1
 70
     0
 62
     7
  6
Continuous
370
    -3
390
F
  0
LAYER
  5
32
330
2
100
AcDbSymbolTableRecord
100
AcDbLayerTableRecord
  2
6_ALL_DRFT_GEOM
 70
     0
 62
     7
  6
Continuous
370
    -3
390
F
  0
ENDTAB
  0
TABLE
  2
STYLE
  5
3
330
0
100
AcDbSymbolTable
 70
     3
  0
STYLE
  5
11
330
3
100
AcDbSymbolTableRecord
100
AcDbTextStyleTableRecord
  2
Standard
 70
     0
 40
0.0
 41
1.0
 50
0.0
 71
     0
 42
0.2
  3
txt
  4

  0
STYLE
  5
E5
330
3
100
AcDbSymbolTableRecord
100
AcDbTextStyleTableRecord
  2
CONVERTER_1
 70
     0
 40
0.0
 41
0.9
 50
0.0
 71
     0
 42
0.2
  3
txt.shx
  4

  0
STYLE
  5
3B8
330
3
100
AcDbSymbolTableRecord
100
AcDbTextStyleTableRecord
  2
CONVERTER_2
 70
     0
 40
0.0
 41
0.855
 50
0.0
 71
     0
 42
0.2
  3
complex.shx
  4

  0
ENDTAB
  0
TABLE
  2
VIEW
  5
6
330
0
100
AcDbSymbolTable
 70
     0
  0
ENDTAB
  0
TABLE
  2
UCS
  5
7
330
0
100
AcDbSymbolTable
 70
     0
  0
ENDTAB
  0
TABLE
  2
APPID
  5
9
330
0
100
AcDbSymbolTable
 70
     1
  0
APPID
  5
12
330
9
100
AcDbSymbolTableRecord
100
AcDbRegAppTableRecord
  2
ACAD
 70
     0
  0
ENDTAB
  0
TABLE
  2
DIMSTYLE
  5
A
330
0
100
AcDbSymbolTable
 70
     1
100
AcDbDimStyleTable
  0
DIMSTYLE
105
27
330
A
100
AcDbSymbolTableRecord
100
AcDbDimStyleTableRecord
  2
Standard
 70
     0
340
11
  0
ENDTAB
  0
TABLE
  2
BLOCK_RECORD
  5
1
330
0
100
AcDbSymbolTable
 70
     7
  0
BLOCK_RECORD
  5
1F
330
1
100
AcDbSymbolTableRecord
100
AcDbBlockTableRecord
  2
*Model_Space
340
22
  0
BLOCK_RECORD
  5
1B
330
1
100
AcDbSymbolTableRecord
100
AcDbBlockTableRecord
  2
*Paper_Space
340
1E
  0
BLOCK_RECORD
  5
23
330
1
100
AcDbSymbolTableRecord
100
AcDbBlockTableRecord
  2
*Paper_Space0
340
26
  0
BLOCK_RECORD
  5
33
330
1
100
AcDbSymbolTableRecord
100
AcDbBlockTableRecord
  2
_4
340
0
102
{BLKREFS
331
45
102
}
  0
BLOCK_RECORD
  5
36
330
1
100
AcDbSymbolTableRecord
100
AcDbBlockTableRecord
  2
_5
340
0
102
{BLKREFS
331
46
102
}
  0
BLOCK_RECORD
  5
39
330
1
100
AcDbSymbolTableRecord
100
AcDbBlockTableRecord
  2
TOP
340
0
102
{BLKREFS
331
47
102
}
  0
BLOCK_RECORD
  5
3C
330
1
100
AcDbSymbolTableRecord
100
AcDbBlockTableRecord
  2
Top__1
340
0
102
{BLKREFS
331
48
102
}
  0
BLOCK_RECORD
  5
3F
330
1
100
AcDbSymbolTableRecord
100
AcDbBlockTableRecord
  2
Top__2
340
0
102
{BLKREFS
331
49
102
}
  0
BLOCK_RECORD
  5
42
330
1
100
AcDbSymbolTableRecord
100
AcDbBlockTableRecord
  2
_3
340
0
102
{BLKREFS
331
4A
102
}
  0
ENDTAB
  0
ENDSEC
  0
SECTION
  2
BLOCKS
  0
BLOCK
  5
20
330
1F
100
AcDbEntity
  8
0
100
AcDbBlockBegin
  2
*Model_Space
 70
     0
 71
     0
 10
0.0
 20
0.0
 30
0.0
  3
*Model_Space
  1

  0
ENDBLK
  5
21
330
1F
100
AcDbEntity
  8
0
100
AcDbBlockEnd
  0
BLOCK
  5
1C
330
1B
100
AcDbEntity
 67
     1
  8
0
100
AcDbBlockBegin
  2
*Paper_Space
 70
     0
 71
     0
 10
0.0
 20
0.0
 30
0.0
  3
*Paper_Space
  1

  0
ENDBLK
  5
1D
330
1B
100
AcDbEntity
 67
     1
  8
0
100
AcDbBlockEnd
  0
BLOCK
  5
24
330
23
100
AcDbEntity
  8
0
100
AcDbBlockBegin
  2
*Paper_Space0
 70
     0
 71
     0
 10
0.0
 20
0.0
 30
0.0
  3
*Paper_Space0
  1

  0
ENDBLK
  5
25
330
23
100
AcDbEntity
  8
0
100
AcDbBlockEnd
  0
BLOCK
  5
34
330
33
100
AcDbEntity
  8
0
100
AcDbBlockBegin
  2
_4
 70
     0
 71
     0
 10
334.9703936029752
 20
-273.63030285773
 30
0.0
  3
_4
  1

  0
LINE
  5
4B
330
33
100
AcDbEntity
  8
1
  6
Continuous
 62
     3
100
AcDbLine
 10
686.1499687185763
 20
-1145.67910772598
 30
0.0
 11
686.1499687185763
 21
-1140.67910772598
 31
0.0
  0
LINE
  5
4C
330
33
100
AcDbEntity
  8
1
  6
Continuous
 62
     3
100
AcDbLine
 10
713.1499687185763
 20
-1140.67910772598
 30
0.0
 11
713.1499687185763
 21
-1145.67910772598
 31
0.0
  0
LINE
  5
4D
330
33
100
AcDbEntity
  8
1
  6
Continuous
 62
     3
100
AcDbLine
 10
706.4886817732667
 20
-1140.67910772598
 30
0.0
 11
706.4886817732667
 21
-1134.17910772598
 31
0.0
  0
LINE
  5
4E
330
33
100
AcDbEntity
  8
1
  6
Continuous
 62
     3
100
AcDbLine
 10
713.5597495851322
 20
-1134.17910772598
 30
0.0
 11
713.5597495851322
 21
-1140.67910772598
 31
0.0
  0
LINE
  5
4F
330
33
100
AcDbEntity
  8
1
  6
Continuous
 62
     3
100
AcDbLine
 10
713.5597495851322
 20
-1134.17910772598
 30
0.0
 11
699.6499687185763
 21
-1134.17910772598
 31
0.0
  0
LINE
  5
50
330
33
100
AcDbEntity
  8
1
  6
Continuous
 62
     3
100
AcDbLine
 10
704.9815087381277
 20
-1140.67910772598
 30
0.0
 11
704.9815087381277
 21
-1134.17910772598
 31
0.0
  0
LINE
  5
51
330
33
100
AcDbEntity
  8
1
  6
Continuous
 62
     3
100
AcDbLine
 10
713.5597495851322
 20
-1140.67910772598
 30
0.0
 11
704.9815087381277
 21
-1140.67910772598
 31
0.0
  0
LINE
  5
52
330
33
100
AcDbEntity
  8
1
  6
Continuous
 62
     3
100
AcDbLine
 10
694.3184286990248
 20
-1134.17910772598
 30
0.0
 11
694.3184286990248
 21
-1140.67910772598
 31
0.0
  0
LINE
  5
53
330
33
100
AcDbEntity
  8
1
  6
Continuous
 62
     3
100
AcDbLine
 10
692.8112556638857
 20
-1134.17910772598
 30
0.0
 11
692.8112556638857
 21
-1140.67910772598
 31
0.0
  0
LINE
  5
54
330
33
100
AcDbEntity
  8
1
  6
Continuous
 62
     3
100
AcDbLine
 10
699.6499687185763
 20
-1134.17910772598
 30
0.0
 11
685.7401878520202
 21
-1134.17910772598
 31
0.0
  0
LINE
  5
55
330
33
100
AcDbEntity
  8
1
  6
Continuous
 62
     3
100
AcDbLine
 10
694.3184286990248
 20
-1140.67910772598
 30
0.0
 11
685.7401878520202
 21
-1140.67910772598
 31
0.0
  0
LINE
  5
56
330
33
100
AcDbEntity
  8
1
  6
Continuous
 62
     3
100
AcDbLine
 10
685.7401878520202
 20
-1140.67910772598
 30
0.0
 11
685.7401878520202
 21
-1134.17910772598
 31
0.0
  0
LINE
  5
57
330
33
100
AcDbEntity
  8
1
  6
Continuous
 62
     3
100
AcDbLine
 10
331.1499687185768
 20
-1145.67910772598
 30
0.0
 11
331.1499687185768
 21
-1140.67910772598
 31
0.0
  0
LINE
  5
58
330
33
100
AcDbEntity
  8
1
  6
Continuous
 62
     3
100
AcDbLine
 10
358.1499687185768
 20
-1140.67910772598
 30
0.0
 11
358.1499687185768
 21
-1145.67910772598
 31
0.0
  0
LINE
  5
59
330
33
100
AcDbEntity
  8
1
  6
Continuous
 62
     3
100
AcDbLine
 10
337.8112556638864
 20
-1134.17910772598
 30
0.0
 11
337.8112556638864
 21
-1140.67910772598
 31
0.0
  0
LINE
  5
5A
330
33
100
AcDbEntity
  8
1
  6
Continuous
 62
     3
100
AcDbLine
 10
330.7401878520209
 20
-1140.67910772598
 30
0.0
 11
330.7401878520209
 21
-1134.17910772598
 31
0.0
  0
LINE
  5
5B
330
33
100
AcDbEntity
  8
1
  6
Continuous
 62
     3
100
AcDbLine
 10
344.6499687185768
 20
-1134.17910772598
 30
0.0
 11
330.7401878520209
 21
-1134.17910772598
 31
0.0
  0
LINE
  5
5C
330
33
100
AcDbEntity
  8
1
  6
Continuous
 62
     3
100
AcDbLine
 10
339.3184286990254
 20
-1134.17910772598
 30
0.0
 11
339.3184286990254
 21
-1140.67910772598
 31
0.0
  0
LINE
  5
5D
330
33
100
AcDbEntity
  8
1
  6
Continuous
 62
     3
100
AcDbLine
 10
339.3184286990254
 20
-1140.67910772598
 30
0.0
 11
330.7401878520209
 21
-1140.67910772598
 31
0.0
  0
LINE
  5
5E
330
33
100
AcDbEntity
  8
1
  6
Continuous
 62
     3
100
AcDbLine
 10
349.9815087381282
 20
-1140.67910772598
 30
0.0
 11
349.9815087381282
 21
-1134.17910772598
 31
0.0
  0
LINE
  5
5F
330
33
100
AcDbEntity
  8
1
  6
Continuous
 62
     3
100
AcDbLine
 10
351.4886817732671
 20
-1140.67910772598
 30
0.0
 11
351.4886817732671
 21
-1134.17910772598
 31
0.0
  0
LINE
  5
60
330
33
100
AcDbEntity
  8
1
  6
Continuous
 62
     3
100
AcDbLine
 10
358.5597495851327
 20
-1134.17910772598
 30
0.0
 11
344.6499687185768
 21
-1134.17910772598
 31
0.0
  0
LINE
  5
61
330
33
100
AcDbEntity
  8
1
  6
Continuous
 62
     3
100
AcDbLine
 10
358.5597495851327
 20
-1140.67910772598
 30
0.0
 11
349.9815087381282
 21
-1140.67910772598
 31
0.0
  0
LINE
  5
62
330
33
100
AcDbEntity
  8
1
  6
Continuous
 62
     3
100
AcDbLine
 10
358.5597495851327
 20
-1134.17910772598
 30
0.0
 11
358.5597495851327
 21
-1140.67910772598
 31
0.0
  0
LINE
  5
63
330
33
100
AcDbEntity
  8
1
  6
Continuous
 62
     3
100
AcDbLine
 10
485.5597495851329
 20
-1140.67910772598
 30
0.0
 11
476.9815087381284
 21
-1140.67910772598
 31
0.0
  0
LINE
  5
64
330
33
100
AcDbEntity
  8
1
  6
Continuous
 62
     3
100
AcDbLine
 10
478.4886817732674
 20
-1140.67910772598
 30
0.0
 11
478.4886817732674
 21
-1134.17910772598
 31
0.0
  0
LINE
  5
65
330
33
100
AcDbEntity
  8
1
  6
Continuous
 62
     3
100
AcDbLine
 10
476.9815087381284
 20
-1140.67910772598
 30
0.0
 11
476.9815087381284
 21
-1134.17910772598
 31
0.0
  0
LINE
  5
66
330
33
100
AcDbEntity
  8
1
  6
Continuous
 62
     3
100
AcDbLine
 10
466.3184286990257
 20
-1140.67910772598
 30
0.0
 11
457.7401878520212
 21
-1140.67910772598
 31
0.0
  0
LINE
  5
67
330
33
100
AcDbEntity
  8
1
  6
Continuous
 62
     3
100
AcDbLine
 10
466.3184286990257
 20
-1134.17910772598
 30
0.0
 11
466.3184286990257
 21
-1140.67910772598
 31
0.0
  0
LINE
  5
68
330
33
100
AcDbEntity
  8
1
  6
Continuous
 62
     3
100
AcDbLine
 10
471.649968718577
 20
-1134.17910772598
 30
0.0
 11
457.7401878520212
 21
-1134.17910772598
 31
0.0
  0
LINE
  5
69
330
33
100
AcDbEntity
  8
1
  6
Continuous
 62
     3
100
AcDbLine
 10
457.7401878520212
 20
-1140.67910772598
 30
0.0
 11
457.7401878520212
 21
-1134.17910772598
 31
0.0
  0
LINE
  5
6A
330
33
100
AcDbEntity
  8
1
  6
Continuous
 62
     3
100
AcDbLine
 10
464.8112556638867
 20
-1134.17910772598
 30
0.0
 11
464.8112556638867
 21
-1140.67910772598
 31
0.0
  0
LINE
  5
6B
330
33
100
AcDbEntity
  8
1
  6
Continuous
 62
     3
100
AcDbLine
 10
458.1499687185771
 20
-1145.67910772598
 30
0.0
 11
458.1499687185771
 21
-1140.67910772598
 31
0.0
  0
LINE
  5
6C
330
33
100
AcDbEntity
  8
1
  6
Continuous
 62
     3
100
AcDbLine
 10
485.149968718577
 20
-1140.67910772598
 30
0.0
 11
485.149968718577
 21
-1145.67910772598
 31
0.0
  0
LINE
  5
6D
330
33
100
AcDbEntity
  8
1
  6
Continuous
 62
     3
100
AcDbLine
 10
485.5597495851329
 20
-1134.17910772598
 30
0.0
 11
485.5597495851329
 21
-1140.67910772598
 31
0.0
  0
LINE
  5
6E
330
33
100
AcDbEntity
  8
1
  6
Continuous
 62
     3
100
AcDbLine
 10
485.5597495851329
 20
-1134.17910772598
 30
0.0
 11
471.649968718577
 21
-1134.17910772598
 31
0.0
  0
LINE
  5
6F
330
33
100
AcDbEntity
  8
1
  6
Continuous
 62
     3
100
AcDbLine
 10
599.5597495851324
 20
-1134.17910772598
 30
0.0
 11
599.5597495851324
 21
-1140.67910772598
 31
0.0
  0
LINE
  5
70
330
33
100
AcDbEntity
  8
1
  6
Continuous
 62
     3
100
AcDbLine
 10
599.5597495851324
 20
-1140.67910772598
 30
0.0
 11
590.9815087381279
 21
-1140.67910772598
 31
0.0
  0
LINE
  5
71
330
33
100
AcDbEntity
  8
1
  6
Continuous
 62
     3
100
AcDbLine
 10
599.5597495851324
 20
-1134.17910772598
 30
0.0
 11
585.6499687185765
 21
-1134.17910772598
 31
0.0
  0
LINE
  5
72
330
33
100
AcDbEntity
  8
1
  6
Continuous
 62
     3
100
AcDbLine
 10
592.4886817732669
 20
-1140.67910772598
 30
0.0
 11
592.4886817732669
 21
-1134.17910772598
 31
0.0
  0
LINE
  5
73
330
33
100
AcDbEntity
  8
1
  6
Continuous
 62
     3
100
AcDbLine
 10
590.9815087381279
 20
-1140.67910772598
 30
0.0
 11
590.9815087381279
 21
-1134.17910772598
 31
0.0
  0
LINE
  5
74
330
33
100
AcDbEntity
  8
1
  6
Continuous
 62
     3
100
AcDbLine
 10
580.3184286990252
 20
-1140.67910772598
 30
0.0
 11
571.7401878520207
 21
-1140.67910772598
 31
0.0
  0
LINE
  5
75
330
33
100
AcDbEntity
  8
1
  6
Continuous
 62
     3
100
AcDbLine
 10
580.3184286990252
 20
-1134.17910772598
 30
0.0
 11
580.3184286990252
 21
-1140.67910772598
 31
0.0
  0
LINE
  5
76
330
33
100
AcDbEntity
  8
1
  6
Continuous
 62
     3
100
AcDbLine
 10
585.6499687185765
 20
-1134.17910772598
 30
0.0
 11
571.7401878520207
 21
-1134.17910772598
 31
0.0
  0
LINE
  5
77
330
33
100
AcDbEntity
  8
1
  6
Continuous
 62
     3
100
AcDbLine
 10
571.7401878520207
 20
-1140.67910772598
 30
0.0
 11
571.7401878520207
 21
-1134.17910772598
 31
0.0
  0
LINE
  5
78
330
33
100
AcDbEntity
  8
1
  6
Continuous
 62
     3
100
AcDbLine
 10
578.8112556638861
 20
-1134.17910772598
 30
0.0
 11
578.8112556638861
 21
-1140.67910772598
 31
0.0
  0
LINE
  5
79
330
33
100
AcDbEntity
  8
1
  6
Continuous
 62
     3
100
AcDbLine
 10
599.1499687185765
 20
-1140.67910772598
 30
0.0
 11
599.1499687185765
 21
-1145.67910772598
 31
0.0
  0
LINE
  5
7A
330
33
100
AcDbEntity
  8
1
  6
Continuous
 62
     3
100
AcDbLine
 10
572.1499687185766
 20
-1145.67910772598
 30
0.0
 11
572.1499687185766
 21
-1140.67910772598
 31
0.0
  0
ENDBLK
  5
35
330
33
100
AcDbEntity
  8
0
100
AcDbBlockEnd
  0
BLOCK
  5
37
330
36
100
AcDbEntity
  8
0
100
AcDbBlockBegin
  2
_5
 70
     0
 71
     0
 10
342.880174469531
 20
-262.13030285773
 30
0.0
  3
_5
  1

  0
LINE
  5
7B
330
36
100
AcDbEntity
  8
1
  6
Continuous
 62
     3
100
AcDbLine
 10
693.6499687185763
 20
-1134.17910772598
 30
0.0
 11
693.6499687185763
 21
-1130.67910772598
 31
0.0
  0
LINE
  5
7C
330
36
100
AcDbEntity
  8
1
  6
Continuous
 62
     3
100
AcDbLine
 10
694.8999687185763
 20
-1130.67910772598
 30
0.0
 11
693.6499687185763
 21
-1130.67910772598
 31
0.0
  0
LINE
  5
7D
330
36
100
AcDbEntity
  8
1
  6
Continuous
 62
     3
100
AcDbLine
 10
705.6499687185763
 20
-1130.67910772598
 30
0.0
 11
704.3999687185763
 21
-1130.67910772598
 31
0.0
  0
LINE
  5
7E
330
36
100
AcDbEntity
  8
1
  6
Continuous
 62
     3
100
AcDbLine
 10
705.6499687185763
 20
-1134.17910772598
 30
0.0
 11
705.6499687185763
 21
-1130.67910772598
 31
0.0
  0
LINE
  5
7F
330
36
100
AcDbEntity
  8
1
  6
Continuous
 62
     3
100
AcDbLine
 10
694.8999687185763
 20
-1130.67910772598
 30
0.0
 11
694.8999687185763
 21
-1122.17910772598
 31
0.0
  0
LINE
  5
80
330
36
100
AcDbEntity
  8
1
  6
Continuous
 62
     3
100
AcDbLine
 10
695.9842491439224
 20
-1130.67910772598
 30
0.0
 11
694.8999687185763
 21
-1130.67910772598
 31
0.0
  0
LINE
  5
81
330
36
100
AcDbEntity
  8
1
  6
Continuous
 62
     3
100
AcDbLine
 10
694.8999687185763
 20
-1121.68910772598
 30
0.0
 11
694.8999687185763
 21
-1120.967782860575
 31
0.0
  0
LINE
  5
82
330
36
100
AcDbEntity
  8
1
  6
Continuous
 62
     3
100
AcDbLine
 10
703.8999687185763
 20
-1120.67910772598
 30
0.0
 11
695.3999687185763
 21
-1120.67910772598
 31
0.0
  0
LINE
  5
83
330
36
100
AcDbEntity
  8
1
  6
Continuous
 62
     3
100
AcDbLine
 10
695.9842491439224
 20
-1121.68910772598
 30
0.0
 11
695.9842491439224
 21
-1130.67910772598
 31
0.0
  0
LINE
  5
84
330
36
100
AcDbEntity
  8
1
  6
Continuous
 62
     3
100
AcDbLine
 10
704.3999687185763
 20
-1121.68910772598
 30
0.0
 11
704.3999687185763
 21
-1130.67910772598
 31
0.0
  0
LINE
  5
85
330
36
100
AcDbEntity
  8
1
  6
Continuous
 62
     3
100
AcDbLine
 10
695.3999687185763
 20
-1120.67910772598
 30
0.0
 11
694.8999687185763
 21
-1120.967782860575
 31
0.0
  0
LINE
  5
86
330
36
100
AcDbEntity
  8
1
  6
Continuous
 62
     3
100
AcDbLine
 10
704.3999687185763
 20
-1120.967782860575
 30
0.0
 11
703.8999687185763
 21
-1120.67910772598
 31
0.0
  0
LINE
  5
87
330
36
100
AcDbEntity
  8
1
  6
Continuous
 62
     3
100
AcDbLine
 10
704.3999687185763
 20
-1121.68910772598
 30
0.0
 11
703.31568829323
 21
-1121.68910772598
 31
0.0
  0
LINE
  5
88
330
36
100
AcDbEntity
  8
1
  6
Continuous
 62
     3
100
AcDbLine
 10
703.31568829323
 20
-1130.67910772598
 30
0.0
 11
703.31568829323
 21
-1121.68910772598
 31
0.0
  0
LINE
  5
89
330
36
100
AcDbEntity
  8
1
  6
Continuous
 62
     3
100
AcDbLine
 10
704.3999687185763
 20
-1120.967782860575
 30
0.0
 11
704.3999687185763
 21
-1121.68910772598
 31
0.0
  0
LINE
  5
8A
330
36
100
AcDbEntity
  8
1
  6
Continuous
 62
     3
100
AcDbLine
 10
695.9842491439224
 20
-1121.68910772598
 30
0.0
 11
694.8999687185763
 21
-1121.68910772598
 31
0.0
  0
LINE
  5
8B
330
36
100
AcDbEntity
  8
1
  6
Continuous
 62
     3
100
AcDbLine
 10
694.8999687185763
 20
-1122.17910772598
 30
0.0
 11
694.8999687185763
 21
-1121.68910772598
 31
0.0
  0
LINE
  5
8C
330
36
100
AcDbEntity
  8
1
  6
Continuous
 62
     1
100
AcDbLine
 10
703.31568829323
 20
-1130.67910772598
 30
0.0
 11
695.9842491439224
 21
-1121.68910772598
 31
0.0
  0
LINE
  5
8D
330
36
100
AcDbEntity
  8
1
  6
Continuous
 62
     3
100
AcDbLine
 10
704.3999687185763
 20
-1130.67910772598
 30
0.0
 11
703.31568829323
 21
-1130.67910772598
 31
0.0
  0
LINE
  5
8E
330
36
100
AcDbEntity
  8
1
  6
Continuous
 62
     1
100
AcDbLine
 10
703.31568829323
 20
-1121.68910772598
 30
0.0
 11
695.9842491439224
 21
-1130.67910772598
 31
0.0
  0
LINE
  5
8F
330
36
100
AcDbEntity
  8
1
  6
Continuous
 62
     3
100
AcDbLine
 10
703.31568829323
 20
-1130.67910772598
 30
0.0
 11
695.9842491439224
 21
-1130.67910772598
 31
0.0
  0
LINE
  5
90
330
36
100
AcDbEntity
  8
1
  6
Continuous
 62
     3
100
AcDbLine
 10
466.899968718577
 20
-1130.67910772598
 30
0.0
 11
465.649968718577
 21
-1130.67910772598
 31
0.0
  0
LINE
  5
91
330
36
100
AcDbEntity
  8
1
  6
Continuous
 62
     3
100
AcDbLine
 10
465.649968718577
 20
-1130.67910772598
 30
0.0
 11
465.6499687185771
 21
-1134.17910772598
 31
0.0
  0
LINE
  5
92
330
36
100
AcDbEntity
  8
1
  6
Continuous
 62
     3
100
AcDbLine
 10
477.649968718577
 20
-1130.67910772598
 30
0.0
 11
477.649968718577
 21
-1134.17910772598
 31
0.0
  0
LINE
  5
93
330
36
100
AcDbEntity
  8
1
  6
Continuous
 62
     3
100
AcDbLine
 10
475.3156882932307
 20
-1130.67910772598
 30
0.0
 11
467.9842491439231
 21
-1130.67910772598
 31
0.0
  0
LINE
  5
94
330
36
100
AcDbEntity
  8
1
  6
Continuous
 62
     1
100
AcDbLine
 10
475.3156882932307
 20
-1130.67910772598
 30
0.0
 11
467.9842491439231
 21
-1121.68910772598
 31
0.0
  0
LINE
  5
95
330
36
100
AcDbEntity
  8
1
  6
Continuous
 62
     3
100
AcDbLine
 10
467.9842491439231
 20
-1130.67910772598
 30
0.0
 11
466.899968718577
 21
-1130.67910772598
 31
0.0
  0
LINE
  5
96
330
36
100
AcDbEntity
  8
1
  6
Continuous
 62
     1
100
AcDbLine
 10
475.3156882932307
 20
-1121.68910772598
 30
0.0
 11
467.9842491439231
 21
-1130.67910772598
 31
0.0
  0
LINE
  5
97
330
36
100
AcDbEntity
  8
1
  6
Continuous
 62
     3
100
AcDbLine
 10
476.399968718577
 20
-1121.68910772598
 30
0.0
 11
476.3999687185771
 21
-1122.17910772598
 31
0.0
  0
LINE
  5
98
330
36
100
AcDbEntity
  8
1
  6
Continuous
 62
     3
100
AcDbLine
 10
476.399968718577
 20
-1121.68910772598
 30
0.0
 11
475.3156882932307
 21
-1121.68910772598
 31
0.0
  0
LINE
  5
99
330
36
100
AcDbEntity
  8
1
  6
Continuous
 62
     3
100
AcDbLine
 10
466.899968718577
 20
-1121.68910772598
 30
0.0
 11
466.899968718577
 21
-1120.967782860575
 31
0.0
  0
LINE
  5
9A
330
36
100
AcDbEntity
  8
1
  6
Continuous
 62
     3
100
AcDbLine
 10
467.9842491439231
 20
-1121.68910772598
 30
0.0
 11
467.9842491439231
 21
-1130.67910772598
 31
0.0
  0
LINE
  5
9B
330
36
100
AcDbEntity
  8
1
  6
Continuous
 62
     3
100
AcDbLine
 10
467.9842491439231
 20
-1121.68910772598
 30
0.0
 11
466.899968718577
 21
-1121.68910772598
 31
0.0
  0
LINE
  5
9C
330
36
100
AcDbEntity
  8
1
  6
Continuous
 62
     3
100
AcDbLine
 10
467.399968718577
 20
-1120.67910772598
 30
0.0
 11
466.899968718577
 21
-1120.967782860575
 31
0.0
  0
LINE
  5
9D
330
36
100
AcDbEntity
  8
1
  6
Continuous
 62
     3
100
AcDbLine
 10
476.3999687185771
 20
-1120.967782860575
 30
0.0
 11
475.899968718577
 21
-1120.67910772598
 31
0.0
  0
LINE
  5
9E
330
36
100
AcDbEntity
  8
1
  6
Continuous
 62
     3
100
AcDbLine
 10
466.899968718577
 20
-1130.67910772598
 30
0.0
 11
466.899968718577
 21
-1121.68910772598
 31
0.0
  0
LINE
  5
9F
330
36
100
AcDbEntity
  8
1
  6
Continuous
 62
     3
100
AcDbLine
 10
475.3156882932307
 20
-1130.67910772598
 30
0.0
 11
475.3156882932307
 21
-1121.68910772598
 31
0.0
  0
LINE
  5
A0
330
36
100
AcDbEntity
  8
1
  6
Continuous
 62
     3
100
AcDbLine
 10
475.899968718577
 20
-1120.67910772598
 30
0.0
 11
467.399968718577
 21
-1120.67910772598
 31
0.0
  0
LINE
  5
A1
330
36
100
AcDbEntity
  8
1
  6
Continuous
 62
     3
100
AcDbLine
 10
476.3999687185771
 20
-1120.967782860575
 30
0.0
 11
476.399968718577
 21
-1121.68910772598
 31
0.0
  0
LINE
  5
A2
330
36
100
AcDbEntity
  8
1
  6
Continuous
 62
     3
100
AcDbLine
 10
477.649968718577
 20
-1130.67910772598
 30
0.0
 11
476.399968718577
 21
-1130.67910772598
 31
0.0
  0
LINE
  5
A3
330
36
100
AcDbEntity
  8
1
  6
Continuous
 62
     3
100
AcDbLine
 10
476.399968718577
 20
-1130.67910772598
 30
0.0
 11
475.3156882932307
 21
-1130.67910772598
 31
0.0
  0
LINE
  5
A4
330
36
100
AcDbEntity
  8
1
  6
Continuous
 62
     3
100
AcDbLine
 10
476.3999687185771
 20
-1122.17910772598
 30
0.0
 11
476.399968718577
 21
-1130.67910772598
 31
0.0
  0
LINE
  5
A5
330
36
100
AcDbEntity
  8
1
  6
Continuous
 62
     3
100
AcDbLine
 10
338.6499687185768
 20
-1130.67910772598
 30
0.0
 11
338.6499687185768
 21
-1134.17910772598
 31
0.0
  0
LINE
  5
A6
330
36
100
AcDbEntity
  8
1
  6
Continuous
 62
     3
100
AcDbLine
 10
350.6499687185768
 20
-1130.67910772598
 30
0.0
 11
350.6499687185768
 21
-1134.17910772598
 31
0.0
  0
LINE
  5
A7
330
36
100
AcDbEntity
  8
1
  6
Continuous
 62
     3
100
AcDbLine
 10
349.3999687185768
 20
-1122.17910772598
 30
0.0
 11
349.3999687185768
 21
-1130.67910772598
 31
0.0
  0
LINE
  5
A8
330
36
100
AcDbEntity
  8
1
  6
Continuous
 62
     3
100
AcDbLine
 10
339.8999687185768
 20
-1130.67910772598
 30
0.0
 11
338.6499687185768
 21
-1130.67910772598
 31
0.0
  0
LINE
  5
A9
330
36
100
AcDbEntity
  8
1
  6
Continuous
 62
     3
100
AcDbLine
 10
349.3999687185768
 20
-1130.67910772598
 30
0.0
 11
348.3156882932305
 21
-1130.67910772598
 31
0.0
  0
LINE
  5
AA
330
36
100
AcDbEntity
  8
1
  6
Continuous
 62
     3
100
AcDbLine
 10
350.6499687185768
 20
-1130.67910772598
 30
0.0
 11
349.3999687185768
 21
-1130.67910772598
 31
0.0
  0
LINE
  5
AB
330
36
100
AcDbEntity
  8
1
  6
Continuous
 62
     3
100
AcDbLine
 10
349.3999687185768
 20
-1120.967782860575
 30
0.0
 11
349.3999687185768
 21
-1121.68910772598
 31
0.0
  0
LINE
  5
AC
330
36
100
AcDbEntity
  8
1
  6
Continuous
 62
     3
100
AcDbLine
 10
348.8999687185768
 20
-1120.67910772598
 30
0.0
 11
340.3999687185768
 21
-1120.67910772598
 31
0.0
  0
LINE
  5
AD
330
36
100
AcDbEntity
  8
1
  6
Continuous
 62
     3
100
AcDbLine
 10
348.3156882932305
 20
-1130.67910772598
 30
0.0
 11
348.3156882932305
 21
-1121.68910772598
 31
0.0
  0
LINE
  5
AE
330
36
100
AcDbEntity
  8
1
  6
Continuous
 62
     3
100
AcDbLine
 10
339.8999687185768
 20
-1130.67910772598
 30
0.0
 11
339.8999687185768
 21
-1121.68910772598
 31
0.0
  0
LINE
  5
AF
330
36
100
AcDbEntity
  8
1
  6
Continuous
 62
     3
100
AcDbLine
 10
349.3999687185768
 20
-1120.967782860575
 30
0.0
 11
348.8999687185768
 21
-1120.67910772598
 31
0.0
  0
LINE
  5
B0
330
36
100
AcDbEntity
  8
1
  6
Continuous
 62
     3
100
AcDbLine
 10
340.3999687185768
 20
-1120.67910772598
 30
0.0
 11
339.8999687185768
 21
-1120.967782860575
 31
0.0
  0
LINE
  5
B1
330
36
100
AcDbEntity
  8
1
  6
Continuous
 62
     3
100
AcDbLine
 10
340.9842491439229
 20
-1121.68910772598
 30
0.0
 11
339.8999687185768
 21
-1121.68910772598
 31
0.0
  0
LINE
  5
B2
330
36
100
AcDbEntity
  8
1
  6
Continuous
 62
     3
100
AcDbLine
 10
340.9842491439229
 20
-1121.68910772598
 30
0.0
 11
340.9842491439229
 21
-1130.67910772598
 31
0.0
  0
LINE
  5
B3
330
36
100
AcDbEntity
  8
1
  6
Continuous
 62
     3
100
AcDbLine
 10
339.8999687185768
 20
-1121.68910772598
 30
0.0
 11
339.8999687185768
 21
-1120.967782860575
 31
0.0
  0
LINE
  5
B4
330
36
100
AcDbEntity
  8
1
  6
Continuous
 62
     3
100
AcDbLine
 10
349.3999687185768
 20
-1121.68910772598
 30
0.0
 11
348.3156882932305
 21
-1121.68910772598
 31
0.0
  0
LINE
  5
B5
330
36
100
AcDbEntity
  8
1
  6
Continuous
 62
     3
100
AcDbLine
 10
349.3999687185768
 20
-1121.68910772598
 30
0.0
 11
349.3999687185768
 21
-1122.17910772598
 31
0.0
  0
LINE
  5
B6
330
36
100
AcDbEntity
  8
1
  6
Continuous
 62
     1
100
AcDbLine
 10
348.3156882932305
 20
-1121.68910772598
 30
0.0
 11
340.9842491439229
 21
-1130.67910772598
 31
0.0
  0
LINE
  5
B7
330
36
100
AcDbEntity
  8
1
  6
Continuous
 62
     3
100
AcDbLine
 10
340.9842491439229
 20
-1130.67910772598
 30
0.0
 11
339.8999687185768
 21
-1130.67910772598
 31
0.0
  0
LINE
  5
B8
330
36
100
AcDbEntity
  8
1
  6
Continuous
 62
     1
100
AcDbLine
 10
348.3156882932305
 20
-1130.67910772598
 30
0.0
 11
340.9842491439229
 21
-1121.68910772598
 31
0.0
  0
LINE
  5
B9
330
36
100
AcDbEntity
  8
1
  6
Continuous
 62
     3
100
AcDbLine
 10
348.3156882932305
 20
-1130.67910772598
 30
0.0
 11
340.9842491439229
 21
-1130.67910772598
 31
0.0
  0
LINE
  5
BA
330
36
100
AcDbEntity
  8
1
  6
Continuous
 62
     3
100
AcDbLine
 10
589.3156882932302
 20
-1130.67910772598
 30
0.0
 11
581.9842491439226
 21
-1130.67910772598
 31
0.0
  0
LINE
  5
BB
330
36
100
AcDbEntity
  8
1
  6
Continuous
 62
     1
100
AcDbLine
 10
589.3156882932302
 20
-1130.67910772598
 30
0.0
 11
581.9842491439226
 21
-1121.68910772598
 31
0.0
  0
LINE
  5
BC
330
36
100
AcDbEntity
  8
1
  6
Continuous
 62
     3
100
AcDbLine
 10
581.9842491439226
 20
-1130.67910772598
 30
0.0
 11
580.8999687185765
 21
-1130.67910772598
 31
0.0
  0
LINE
  5
BD
330
36
100
AcDbEntity
  8
1
  6
Continuous
 62
     1
100
AcDbLine
 10
589.3156882932302
 20
-1121.68910772598
 30
0.0
 11
581.9842491439226
 21
-1130.67910772598
 31
0.0
  0
LINE
  5
BE
330
36
100
AcDbEntity
  8
1
  6
Continuous
 62
     3
100
AcDbLine
 10
590.3999687185765
 20
-1121.68910772598
 30
0.0
 11
590.3999687185766
 21
-1122.17910772598
 31
0.0
  0
LINE
  5
BF
330
36
100
AcDbEntity
  8
1
  6
Continuous
 62
     3
100
AcDbLine
 10
590.3999687185765
 20
-1121.68910772598
 30
0.0
 11
589.3156882932302
 21
-1121.68910772598
 31
0.0
  0
LINE
  5
C0
330
36
100
AcDbEntity
  8
1
  6
Continuous
 62
     3
100
AcDbLine
 10
580.8999687185765
 20
-1121.68910772598
 30
0.0
 11
580.8999687185765
 21
-1120.967782860575
 31
0.0
  0
LINE
  5
C1
330
36
100
AcDbEntity
  8
1
  6
Continuous
 62
     3
100
AcDbLine
 10
581.9842491439226
 20
-1121.68910772598
 30
0.0
 11
581.9842491439226
 21
-1130.67910772598
 31
0.0
  0
LINE
  5
C2
330
36
100
AcDbEntity
  8
1
  6
Continuous
 62
     3
100
AcDbLine
 10
581.9842491439226
 20
-1121.68910772598
 30
0.0
 11
580.8999687185765
 21
-1121.68910772598
 31
0.0
  0
LINE
  5
C3
330
36
100
AcDbEntity
  8
1
  6
Continuous
 62
     3
100
AcDbLine
 10
581.3999687185765
 20
-1120.67910772598
 30
0.0
 11
580.8999687185765
 21
-1120.967782860575
 31
0.0
  0
LINE
  5
C4
330
36
100
AcDbEntity
  8
1
  6
Continuous
 62
     3
100
AcDbLine
 10
590.3999687185766
 20
-1120.967782860575
 30
0.0
 11
589.8999687185765
 21
-1120.67910772598
 31
0.0
  0
LINE
  5
C5
330
36
100
AcDbEntity
  8
1
  6
Continuous
 62
     3
100
AcDbLine
 10
580.8999687185765
 20
-1130.67910772598
 30
0.0
 11
580.8999687185765
 21
-1121.68910772598
 31
0.0
  0
LINE
  5
C6
330
36
100
AcDbEntity
  8
1
  6
Continuous
 62
     3
100
AcDbLine
 10
589.3156882932302
 20
-1130.67910772598
 30
0.0
 11
589.3156882932302
 21
-1121.68910772598
 31
0.0
  0
LINE
  5
C7
330
36
100
AcDbEntity
  8
1
  6
Continuous
 62
     3
100
AcDbLine
 10
589.8999687185765
 20
-1120.67910772598
 30
0.0
 11
581.3999687185765
 21
-1120.67910772598
 31
0.0
  0
LINE
  5
C8
330
36
100
AcDbEntity
  8
1
  6
Continuous
 62
     3
100
AcDbLine
 10
590.3999687185766
 20
-1120.967782860575
 30
0.0
 11
590.3999687185765
 21
-1121.68910772598
 31
0.0
  0
LINE
  5
C9
330
36
100
AcDbEntity
  8
1
  6
Continuous
 62
     3
100
AcDbLine
 10
591.6499687185765
 20
-1130.67910772598
 30
0.0
 11
590.3999687185765
 21
-1130.67910772598
 31
0.0
  0
LINE
  5
CA
330
36
100
AcDbEntity
  8
1
  6
Continuous
 62
     3
100
AcDbLine
 10
590.3999687185765
 20
-1130.67910772598
 30
0.0
 11
589.3156882932302
 21
-1130.67910772598
 31
0.0
  0
LINE
  5
CB
330
36
100
AcDbEntity
  8
1
  6
Continuous
 62
     3
100
AcDbLine
 10
580.8999687185765
 20
-1130.67910772598
 30
0.0
 11
579.6499687185765
 21
-1130.67910772598
 31
0.0
  0
LINE
  5
CC
330
36
100
AcDbEntity
  8
1
  6
Continuous
 62
     3
100
AcDbLine
 10
590.3999687185766
 20
-1122.17910772598
 30
0.0
 11
590.3999687185765
 21
-1130.67910772598
 31
0.0
  0
LINE
  5
CD
330
36
100
AcDbEntity
  8
1
  6
Continuous
 62
     3
100
AcDbLine
 10
591.6499687185765
 20
-1130.67910772598
 30
0.0
 11
591.6499687185765
 21
-1134.17910772598
 31
0.0
  0
LINE
  5
CE
330
36
100
AcDbEntity
  8
1
  6
Continuous
 62
     3
100
AcDbLine
 10
579.6499687185765
 20
-1130.67910772598
 30
0.0
 11
579.6499687185766
 21
-1134.17910772598
 31
0.0
  0
LINE
  5
CF
330
36
100
AcDbEntity
  8
1
  6
Continuous
 62
     3
100
AcDbLine
 10
476.399968718577
 20
-1061.22350907641
 30
0.0
 11
476.399968718577
 21
-1065.889228651064
 31
0.0
  0
LINE
  5
D0
330
36
100
AcDbEntity
  8
1
  6
Continuous
 62
     3
100
AcDbLine
 10
466.899968718577
 20
-1065.889228651064
 30
0.0
 11
466.899968718577
 21
-1058.557789501756
 31
0.0
  0
LINE
  5
D1
330
36
100
AcDbEntity
  8
1
  6
Continuous
 62
     3
100
AcDbLine
 10
476.399968718577
 20
-1058.557789501756
 30
0.0
 11
476.399968718577
 21
-1061.22350907641
 31
0.0
  0
LINE
  5
D2
330
36
100
AcDbEntity
  8
1
  6
Continuous
 62
     3
100
AcDbLine
 10
475.3156882932306
 20
-1066.97350907641
 30
0.0
 11
467.9842491439231
 21
-1066.97350907641
 31
0.0
  0
LINE
  5
D3
330
36
100
AcDbEntity
  8
1
  6
Continuous
 62
     3
100
AcDbLine
 10
467.9842491439231
 20
-1057.47350907641
 30
0.0
 11
475.3156882932306
 21
-1057.47350907641
 31
0.0
  0
ARC
  5
D4
330
36
100
AcDbEntity
  8
1
  6
Continuous
 62
     3
100
AcDbCircle
 10
699.6499687185763
 20
-1130.642903067066
 30
0.0
 40
9.675120206491226
100
AcDbArc
 50
67.73561128814311
 51
112.2643887118575
  0
ARC
  5
D5
330
36
100
AcDbEntity
  8
1
  6
Continuous
 62
     3
100
AcDbCircle
 10
471.649968718577
 20
-1130.642903067066
 30
0.0
 40
9.675120206491226
100
AcDbArc
 50
67.73561128814311
 51
112.2643887118578
  0
ARC
  5
D6
330
36
100
AcDbEntity
  8
1
  6
Continuous
 62
     3
100
AcDbCircle
 10
344.6499687185768
 20
-1130.642903067066
 30
0.0
 40
9.675120206491204
100
AcDbArc
 50
67.73561128814343
 51
112.2643887118578
  0
ARC
  5
D7
330
36
100
AcDbEntity
  8
1
  6
Continuous
 62
     3
100
AcDbCircle
 10
585.6499687185765
 20
-1130.642903067066
 30
0.0
 40
9.675120206491226
100
AcDbArc
 50
67.73561128814311
 51
112.2643887118575
  0
CIRCLE
  5
D8
330
36
100
AcDbEntity
  8
1
  6
Continuous
 62
     3
100
AcDbCircle
 10
471.649968718577
 20
-1062.22350907641
 30
0.0
 40
6.000000000000171
  0
CIRCLE
  5
D9
330
36
100
AcDbEntity
  8
1
  6
Continuous
 62
     3
100
AcDbCircle
 10
471.649968718577
 20
-1062.22350907641
 30
0.0
 40
4.250000000000171
  0
ENDBLK
  5
38
330
36
100
AcDbEntity
  8
0
100
AcDbBlockEnd
  0
BLOCK
  5
3A
330
39
100
AcDbEntity
  8
0
100
AcDbBlockBegin
  2
TOP
 70
     0
 71
     0
 10
371.772968345943
 20
-1216.62614457102
 30
0.0
  3
TOP
  1

  0
POINT
  5
DA
330
39
100
AcDbEntity
  8
1
 62
     3
 60
     1
100
AcDbPoint
 10
564.4104846645847
 20
-1277.882332624415
 30
0.0
  0
POINT
  5
DB
330
39
100
AcDbEntity
  8
1
 62
     3
 60
     1
100
AcDbPoint
 10
564.4104846645847
 20
-1301.882332624415
 30
0.0
  0
LINE
  5
DC
330
39
100
AcDbEntity
  8
6_ALL_DRFT_GEOM
  6
Continuous
 62
     3
100
AcDbLine
 10
475.1499687185769
 20
-1062.22350907641
 30
0.0
 11
469.1499687185769
 21
-1064.22350907641
 31
0.0
  0
LINE
  5
DD
330
39
100
AcDbEntity
  8
6_ALL_DRFT_GEOM
  6
Continuous
 62
     3
100
AcDbLine
 10
469.1499687185769
 20
-1060.22350907641
 30
0.0
 11
475.1499687185769
 21
-1062.22350907641
 31
0.0
  0
LINE
  5
DE
330
39
100
AcDbEntity
  8
6_ALL_DRFT_GEOM
  6
Continuous
 62
     3
100
AcDbLine
 10
469.1499687185769
 20
-1064.22350907641
 30
0.0
 11
469.1499687185769
 21
-1060.22350907641
 31
0.0
  0
LINE
  5
DF
330
39
100
AcDbEntity
  8
6_ALL_DRFT_GEOM
  6
Continuous
 62
     3
100
AcDbLine
 10
484.049968718577
 20
-1062.22350907641
 30
0.0
 11
479.1499687185769
 21
-1062.22350907641
 31
0.0
  0
LINE
  5
E0
330
39
100
AcDbEntity
  8
6_ALL_DRFT_GEOM
  6
Continuous
 62
     3
100
AcDbLine
 10
471.6499687185769
 20
-1069.72350907641
 30
0.0
 11
471.6499687185769
 21
-1074.62350907641
 31
0.0
  0
ARC
  5
E1
330
39
100
AcDbEntity
  8
1
  6
Continuous
 62
     3
100
AcDbCircle
 10
474.2831860175638
 20
-1060.076428344069
 30
0.0
 40
9.999999999999464
100
AcDbArc
 50
-105.2672535353409
 51
-12.39840117245206
  0
ARC
  5
E2
330
39
100
AcDbEntity
  8
6_ALL_DRFT_GEOM
  6
Continuous
 62
     3
100
AcDbCircle
 10
471.649968718577
 20
-1062.22350907641
 30
0.0
 40
7.5
100
AcDbArc
 50
-90.00000000000088
 51
0.0
  0
CIRCLE
  5
E3
330
39
100
AcDbEntity
  8
1
  6
Continuous
 62
     3
100
AcDbCircle
 10
471.649968718577
 20
-1062.22350907641
 30
0.0
 40
13.0
  0
LWPOLYLINE
  5
E4
330
39
100
AcDbEntity
  8
6_ALL_DRFT_GEOM
  6
Continuous
 62
     3
 60
     1
100
AcDbPolyline
 90
        4
 70
     0
 43
0.0
 10
469.1499687906769
 20
-1060.22350907641
 10
469.1499687906769
 20
-1064.22350907641
 10
475.1499687185769
 20
-1062.22350907641
 10
469.1499687906769
 20
-1060.22350907641
  0
MTEXT
  5
E6
330
39
100
AcDbEntity
  8
0
 62
     3
100
AcDbMText
 10
470.7785748182769
 20
-1071.09194539231
 30
0.0
 40
3.0
 41
0.0
 71
     7
 72
     1
  1
0
  7
CONVERTER_1
 11
-1.0
 21
1.836909530733566E-16
 31
0.0
 73
     1
 44
0.60024009603842
  0
MTEXT
  5
E7
330
39
100
AcDbEntity
  8
0
 62
     3
100
AcDbMText
 10
479.0161471273768
 20
-1055.33454937701
 30
0.0
 40
3.0
 41
0.0
 71
     7
 72
     1
  1
100
  7
CONVERTER_1
 11
0.0
 21
-1.0
 31
0.0
 73
     1
 44
0.60024009603842
  0
ENDBLK
  5
3B
330
39
100
AcDbEntity
  8
0
100
AcDbBlockEnd
  0
BLOCK
  5
3D
330
3C
100
AcDbEntity
  8
0
100
AcDbBlockBegin
  2
Top__1
 70
     0
 71
     0
 10
1133.248175402998
 20
-2016.555297569957
 30
0.0
  3
Top__1
  1

  0
LINE
  5
E8
330
3C
100
AcDbEntity
  8
1
  6
Continuous
 62
     3
100
AcDbLine
 10
471.6499687185769
 20
-1032.22350907641
 30
0.0
 11
497.6499687185769
 21
-1032.22350907641
 31
0.0
  0
LINE
  5
E9
330
3C
100
AcDbEntity
  8
1
  6
Continuous
 62
     3
100
AcDbLine
 10
497.6499687185769
 20
-1032.22350907641
 30
0.0
 11
498.6499687185769
 21
-1031.22350907641
 31
0.0
  0
LINE
  5
EA
330
3C
100
AcDbEntity
  8
1
  6
Continuous
 62
     3
100
AcDbLine
 10
498.6499687185769
 20
-1031.22350907641
 30
0.0
 11
502.6499687185769
 21
-1031.22350907641
 31
0.0
  0
LINE
  5
EB
330
3C
100
AcDbEntity
  8
1
  6
Continuous
 62
     3
100
AcDbLine
 10
419.1499687185774
 20
-1034.22350907641
 30
0.0
 11
441.1499687185769
 21
-1034.22350907641
 31
0.0
  0
LINE
  5
EC
330
3C
100
AcDbEntity
  8
1
  6
Continuous
 62
     3
100
AcDbLine
 10
418.1499687185774
 20
-1035.955559883979
 30
0.0
 11
419.1499687185774
 21
-1034.22350907641
 31
0.0
  0
LINE
  5
ED
330
3C
100
AcDbEntity
  8
1
  6
Continuous
 62
     3
100
AcDbLine
 10
444.2217654883016
 20
-1035.22350907641
 30
0.0
 11
448.1499687185769
 21
-1035.22350907641
 31
0.0
  0
LINE
  5
EE
330
3C
100
AcDbEntity
  8
1
  6
Continuous
 62
     3
100
AcDbLine
 10
418.1499687185774
 20
-1035.955559883979
 30
0.0
 11
418.1499687185769
 21
-1088.491458268841
 31
0.0
  0
LINE
  5
EF
330
3C
100
AcDbEntity
  8
1
  6
Continuous
 62
     3
100
AcDbLine
 10
497.6499687185769
 20
-1092.22350907641
 30
0.0
 11
471.6499687185769
 21
-1092.22350907641
 31
0.0
  0
LINE
  5
F0
330
3C
100
AcDbEntity
  8
1
  6
Continuous
 62
     3
100
AcDbLine
 10
498.6499687185769
 20
-1093.22350907641
 30
0.0
 11
497.6499687185769
 21
-1092.22350907641
 31
0.0
  0
LINE
  5
F1
330
3C
100
AcDbEntity
  8
1
  6
Continuous
 62
     3
100
AcDbLine
 10
502.6499687185769
 20
-1093.22350907641
 30
0.0
 11
498.6499687185769
 21
-1093.22350907641
 31
0.0
  0
LINE
  5
F2
330
3C
100
AcDbEntity
  8
1
  6
Continuous
 62
     3
100
AcDbLine
 10
452.1307474226342
 20
-1089.22350907641
 30
0.0
 11
444.2217654883016
 21
-1089.22350907641
 31
0.0
  0
LINE
  5
F3
330
3C
100
AcDbEntity
  8
1
  6
Continuous
 62
     3
100
AcDbLine
 10
441.7217654883016
 20
-1089.893382057488
 30
0.0
 11
441.1499687185769
 21
-1090.22350907641
 31
0.0
  0
LINE
  5
F4
330
3C
100
AcDbEntity
  8
1
  6
Continuous
 62
     3
100
AcDbLine
 10
441.7217654883016
 20
-1089.893382057488
 30
0.0
 11
441.1499687185769
 21
-1090.22350907641
 31
0.0
  0
LINE
  5
F5
330
3C
100
AcDbEntity
  8
1
  6
Continuous
 62
     3
100
AcDbLine
 10
419.1499687185769
 20
-1090.22350907641
 30
0.0
 11
418.1499687185769
 21
-1088.491458268841
 31
0.0
  0
LINE
  5
F6
330
3C
100
AcDbEntity
  8
1
  6
Continuous
 62
     3
100
AcDbLine
 10
441.1499687185769
 20
-1034.22350907641
 30
0.0
 11
441.7217654883016
 21
-1034.553636095332
 31
0.0
  0
LINE
  5
F7
330
3C
100
AcDbEntity
  8
1
  6
Continuous
 62
     3
100
AcDbLine
 10
419.1499687185769
 20
-1090.22350907641
 30
0.0
 11
441.1499687185769
 21
-1090.22350907641
 31
0.0
  0
LINE
  5
F8
330
3C
100
AcDbEntity
  8
1
  6
Continuous
 62
     3
100
AcDbLine
 10
448.1499687185769
 20
-1035.22350907641
 30
0.0
 11
452.1307474226342
 21
-1035.22350907641
 31
0.0
  0
LINE
  5
F9
330
3C
100
AcDbEntity
  8
1
  6
Continuous
 62
     3
100
AcDbLine
 10
498.6499687185769
 20
-1031.22350907641
 30
0.0
 11
498.6499687185769
 21
-1093.22350907641
 31
0.0
  0
LINE
  5
FA
330
3C
100
AcDbEntity
  8
1
  6
Continuous
 62
     3
100
AcDbLine
 10
497.6499687185769
 20
-1092.22350907641
 30
0.0
 11
497.6499687185769
 21
-1032.22350907641
 31
0.0
  0
LINE
  5
FB
330
3C
100
AcDbEntity
  8
1
  6
Continuous
 62
     3
100
AcDbLine
 10
441.1499687185769
 20
-1034.22350907641
 30
0.0
 11
441.1499687185769
 21
-1062.22350907641
 31
0.0
  0
LINE
  5
FC
330
3C
100
AcDbEntity
  8
1
  6
Continuous
 62
     3
100
AcDbLine
 10
424.0355989831086
 20
-1062.22350907641
 30
0.0
 11
441.1499687185769
 21
-1062.22350907641
 31
0.0
  0
LINE
  5
FD
330
3C
100
AcDbEntity
  8
1
  6
Continuous
 62
     3
100
AcDbLine
 10
441.1499687185769
 20
-1062.22350907641
 30
0.0
 11
441.1499687185769
 21
-1090.22350907641
 31
0.0
  0
LINE
  5
FE
330
3C
100
AcDbEntity
  8
1
  6
Continuous
 62
     3
100
AcDbLine
 10
503.6499687185768
 20
-1031.491458268841
 30
0.0
 11
503.6499687185768
 21
-1092.955559883979
 31
0.0
  0
ARC
  5
FF
330
3C
100
AcDbEntity
  8
1
  6
Continuous
 62
     3
100
AcDbCircle
 10
471.6499687185769
 20
-1032.22350907641
 30
0.0
 40
59.99999999999979
100
AcDbArc
 50
-107.4753651465014
 51
-90.0
  0
ARC
  5
100
330
3C
100
AcDbEntity
  8
1
  6
Continuous
 62
     3
100
AcDbCircle
 10
471.6499687185769
 20
-1092.22350907641
 30
0.0
 40
60.0
100
AcDbArc
 50
90.0
 51
107.4753651465014
  0
ARC
  5
101
330
3C
100
AcDbEntity
  8
1
  6
Continuous
 62
     3
100
AcDbCircle
 10
426.1319342569303
 20
-1054.503057119453
 30
0.0
 40
7.999999999997033
100
AcDbArc
 50
176.1520816518451
 51
-105.1912563764681
  0
ARC
  5
102
330
3C
100
AcDbEntity
  8
1
  6
Continuous
 62
     3
100
AcDbCircle
 10
426.1319342569303
 20
-1069.943961033367
 30
0.0
 40
7.999999999996938
100
AcDbArc
 50
105.1912563764681
 51
-176.1520816518532
  0
ARC
  5
103
330
3C
100
AcDbEntity
  8
1
  6
Continuous
 62
     3
100
AcDbCircle
 10
502.6499687185769
 20
-1033.22350907641
 30
0.0
 40
2.000000000000135
100
AcDbArc
 50
60.00000000000413
 51
90.0
  0
ARC
  5
104
330
3C
100
AcDbEntity
  8
1
  6
Continuous
 62
     3
100
AcDbCircle
 10
444.2217654883016
 20
-1030.22350907641
 30
0.0
 40
4.99999999999982
100
AcDbArc
 50
-120.0000000000012
 51
-90.0
  0
ARC
  5
105
330
3C
100
AcDbEntity
  8
1
  6
Continuous
 62
     3
100
AcDbCircle
 10
444.2217654883016
 20
-1094.22350907641
 30
0.0
 40
5.0
100
AcDbArc
 50
90.0
 51
120.0000000000012
  0
ARC
  5
106
330
3C
100
AcDbEntity
  8
1
  6
Continuous
 62
     3
100
AcDbCircle
 10
452.1307474226342
 20
-1094.22350907641
 30
0.0
 40
5.000000000000068
100
AcDbArc
 50
72.52463485350279
 51
90.0
  0
ARC
  5
107
330
3C
100
AcDbEntity
  8
1
  6
Continuous
 62
     3
100
AcDbCircle
 10
452.1307474226342
 20
-1030.22350907641
 30
0.0
 40
5.0
100
AcDbArc
 50
-90.0
 51
-72.52463485350279
  0
ARC
  5
108
330
3C
100
AcDbEntity
  8
1
  6
Continuous
 62
     3
100
AcDbCircle
 10
502.6499687185769
 20
-1091.22350907641
 30
0.0
 40
2.0
100
AcDbArc
 50
-90.0
 51
-60.00000000000413
  0
ENDBLK
  5
3E
330
3C
100
AcDbEntity
  8
0
100
AcDbBlockEnd
  0
BLOCK
  5
40
330
3F
100
AcDbEntity
  8
0
100
AcDbBlockBegin
  2
Top__2
 70
     0
 71
     0
 10
668.411584178457
 20
-1704.33848862365
 30
0.0
  3
Top__2
  1

  0
LINE
  5
109
330
3F
100
AcDbEntity
  8
1
  6
Continuous
 62
     3
100
AcDbLine
 10
507.6499687185768
 20
-1092.22350907641
 30
0.0
 11
507.6499687185768
 21
-1092.72350907641
 31
0.0
  0
LINE
  5
10A
330
3F
100
AcDbEntity
  8
1
  6
Continuous
 62
     3
100
AcDbLine
 10
507.6499687185768
 20
-1032.22350907641
 30
0.0
 11
507.6499687185768
 21
-1031.72350907641
 31
0.0
  0
LINE
  5
10B
330
3F
100
AcDbEntity
  8
1
  6
Continuous
 62
     3
100
AcDbLine
 10
503.6499687185768
 20
-1093.22350907641
 30
0.0
 11
506.6499687185768
 21
-1093.22350907641
 31
0.0
  0
LINE
  5
10C
330
3F
100
AcDbEntity
  8
1
  6
Continuous
 62
     3
100
AcDbLine
 10
507.6499687185768
 20
-1092.22350907641
 30
0.0
 11
507.6499687185768
 21
-1091.22350907641
 31
0.0
  0
LINE
  5
10D
330
3F
100
AcDbEntity
  8
1
  6
Continuous
 62
     3
100
AcDbLine
 10
503.6499687185768
 20
-1031.22350907641
 30
0.0
 11
506.6499687185768
 21
-1031.22350907641
 31
0.0
  0
LINE
  5
10E
330
3F
100
AcDbEntity
  8
1
  6
Continuous
 62
     3
100
AcDbLine
 10
507.6499687185768
 20
-1032.22350907641
 30
0.0
 11
507.6499687185768
 21
-1033.22350907641
 31
0.0
  0
LINE
  5
10F
330
3F
100
AcDbEntity
  8
1
  6
Continuous
 62
     3
100
AcDbLine
 10
508.6499687185767
 20
-1034.22350907641
 30
0.0
 11
526.2065930456024
 21
-1034.22350907641
 31
0.0
  0
LINE
  5
110
330
3F
100
AcDbEntity
  8
1
  6
Continuous
 62
     3
100
AcDbLine
 10
508.6499687185767
 20
-1090.22350907641
 30
0.0
 11
526.2065930456024
 21
-1090.223509076409
 31
0.0
  0
LINE
  5
111
330
3F
100
AcDbEntity
  8
1
  6
Continuous
 62
     3
100
AcDbLine
 10
503.6499687185768
 20
-1035.42350907641
 30
0.0
 11
503.6499687185768
 21
-1031.22350907641
 31
0.0
  0
LINE
  5
112
330
3F
100
AcDbEntity
  8
1
  6
Continuous
 62
     3
100
AcDbLine
 10
503.6499687185768
 20
-1093.22350907641
 30
0.0
 11
503.6499687185768
 21
-1089.02350907641
 31
0.0
  0
LINE
  5
113
330
3F
100
AcDbEntity
  8
1
  6
Continuous
 62
     3
100
AcDbLine
 10
507.6499687185768
 20
-1033.22350907641
 30
0.0
 11
507.6499687185768
 21
-1091.22350907641
 31
0.0
  0
LINE
  5
114
330
3F
100
AcDbEntity
  8
1
  6
Continuous
 62
     3
100
AcDbLine
 10
507.6499687185768
 20
-1062.22350907641
 30
0.0
 11
521.7643384540447
 21
-1062.22350907641
 31
0.0
  0
LINE
  5
115
330
3F
100
AcDbEntity
  8
1
  6
Continuous
 62
     3
100
AcDbLine
 10
526.2065930456024
 20
-1034.22350907641
 30
0.0
 11
527.6499687185765
 21
-1036.72350907641
 31
0.0
  0
LINE
  5
116
330
3F
100
AcDbEntity
  8
1
  6
Continuous
 62
     3
100
AcDbLine
 10
527.6499687185765
 20
-1087.723509076409
 30
0.0
 11
526.2065930456024
 21
-1090.223509076409
 31
0.0
  0
LINE
  5
117
330
3F
100
AcDbEntity
  8
1
  6
Continuous
 62
     3
100
AcDbLine
 10
527.6499687185765
 20
-1087.723509076409
 30
0.0
 11
527.6499687185765
 21
-1036.72350907641
 31
0.0
  0
ARC
  5
118
330
3F
100
AcDbEntity
  8
1
  6
Continuous
 62
     3
100
AcDbCircle
 10
519.668003180223
 20
-1054.503057119453
 30
0.0
 40
7.999999999996953
100
AcDbArc
 50
-74.80874362353157
 51
3.84791834815493
  0
ARC
  5
119
330
3F
100
AcDbEntity
  8
1
  6
Continuous
 62
     3
100
AcDbCircle
 10
519.668003180223
 20
-1069.943961033367
 30
0.0
 40
7.999999999996957
100
AcDbArc
 50
-3.84791834814681
 51
74.80874362353157
  0
ARC
  5
11A
330
3F
100
AcDbEntity
  8
1
  6
Continuous
 62
     3
100
AcDbCircle
 10
506.6499687185768
 20
-1092.22350907641
 30
0.0
 40
1.0
100
AcDbArc
 50
-90.0
 51
0.0
  0
ARC
  5
11B
330
3F
100
AcDbEntity
  8
1
  6
Continuous
 62
     3
100
AcDbCircle
 10
508.6499687185767
 20
-1091.22350907641
 30
0.0
 40
1.0
100
AcDbArc
 50
90.0
 51
180.0
  0
ARC
  5
11C
330
3F
100
AcDbEntity
  8
1
  6
Continuous
 62
     3
100
AcDbCircle
 10
506.6499687185768
 20
-1032.22350907641
 30
0.0
 40
1.0
100
AcDbArc
 50
0.0
 51
90.0
  0
ARC
  5
11D
330
3F
100
AcDbEntity
  8
1
  6
Continuous
 62
     3
100
AcDbCircle
 10
508.6499687185767
 20
-1033.22350907641
 30
0.0
 40
0.9999999999998863
100
AcDbArc
 50
180.0
 51
-90.0
  0
ENDBLK
  5
41
330
3F
100
AcDbEntity
  8
0
100
AcDbBlockEnd
  0
BLOCK
  5
43
330
42
100
AcDbEntity
  8
0
100
AcDbBlockBegin
  2
_3
 70
     0
 71
     0
 10
498.046972478719
 20
-945.7899458213515
 30
0.0
  3
_3
  1

  0
LINE
  5
11E
330
42
100
AcDbEntity
  8
1
  6
Continuous
 62
     3
100
AcDbLine
 10
526.2065930456024
 20
-1187.17910772598
 30
0.0
 11
527.6499687185765
 21
-1189.67910772598
 31
0.0
  0
LINE
  5
11F
330
42
100
AcDbEntity
  8
1
  6
Continuous
 62
     3
100
AcDbLine
 10
527.6499687185765
 20
-1245.67910772598
 30
0.0
 11
527.6499687185765
 21
-1189.67910772598
 31
0.0
  0
LINE
  5
120
330
42
100
AcDbEntity
  8
1
  6
Continuous
 62
     3
100
AcDbLine
 10
507.5159941223611
 20
-1187.17910772598
 30
0.0
 11
526.2065930456024
 21
-1187.17910772598
 31
0.0
  0
LINE
  5
121
330
42
100
AcDbEntity
  8
1
  6
Continuous
 62
     3
100
AcDbLine
 10
503.6499687185768
 20
-1186.67910772598
 30
0.0
 11
506.6499687185768
 21
-1186.67910772598
 31
0.0
  0
LINE
  5
122
330
42
100
AcDbEntity
  8
1
  6
Continuous
 62
     3
100
AcDbLine
 10
503.6499687185768
 20
-1190.87910772598
 30
0.0
 11
503.6499687185768
 21
-1186.67910772598
 31
0.0
  0
LINE
  5
123
330
42
100
AcDbEntity
  8
1
  6
Continuous
 62
     3
100
AcDbLine
 10
527.6499687185765
 20
-1245.67910772598
 30
0.0
 11
526.2065930456024
 21
-1248.17910772598
 31
0.0
  0
LINE
  5
124
330
42
100
AcDbEntity
  8
1
  6
Continuous
 62
     3
100
AcDbLine
 10
526.2065930456024
 20
-1248.17910772598
 30
0.0
 11
507.5159941223611
 21
-1248.17910772598
 31
0.0
  0
LINE
  5
125
330
42
100
AcDbEntity
  8
1
  6
Continuous
 62
     3
100
AcDbLine
 10
503.6499687185768
 20
-1248.67910772598
 30
0.0
 11
506.6499687185768
 21
-1248.67910772598
 31
0.0
  0
LINE
  5
126
330
42
100
AcDbEntity
  8
1
  6
Continuous
 62
     3
100
AcDbLine
 10
503.6499687185768
 20
-1248.67910772598
 30
0.0
 11
503.6499687185768
 21
-1244.47910772598
 31
0.0
  0
LINE
  5
127
330
42
100
AcDbEntity
  8
1
  6
Continuous
 62
     3
100
AcDbLine
 10
503.6499687185768
 20
-1244.47910772598
 30
0.0
 11
503.6499687185768
 21
-1190.87910772598
 31
0.0
  0
LINE
  5
128
330
42
100
AcDbEntity
  8
1
  6
Continuous
 62
     3
100
AcDbLine
 10
507.5159941223611
 20
-1235.67910772598
 30
0.0
 11
507.5159941223611
 21
-1248.17910772598
 31
0.0
  0
LINE
  5
129
330
42
100
AcDbEntity
  8
1
  6
Continuous
 62
     3
100
AcDbLine
 10
507.5159941223611
 20
-1199.668477461448
 30
0.0
 11
521.7643384540447
 21
-1199.668477461448
 31
0.0
  0
LINE
  5
12A
330
42
100
AcDbEntity
  8
1
  6
Continuous
 62
     3
100
AcDbLine
 10
507.5159941223611
 20
-1187.17910772598
 30
0.0
 11
507.5159941223611
 21
-1199.668477461448
 31
0.0
  0
LINE
  5
12B
330
42
100
AcDbEntity
  8
1
  6
Continuous
 62
     3
100
AcDbLine
 10
507.5159941223611
 20
-1235.67910772598
 30
0.0
 11
521.7721132230668
 21
-1235.67910772598
 31
0.0
  0
LINE
  5
12C
330
42
100
AcDbEntity
  8
1
  6
Continuous
 62
     3
100
AcDbLine
 10
507.5159941223611
 20
-1199.668477461448
 30
0.0
 11
507.5159941223611
 21
-1235.67910772598
 31
0.0
  0
LINE
  5
12D
330
42
100
AcDbEntity
  8
1
  6
Continuous
 62
     3
100
AcDbLine
 10
663.7839433147919
 20
-1235.67910772598
 30
0.0
 11
663.7839433147919
 21
-1199.668477461448
 31
0.0
  0
LINE
  5
12E
330
42
100
AcDbEntity
  8
1
  6
Continuous
 62
     3
100
AcDbLine
 10
649.5278242140862
 20
-1235.67910772598
 30
0.0
 11
663.7839433147919
 21
-1235.67910772598
 31
0.0
  0
LINE
  5
12F
330
42
100
AcDbEntity
  8
1
  6
Continuous
 62
     3
100
AcDbLine
 10
663.7839433147919
 20
-1199.668477461448
 30
0.0
 11
663.7839433147919
 21
-1187.17910772598
 31
0.0
  0
LINE
  5
130
330
42
100
AcDbEntity
  8
1
  6
Continuous
 62
     3
100
AcDbLine
 10
649.5355989831082
 20
-1199.668477461448
 30
0.0
 11
663.7839433147919
 21
-1199.668477461448
 31
0.0
  0
LINE
  5
131
330
42
100
AcDbEntity
  8
1
  6
Continuous
 62
     3
100
AcDbLine
 10
663.7839433147919
 20
-1248.17910772598
 30
0.0
 11
663.7839433147919
 21
-1235.67910772598
 31
0.0
  0
LINE
  5
132
330
42
100
AcDbEntity
  8
1
  6
Continuous
 62
     3
100
AcDbLine
 10
667.6499687185763
 20
-1190.87910772598
 30
0.0
 11
667.6499687185763
 21
-1244.47910772598
 31
0.0
  0
LINE
  5
133
330
42
100
AcDbEntity
  8
1
  6
Continuous
 62
     3
100
AcDbLine
 10
667.6499687185763
 20
-1244.47910772598
 30
0.0
 11
667.6499687185763
 21
-1248.67910772598
 31
0.0
  0
LINE
  5
134
330
42
100
AcDbEntity
  8
1
  6
Continuous
 62
     3
100
AcDbLine
 10
664.6499687185763
 20
-1248.67910772598
 30
0.0
 11
667.6499687185763
 21
-1248.67910772598
 31
0.0
  0
LINE
  5
135
330
42
100
AcDbEntity
  8
1
  6
Continuous
 62
     3
100
AcDbLine
 10
663.7839433147919
 20
-1248.17910772598
 30
0.0
 11
645.0933443915505
 21
-1248.17910772598
 31
0.0
  0
LINE
  5
136
330
42
100
AcDbEntity
  8
1
  6
Continuous
 62
     3
100
AcDbLine
 10
645.0933443915505
 20
-1248.17910772598
 30
0.0
 11
643.6499687185765
 21
-1245.67910772598
 31
0.0
  0
LINE
  5
137
330
42
100
AcDbEntity
  8
1
  6
Continuous
 62
     3
100
AcDbLine
 10
667.6499687185763
 20
-1186.67910772598
 30
0.0
 11
667.6499687185763
 21
-1190.87910772598
 31
0.0
  0
LINE
  5
138
330
42
100
AcDbEntity
  8
1
  6
Continuous
 62
     3
100
AcDbLine
 10
664.6499687185763
 20
-1186.67910772598
 30
0.0
 11
667.6499687185763
 21
-1186.67910772598
 31
0.0
  0
LINE
  5
139
330
42
100
AcDbEntity
  8
1
  6
Continuous
 62
     3
100
AcDbLine
 10
645.0933443915505
 20
-1187.17910772598
 30
0.0
 11
663.7839433147919
 21
-1187.17910772598
 31
0.0
  0
LINE
  5
13A
330
42
100
AcDbEntity
  8
1
  6
Continuous
 62
     3
100
AcDbLine
 10
643.6499687185765
 20
-1189.67910772598
 30
0.0
 11
643.6499687185765
 21
-1245.67910772598
 31
0.0
  0
LINE
  5
13B
330
42
100
AcDbEntity
  8
1
  6
Continuous
 62
     3
100
AcDbLine
 10
643.6499687185765
 20
-1189.67910772598
 30
0.0
 11
645.0933443915505
 21
-1187.17910772598
 31
0.0
  0
LINE
  5
13C
330
42
100
AcDbEntity
  8
1
  6
Continuous
 62
     3
100
AcDbLine
 10
561.1767886857497
 20
-1199.47708973124
 30
0.0
 11
582.1231487514031
 21
-1187.383703108792
 31
0.0
  0
LINE
  5
13D
330
42
100
AcDbEntity
  8
1
  6
Continuous
 62
     3
100
AcDbLine
 10
589.1767886857497
 20
-1187.383703108792
 30
0.0
 11
610.1231487514033
 21
-1199.47708973124
 31
0.0
  0
LINE
  5
13E
330
42
100
AcDbEntity
  8
1
  6
Continuous
 62
     3
100
AcDbLine
 10
557.6499687185765
 20
-1229.772494348428
 30
0.0
 11
557.6499687185765
 21
-1205.585721103532
 31
0.0
  0
LINE
  5
13F
330
42
100
AcDbEntity
  8
1
  6
Continuous
 62
     3
100
AcDbLine
 10
582.1231487514031
 20
-1247.974512343168
 30
0.0
 11
561.1767886857497
 21
-1235.88112572072
 31
0.0
  0
LINE
  5
140
330
42
100
AcDbEntity
  8
1
  6
Continuous
 62
     3
100
AcDbLine
 10
610.1231487514031
 20
-1235.88112572072
 30
0.0
 11
589.1767886857497
 21
-1247.974512343168
 31
0.0
  0
LINE
  5
141
330
42
100
AcDbEntity
  8
1
  6
Continuous
 62
     3
100
AcDbLine
 10
613.6499687185765
 20
-1217.67910772598
 30
0.0
 11
613.6499687185765
 21
-1229.772494348428
 31
0.0
  0
LINE
  5
142
330
42
100
AcDbEntity
  8
1
  6
Continuous
 62
     3
100
AcDbLine
 10
613.6499687185765
 20
-1205.585721103532
 30
0.0
 11
613.6499687185765
 21
-1217.67910772598
 31
0.0
  0
ARC
  5
143
330
42
100
AcDbEntity
  8
1
  6
Continuous
 62
     3
100
AcDbCircle
 10
497.1499687185765
 20
-1217.67910772598
 30
0.0
 40
30.50000000000001
100
AcDbArc
 50
-36.16864234757872
 51
36.19338290010253
  0
ARC
  5
144
330
42
100
AcDbEntity
  8
1
  6
Continuous
 62
     3
100
AcDbCircle
 10
519.668003180223
 20
-1191.948025504491
 30
0.0
 40
7.999999999996953
100
AcDbArc
 50
-74.80874362353157
 51
3.84791834814681
  0
ARC
  5
145
330
42
100
AcDbEntity
  8
1
  6
Continuous
 62
     3
100
AcDbCircle
 10
519.668003180223
 20
-1243.410189947469
 30
0.0
 40
7.999999999996957
100
AcDbArc
 50
-3.84791834814681
 51
74.80874362353157
  0
ARC
  5
146
330
42
100
AcDbEntity
  8
1
  6
Continuous
 62
     3
100
AcDbCircle
 10
651.63193425693
 20
-1243.410189947469
 30
0.0
 40
7.999999999996953
100
AcDbArc
 50
105.1912563764684
 51
-176.1520816518532
  0
ARC
  5
147
330
42
100
AcDbEntity
  8
1
  6
Continuous
 62
     3
100
AcDbCircle
 10
651.63193425693
 20
-1191.948025504491
 30
0.0
 40
7.999999999996957
100
AcDbArc
 50
176.1520816518532
 51
-105.1912563764684
  0
ARC
  5
148
330
42
100
AcDbEntity
  8
1
  6
Continuous
 62
     3
100
AcDbCircle
 10
674.1499687185765
 20
-1217.67910772598
 30
0.0
 40
30.50000000000017
100
AcDbArc
 50
143.8066170998975
 51
-143.8313576524213
  0
ARC
  5
149
330
42
100
AcDbEntity
  8
1
  6
Continuous
 62
     3
100
AcDbCircle
 10
585.6499687185765
 20
-1217.67910772598
 30
0.0
 40
30.49999999999987
100
AcDbArc
 50
83.35983767501902
 51
96.6401623249814
  0
ARC
  5
14A
330
42
100
AcDbEntity
  8
1
  6
Continuous
 62
     3
100
AcDbCircle
 10
585.6499687185765
 20
-1217.67910772598
 30
0.0
 40
30.49999999999979
100
AcDbArc
 50
143.3598376750197
 51
156.6401623249809
  0
ARC
  5
14B
330
42
100
AcDbEntity
  8
1
  6
Continuous
 62
     3
100
AcDbCircle
 10
585.6499687185765
 20
-1217.67910772598
 30
0.0
 40
30.50000000000005
100
AcDbArc
 50
-156.6401623249809
 51
-143.3598376750194
  0
ARC
  5
14C
330
42
100
AcDbEntity
  8
1
  6
Continuous
 62
     3
100
AcDbCircle
 10
585.6499687185765
 20
-1217.67910772598
 30
0.0
 40
30.49999999999989
100
AcDbArc
 50
-96.6401623249814
 51
-83.35983767501902
  0
ARC
  5
14D
330
42
100
AcDbEntity
  8
1
  6
Continuous
 62
     3
100
AcDbCircle
 10
585.6499687185765
 20
-1217.67910772598
 30
0.0
 40
30.49999999999975
100
AcDbArc
 50
-36.6401623249809
 51
-23.35983767501908
  0
ARC
  5
14E
330
42
100
AcDbEntity
  8
1
  6
Continuous
 62
     3
100
AcDbCircle
 10
585.6499687185765
 20
-1217.67910772598
 30
0.0
 40
30.50000000000005
100
AcDbArc
 50
23.35983767501908
 51
36.6401623249803
  0
CIRCLE
  5
14F
330
42
100
AcDbEntity
  8
1
  6
Continuous
 62
     3
100
AcDbCircle
 10
585.6499687185765
 20
-1217.67910772598
 30
0.0
 40
31.0
  0
CIRCLE
  5
150
330
42
100
AcDbEntity
  8
1
  6
Continuous
 62
     3
100
AcDbCircle
 10
585.6499687185765
 20
-1217.67910772598
 30
0.0
 40
28.0
  0
CIRCLE
  5
151
330
42
100
AcDbEntity
  8
1
  6
Continuous
 62
     1
100
AcDbCircle
 10
585.6499687185765
 20
-1217.67910772598
 30
0.0
 40
23.79999999999996
  0
CIRCLE
  5
152
330
42
100
AcDbEntity
  8
1
  6
Continuous
 62
     3
100
AcDbCircle
 10
585.6499687185765
 20
-1217.67910772598
 30
0.0
 40
22.39999999999986
  0
ARC
  5
153
330
42
100
AcDbEntity
  8
1
  6
Continuous
 62
     3
100
AcDbCircle
 10
506.6499687185768
 20
-1187.67910772598
 30
0.0
 40
0.9999999999998851
100
AcDbArc
 50
30.0000000000038
 51
90.0
  0
ARC
  5
154
330
42
100
AcDbEntity
  8
1
  6
Continuous
 62
     3
100
AcDbCircle
 10
506.6499687185768
 20
-1247.67910772598
 30
0.0
 40
1.0
100
AcDbArc
 50
-90.0
 51
-30.0000000000038
  0
ARC
  5
155
330
42
100
AcDbEntity
  8
1
  6
Continuous
 62
     3
100
AcDbCircle
 10
664.6499687185763
 20
-1247.67910772598
 30
0.0
 40
0.9999999999998851
100
AcDbArc
 50
-149.9999999999962
 51
-90.0
  0
ARC
  5
156
330
42
100
AcDbEntity
  8
1
  6
Continuous
 62
     3
100
AcDbCircle
 10
664.6499687185763
 20
-1187.67910772598
 30
0.0
 40
1.0
100
AcDbArc
 50
90.0
 51
149.9999999999962
  0
ENDBLK
  5
44
330
42
100
AcDbEntity
  8
0
100
AcDbBlockEnd
  0
ENDSEC
  0
SECTION
  2
ENTITIES
  0
INSERT
  5
45
330
1F
100
AcDbEntity
  8
1
100
AcDbBlockReference
  2
_4
 10
334.9703936029752
 20
-273.63030285773
 30
0.0
  0
INSERT
  5
46
330
1F
100
AcDbEntity
  8
1
100
AcDbBlockReference
  2
_5
 10
342.880174469531
 20
-262.13030285773
 30
0.0
  0
INSERT
  5
47
330
1F
100
AcDbEntity
  8
0
100
AcDbBlockReference
  2
TOP
 10
371.772968345943
 20
-1216.62614457102
 30
0.0
  0
INSERT
  5
48
330
1F
100
AcDbEntity
  8
0
100
AcDbBlockReference
  2
Top__1
 10
1133.248175402998
 20
-2016.555297569957
 30
0.0
  0
INSERT
  5
49
330
1F
100
AcDbEntity
  8
0
100
AcDbBlockReference
  2
Top__2
 10
668.411584178457
 20
-1704.33848862365
 30
0.0
  0
INSERT
  5
4A
330
1F
100
AcDbEntity
  8
1
100
AcDbBlockReference
  2
_3
 10
498.046972478719
 20
-945.7899458213515
 30
0.0
  0
LINE
  5
157
330
1F
100
AcDbEntity
  8
1
  6
Continuous
 62
     3
100
AcDbLine
 10
344.6499687185768
 20
-1252.564737990512
 30
0.0
 11
344.6499687185768
 21
-1264.793477461448
 31
0.0
  0
LINE
  5
158
330
1F
100
AcDbEntity
  8
1
  6
Continuous
 62
     3
100
AcDbLine
 10
346.1499687185768
 20
-1173.67910772598
 30
0.0
 11
346.1499687185768
 21
-1186.67910772598
 31
0.0
  0
LINE
  5
159
330
1F
100
AcDbEntity
  8
1
  6
Continuous
 62
     3
100
AcDbLine
 10
343.1499687185768
 20
-1173.67910772598
 30
0.0
 11
343.1499687185768
 21
-1186.67910772598
 31
0.0
  0
LINE
  5
15A
330
1F
100
AcDbEntity
  8
1
  6
Continuous
 62
     3
100
AcDbLine
 10
325.6499687185768
 20
-1150.17910772598
 30
0.0
 11
327.6499687185768
 21
-1150.17910772598
 31
0.0
  0
LINE
  5
15B
330
1F
100
AcDbEntity
  8
1
  6
Continuous
 62
     3
100
AcDbLine
 10
361.6499687185768
 20
-1150.17910772598
 30
0.0
 11
363.6499687185768
 21
-1150.17910772598
 31
0.0
  0
LINE
  5
15C
330
1F
100
AcDbEntity
  8
1
  6
Continuous
 62
     3
100
AcDbLine
 10
364.6499687185768
 20
-1149.17910772598
 30
0.0
 11
364.6499687185768
 21
-1145.67910772598
 31
0.0
  0
LINE
  5
15D
330
1F
100
AcDbEntity
  8
1
  6
Continuous
 62
     3
100
AcDbLine
 10
327.6499687185768
 20
-1150.17910772598
 30
0.0
 11
361.6499687185768
 21
-1150.17910772598
 31
0.0
  0
LINE
  5
15E
330
1F
100
AcDbEntity
  8
1
  6
Continuous
 62
     3
100
AcDbLine
 10
325.6499687185768
 20
-1150.17910772598
 30
0.0
 11
327.6499687185768
 21
-1150.17910772598
 31
0.0
  0
LINE
  5
15F
330
1F
100
AcDbEntity
  8
1
  6
Continuous
 62
     3
100
AcDbLine
 10
324.6499687185768
 20
-1145.67910772598
 30
0.0
 11
324.6499687185768
 21
-1149.17910772598
 31
0.0
  0
LINE
  5
160
330
1F
100
AcDbEntity
  8
1
  6
Continuous
 62
     3
100
AcDbLine
 10
324.6499687185768
 20
-1145.67910772598
 30
0.0
 11
331.6499687185766
 21
-1145.67910772598
 31
0.0
  0
LINE
  5
161
330
1F
100
AcDbEntity
  8
1
  6
Continuous
 62
     3
100
AcDbLine
 10
364.6499687185768
 20
-1145.67910772598
 30
0.0
 11
331.6499687185766
 21
-1145.67910772598
 31
0.0
  0
LINE
  5
162
330
1F
100
AcDbEntity
  8
1
  6
Continuous
 62
     3
100
AcDbLine
 10
358.6499687185768
 20
-1157.67910772598
 30
0.0
 11
358.6499687185768
 21
-1153.17910772598
 31
0.0
  0
LINE
  5
163
330
1F
100
AcDbEntity
  8
1
  6
Continuous
 62
     3
100
AcDbLine
 10
330.6499687185768
 20
-1153.17910772598
 30
0.0
 11
330.6499687185768
 21
-1157.67910772598
 31
0.0
  0
LINE
  5
164
330
1F
100
AcDbEntity
  8
1
  6
Continuous
 62
     3
100
AcDbLine
 10
331.6499687185768
 20
-1159.411158533549
 30
0.0
 11
357.6499687185768
 21
-1159.411158533549
 31
0.0
  0
LINE
  5
165
330
1F
100
AcDbEntity
  8
1
  6
Continuous
 62
     3
100
AcDbLine
 10
349.0875939740223
 20
-1247.67910772598
 30
0.0
 11
372.6499687185768
 21
-1247.67910772598
 31
0.0
  0
LINE
  5
166
330
1F
100
AcDbEntity
  8
1
  6
Continuous
 62
     3
100
AcDbLine
 10
316.6499687185768
 20
-1247.67910772598
 30
0.0
 11
340.6114929456432
 21
-1247.67910772598
 31
0.0
  0
LINE
  5
167
330
1F
100
AcDbEntity
  8
1
  6
Continuous
 62
     3
100
AcDbLine
 10
356.9515056146471
 20
-1173.507573539066
 30
0.0
 11
364.61082183989
 21
-1194.551371916384
 31
0.0
  0
LINE
  5
168
330
1F
100
AcDbEntity
  8
1
  6
Continuous
 62
     3
100
AcDbLine
 10
356.6499687185768
 20
-1172.67910772598
 30
0.0
 11
356.9515056146471
 21
-1173.507573539066
 31
0.0
  0
LINE
  5
169
330
1F
100
AcDbEntity
  8
1
  6
Continuous
 62
     3
100
AcDbLine
 10
356.6499687185768
 20
-1161.143209341118
 30
0.0
 11
356.6499687185768
 21
-1187.084990644423
 31
0.0
  0
LINE
  5
16A
330
1F
100
AcDbEntity
  8
1
  6
Continuous
 62
     3
100
AcDbLine
 10
332.6499687185768
 20
-1161.143209341118
 30
0.0
 11
332.6499687185768
 21
-1187.084990644423
 31
0.0
  0
LINE
  5
16B
330
1F
100
AcDbEntity
  8
1
  6
Continuous
 62
     3
100
AcDbLine
 10
332.3484318225063
 20
-1173.507573539066
 30
0.0
 11
324.6891155972634
 21
-1194.551371916384
 31
0.0
  0
LINE
  5
16C
330
1F
100
AcDbEntity
  8
1
  6
Continuous
 62
     3
100
AcDbLine
 10
372.6499687185768
 20
-1247.67910772598
 30
0.0
 11
368.6437534683145
 21
-1240.740139366469
 31
0.0
  0
LINE
  5
16D
330
1F
100
AcDbEntity
  8
1
  6
Continuous
 62
     3
100
AcDbLine
 10
316.6499687185768
 20
-1247.67910772598
 30
0.0
 11
320.656183968839
 21
-1240.740139366469
 31
0.0
  0
LINE
  5
16E
330
1F
100
AcDbEntity
  8
1
  6
Continuous
 62
     3
100
AcDbLine
 10
316.6499687185768
 20
-1269.67910772598
 30
0.0
 11
372.6499687185768
 21
-1269.67910772598
 31
0.0
  0
LINE
  5
16F
330
1F
100
AcDbEntity
  8
1
  6
Continuous
 62
     3
100
AcDbLine
 10
316.6499687185768
 20
-1269.67910772598
 30
0.0
 11
316.6499687185768
 21
-1247.67910772598
 31
0.0
  0
LINE
  5
170
330
1F
100
AcDbEntity
  8
1
  6
Continuous
 62
     3
100
AcDbLine
 10
372.6499687185768
 20
-1247.67910772598
 30
0.0
 11
372.6499687185768
 21
-1269.67910772598
 31
0.0
  0
LINE
  5
171
330
1F
100
AcDbEntity
  8
1
  6
Continuous
 62
     3
100
AcDbLine
 10
372.6499687185768
 20
-1217.67910772598
 30
0.0
 11
372.6499687185768
 21
-1229.772494348428
 31
0.0
  0
LINE
  5
172
330
1F
100
AcDbEntity
  8
1
  6
DOT_CENTER
 62
     1
100
AcDbLine
 10
310.507384558913
 20
-1217.67910772598
 30
0.0
 11
377.91597253194
 21
-1217.67910772598
 31
0.0
  0
LINE
  5
173
330
1F
100
AcDbEntity
  8
1
  6
Continuous
 62
     3
100
AcDbLine
 10
320.17678868575
 20
-1199.47708973124
 30
0.0
 11
341.1231487514034
 21
-1187.383703108792
 31
0.0
  0
LINE
  5
174
330
1F
100
AcDbEntity
  8
1
  6
Continuous
 62
     3
100
AcDbLine
 10
348.17678868575
 20
-1187.383703108792
 30
0.0
 11
369.1231487514036
 21
-1199.47708973124
 31
0.0
  0
LINE
  5
175
330
1F
100
AcDbEntity
  8
1
  6
Continuous
 62
     3
100
AcDbLine
 10
372.6499687185768
 20
-1205.585721103532
 30
0.0
 11
372.6499687185768
 21
-1217.67910772598
 31
0.0
  0
LINE
  5
176
330
1F
100
AcDbEntity
  8
1
  6
Continuous
 62
     3
100
AcDbLine
 10
369.1231487514034
 20
-1235.88112572072
 30
0.0
 11
348.17678868575
 21
-1247.974512343168
 31
0.0
  0
LINE
  5
177
330
1F
100
AcDbEntity
  8
1
  6
Continuous
 62
     3
100
AcDbLine
 10
341.1231487514034
 20
-1247.974512343168
 30
0.0
 11
320.17678868575
 21
-1235.88112572072
 31
0.0
  0
LINE
  5
178
330
1F
100
AcDbEntity
  8
1
  6
Continuous
 62
     3
100
AcDbLine
 10
316.6499687185768
 20
-1229.772494348428
 30
0.0
 11
316.6499687185768
 21
-1205.585721103532
 31
0.0
  0
LINE
  5
179
330
1F
100
AcDbEntity
  8
1
  6
DOT_CENTER
 62
     1
100
AcDbLine
 10
344.6499687185768
 20
-1117.67910772598
 30
0.0
 11
344.6499687185768
 21
-1272.67910772598
 31
0.0
  0
LINE
  5
17A
330
1F
100
AcDbEntity
  8
1
  6
Continuous
 62
     3
100
AcDbLine
 10
499.0499687185769
 20
-1217.67910772598
 30
0.0
 11
499.4499687185769
 21
-1218.07910772598
 31
0.0
  0
LINE
  5
17B
330
1F
100
AcDbEntity
  8
1
  6
Continuous
 62
     3
100
AcDbLine
 10
499.4499687185769
 20
-1218.07910772598
 30
0.0
 11
499.8499687185769
 21
-1219.07910772598
 31
0.0
  0
LINE
  5
17C
330
1F
100
AcDbEntity
  8
1
  6
Continuous
 62
     3
100
AcDbLine
 10
499.8499687185769
 20
-1219.07910772598
 30
0.0
 11
499.8499687185769
 21
-1220.07910772598
 31
0.0
  0
LINE
  5
17D
330
1F
100
AcDbEntity
  8
1
  6
Continuous
 62
     3
100
AcDbLine
 10
499.8499687185769
 20
-1220.07910772598
 30
0.0
 11
499.4499687185769
 21
-1220.87910772598
 31
0.0
  0
LINE
  5
17E
330
1F
100
AcDbEntity
  8
1
  6
Continuous
 62
     3
100
AcDbLine
 10
499.4499687185769
 20
-1220.87910772598
 30
0.0
 11
499.0499687185769
 21
-1221.27910772598
 31
0.0
  0
LINE
  5
17F
330
1F
100
AcDbEntity
  8
1
  6
Continuous
 62
     3
100
AcDbLine
 10
499.2499687185768
 20
-1214.47910772598
 30
0.0
 11
499.4499687185769
 21
-1215.27910772598
 31
0.0
  0
LINE
  5
180
330
1F
100
AcDbEntity
  8
1
  6
Continuous
 62
     3
100
AcDbLine
 10
499.4499687185769
 20
-1215.87910772598
 30
0.0
 11
499.0499687185769
 21
-1216.67910772598
 31
0.0
  0
LINE
  5
181
330
1F
100
AcDbEntity
  8
1
  6
Continuous
 62
     3
100
AcDbLine
 10
499.4499687185769
 20
-1215.27910772598
 30
0.0
 11
499.4499687185769
 21
-1215.87910772598
 31
0.0
  0
LINE
  5
182
330
1F
100
AcDbEntity
  8
1
  6
Continuous
 62
     3
100
AcDbLine
 10
474.0484062185769
 20
-1262.67910772598
 30
0.0
 11
474.0484062185769
 21
-1258.27910772598
 31
0.0
  0
LINE
  5
183
330
1F
100
AcDbEntity
  8
1
  6
Continuous
 62
     3
100
AcDbLine
 10
477.6484062185768
 20
-1262.67910772598
 30
0.0
 11
474.0484062185769
 21
-1262.67910772598
 31
0.0
  0
LINE
  5
184
330
1F
100
AcDbEntity
  8
1
  6
Continuous
 62
     3
100
AcDbLine
 10
477.2484062185769
 20
-1258.27910772598
 30
0.0
 11
477.6484062185768
 21
-1258.27910772598
 31
0.0
  0
LINE
  5
185
330
1F
100
AcDbEntity
  8
1
  6
Continuous
 62
     3
100
AcDbLine
 10
477.6484062185768
 20
-1258.27910772598
 30
0.0
 11
478.4484062185769
 21
-1258.67910772598
 31
0.0
  0
LINE
  5
186
330
1F
100
AcDbEntity
  8
1
  6
Continuous
 62
     3
100
AcDbLine
 10
478.4484062185769
 20
-1258.67910772598
 30
0.0
 11
478.8484062185769
 21
-1259.07910772598
 31
0.0
  0
LINE
  5
187
330
1F
100
AcDbEntity
  8
1
  6
Continuous
 62
     3
100
AcDbLine
 10
478.8484062185769
 20
-1259.07910772598
 30
0.0
 11
479.2484062185769
 21
-1260.07910772598
 31
0.0
  0
LINE
  5
188
330
1F
100
AcDbEntity
  8
1
  6
Continuous
 62
     3
100
AcDbLine
 10
479.2484062185769
 20
-1260.07910772598
 30
0.0
 11
479.2484062185769
 21
-1261.07910772598
 31
0.0
  0
LINE
  5
189
330
1F
100
AcDbEntity
  8
1
  6
Continuous
 62
     3
100
AcDbLine
 10
479.2484062185769
 20
-1261.07910772598
 30
0.0
 11
478.8484062185769
 21
-1261.87910772598
 31
0.0
  0
LINE
  5
18A
330
1F
100
AcDbEntity
  8
1
  6
Continuous
 62
     3
100
AcDbLine
 10
478.8484062185769
 20
-1261.87910772598
 30
0.0
 11
478.4484062185769
 21
-1262.27910772598
 31
0.0
  0
LINE
  5
18B
330
1F
100
AcDbEntity
  8
1
  6
Continuous
 62
     3
100
AcDbLine
 10
478.4484062185769
 20
-1262.27910772598
 30
0.0
 11
477.6484062185768
 21
-1262.67910772598
 31
0.0
  0
LINE
  5
18C
330
1F
100
AcDbEntity
  8
1
  6
Continuous
 62
     3
100
AcDbLine
 10
477.0484062185769
 20
-1254.67910772598
 30
0.0
 11
478.0484062185769
 21
-1254.87910772598
 31
0.0
  0
LINE
  5
18D
330
1F
100
AcDbEntity
  8
1
  6
Continuous
 62
     3
100
AcDbLine
 10
478.0484062185769
 20
-1254.87910772598
 30
0.0
 11
478.6484062185768
 21
-1255.47910772598
 31
0.0
  0
LINE
  5
18E
330
1F
100
AcDbEntity
  8
1
  6
Continuous
 62
     3
100
AcDbLine
 10
478.6484062185768
 20
-1255.47910772598
 30
0.0
 11
478.8484062185769
 21
-1256.27910772598
 31
0.0
  0
LINE
  5
18F
330
1F
100
AcDbEntity
  8
1
  6
Continuous
 62
     3
100
AcDbLine
 10
478.8484062185769
 20
-1256.87910772598
 30
0.0
 11
478.4484062185769
 21
-1257.67910772598
 31
0.0
  0
LINE
  5
190
330
1F
100
AcDbEntity
  8
1
  6
Continuous
 62
     3
100
AcDbLine
 10
478.4484062185769
 20
-1257.67910772598
 30
0.0
 11
477.8484062185769
 21
-1258.07910772598
 31
0.0
  0
LINE
  5
191
330
1F
100
AcDbEntity
  8
1
  6
Continuous
 62
     3
100
AcDbLine
 10
477.8484062185769
 20
-1258.07910772598
 30
0.0
 11
477.2484062185769
 21
-1258.27910772598
 31
0.0
  0
LINE
  5
192
330
1F
100
AcDbEntity
  8
1
  6
Continuous
 62
     3
100
AcDbLine
 10
478.8484062185769
 20
-1256.27910772598
 30
0.0
 11
478.8484062185769
 21
-1256.87910772598
 31
0.0
  0
LINE
  5
193
330
1F
100
AcDbEntity
  8
1
  6
Continuous
 62
     3
100
AcDbLine
 10
474.0484062185769
 20
-1258.27910772598
 30
0.0
 11
474.0484062185769
 21
-1254.67910772598
 31
0.0
  0
LINE
  5
194
330
1F
100
AcDbEntity
  8
1
  6
Continuous
 62
     3
100
AcDbLine
 10
474.0484062185769
 20
-1254.67910772598
 30
0.0
 11
477.0484062185769
 21
-1254.67910772598
 31
0.0
  0
LINE
  5
195
330
1F
100
AcDbEntity
  8
1
  6
Continuous
 62
     3
100
AcDbLine
 10
474.0484062185769
 20
-1258.27910772598
 30
0.0
 11
477.2484062185769
 21
-1258.27910772598
 31
0.0
  0
LINE
  5
196
330
1F
100
AcDbEntity
  8
1
  6
Continuous
 62
     3
100
AcDbLine
 10
465.2484062185769
 20
-1262.67910772598
 30
0.0
 11
468.4484062185769
 21
-1254.67910772598
 31
0.0
  0
LINE
  5
197
330
1F
100
AcDbEntity
  8
1
  6
Continuous
 62
     3
100
AcDbLine
 10
466.2484062185769
 20
-1260.27910772598
 30
0.0
 11
470.6484062185768
 21
-1260.27910772598
 31
0.0
  0
LINE
  5
198
330
1F
100
AcDbEntity
  8
1
  6
Continuous
 62
     3
100
AcDbLine
 10
468.4484062185769
 20
-1254.67910772598
 30
0.0
 11
471.6484062185768
 21
-1262.67910772598
 31
0.0
  0
LINE
  5
199
330
1F
100
AcDbEntity
  8
1
  6
Continuous
 62
     3
100
AcDbLine
 10
498.6499687185769
 20
-1222.67910772598
 30
0.0
 11
498.6499687185769
 21
-1247.849366425063
 31
0.0
  0
LINE
  5
19A
330
1F
100
AcDbEntity
  8
1
  6
Continuous
 62
     3
100
AcDbLine
 10
497.6499687185769
 20
-1222.67910772598
 30
0.0
 11
497.6499687185769
 21
-1247.825151705953
 31
0.0
  0
LINE
  5
19B
330
1F
100
AcDbEntity
  8
1
  6
Continuous
 62
     3
100
AcDbLine
 10
498.6499687185769
 20
-1212.67910772598
 30
0.0
 11
497.6499687185769
 21
-1212.67910772598
 31
0.0
  0
LINE
  5
19C
330
1F
100
AcDbEntity
  8
1
  6
Continuous
 62
     3
100
AcDbLine
 10
492.6499687185769
 20
-1212.67910772598
 30
0.0
 11
492.6499687185769
 21
-1222.67910772598
 31
0.0
  0
LINE
  5
19D
330
1F
100
AcDbEntity
  8
1
  6
Continuous
 62
     3
100
AcDbLine
 10
492.6499687185769
 20
-1222.67910772598
 30
0.0
 11
497.6499687185769
 21
-1222.67910772598
 31
0.0
  0
LINE
  5
19E
330
1F
100
AcDbEntity
  8
1
  6
Continuous
 62
     3
100
AcDbLine
 10
497.6499687185769
 20
-1212.67910772598
 30
0.0
 11
492.6499687185769
 21
-1212.67910772598
 31
0.0
  0
LINE
  5
19F
330
1F
100
AcDbEntity
  8
1
  6
Continuous
 62
     3
100
AcDbLine
 10
497.6499687185769
 20
-1222.67910772598
 30
0.0
 11
498.6499687185769
 21
-1222.67910772598
 31
0.0
  0
LINE
  5
1A0
330
1F
100
AcDbEntity
  8
1
  6
Continuous
 62
     3
100
AcDbLine
 10
494.6499687185769
 20
-1217.27910772598
 30
0.0
 11
497.8499687185769
 21
-1217.27910772598
 31
0.0
  0
LINE
  5
1A1
330
1F
100
AcDbEntity
  8
1
  6
Continuous
 62
     3
100
AcDbLine
 10
497.8499687185769
 20
-1217.27910772598
 30
0.0
 11
498.2499687185768
 21
-1217.27910772598
 31
0.0
  0
LINE
  5
1A2
330
1F
100
AcDbEntity
  8
1
  6
Continuous
 62
     3
100
AcDbLine
 10
498.2499687185768
 20
-1217.27910772598
 30
0.0
 11
499.0499687185769
 21
-1217.67910772598
 31
0.0
  0
LINE
  5
1A3
330
1F
100
AcDbEntity
  8
1
  6
Continuous
 62
     3
100
AcDbLine
 10
499.0499687185769
 20
-1221.27910772598
 30
0.0
 11
498.2499687185768
 21
-1221.67910772598
 31
0.0
  0
LINE
  5
1A4
330
1F
100
AcDbEntity
  8
1
  6
Continuous
 62
     3
100
AcDbLine
 10
498.2499687185768
 20
-1221.67910772598
 30
0.0
 11
494.6499687185769
 21
-1221.67910772598
 31
0.0
  0
LINE
  5
1A5
330
1F
100
AcDbEntity
  8
1
  6
Continuous
 62
     3
100
AcDbLine
 10
494.6499687185769
 20
-1221.67910772598
 30
0.0
 11
494.6499687185769
 21
-1217.27910772598
 31
0.0
  0
LINE
  5
1A6
330
1F
100
AcDbEntity
  8
1
  6
Continuous
 62
     3
100
AcDbLine
 10
494.6499687185769
 20
-1213.67910772598
 30
0.0
 11
497.6499687185769
 21
-1213.67910772598
 31
0.0
  0
LINE
  5
1A7
330
1F
100
AcDbEntity
  8
1
  6
Continuous
 62
     3
100
AcDbLine
 10
497.6499687185769
 20
-1213.67910772598
 30
0.0
 11
498.6499687185769
 21
-1213.87910772598
 31
0.0
  0
LINE
  5
1A8
330
1F
100
AcDbEntity
  8
1
  6
Continuous
 62
     3
100
AcDbLine
 10
498.6499687185769
 20
-1213.87910772598
 30
0.0
 11
499.2499687185768
 21
-1214.47910772598
 31
0.0
  0
LINE
  5
1A9
330
1F
100
AcDbEntity
  8
1
  6
Continuous
 62
     3
100
AcDbLine
 10
499.0499687185769
 20
-1216.67910772598
 30
0.0
 11
498.4499687185769
 21
-1217.07910772598
 31
0.0
  0
LINE
  5
1AA
330
1F
100
AcDbEntity
  8
1
  6
Continuous
 62
     3
100
AcDbLine
 10
498.4499687185769
 20
-1217.07910772598
 30
0.0
 11
497.8499687185769
 21
-1217.27910772598
 31
0.0
  0
LINE
  5
1AB
330
1F
100
AcDbEntity
  8
1
  6
Continuous
 62
     3
100
AcDbLine
 10
494.6499687185769
 20
-1217.27910772598
 30
0.0
 11
494.6499687185769
 21
-1213.67910772598
 31
0.0
  0
LINE
  5
1AC
330
1F
100
AcDbEntity
  8
1
  6
Continuous
 62
     3
100
AcDbLine
 10
497.6499687185768
 20
-1187.67910772598
 30
0.0
 11
497.6499687185769
 21
-1212.67910772598
 31
0.0
  0
LINE
  5
1AD
330
1F
100
AcDbEntity
  8
1
  6
Continuous
 62
     3
100
AcDbLine
 10
498.6499687185768
 20
-1186.67910772598
 30
0.0
 11
498.6499687185769
 21
-1212.67910772598
 31
0.0
  0
LINE
  5
1AE
330
1F
100
AcDbEntity
  8
1
  6
Continuous
 62
     3
100
AcDbLine
 10
428.7499687185768
 20
-1219.27910772598
 30
0.0
 11
433.1499687185769
 21
-1219.27910772598
 31
0.0
  0
LINE
  5
1AF
330
1F
100
AcDbEntity
  8
1
  6
Continuous
 62
     3
100
AcDbLine
 10
427.7499687185768
 20
-1221.67910772598
 30
0.0
 11
430.9499687185769
 21
-1213.67910772598
 31
0.0
  0
LINE
  5
1B0
330
1F
100
AcDbEntity
  8
1
  6
Continuous
 62
     3
100
AcDbLine
 10
430.9499687185769
 20
-1213.67910772598
 30
0.0
 11
434.1499687185769
 21
-1221.67910772598
 31
0.0
  0
LINE
  5
1B1
330
1F
100
AcDbEntity
  8
1
  6
Continuous
 62
     3
100
AcDbLine
 10
469.5338278238387
 20
-1217.357249616088
 30
0.0
 11
463.924968718577
 21
-1211.67910772598
 31
0.0
  0
LINE
  5
1B2
330
1F
100
AcDbEntity
  8
1
  6
Continuous
 62
     3
100
AcDbLine
 10
469.5338278238387
 20
-1211.67910772598
 30
0.0
 11
469.5338278238387
 21
-1217.357249616088
 31
0.0
  0
LINE
  5
1B3
330
1F
100
AcDbEntity
  8
1
  6
Continuous
 62
     3
100
AcDbLine
 10
478.9138849813659
 20
-1211.67910772598
 30
0.0
 11
469.5338278238387
 21
-1223.67910772598
 31
0.0
  0
LINE
  5
1B4
330
1F
100
AcDbEntity
  8
1
  6
Continuous
 62
     3
100
AcDbLine
 10
473.16711265815
 20
-1211.67910772598
 30
0.0
 11
478.9138849813659
 21
-1211.67910772598
 31
0.0
  0
LINE
  5
1B5
330
1F
100
AcDbEntity
  8
1
  6
Continuous
 62
     3
100
AcDbLine
 10
463.924968718577
 20
-1223.67910772598
 30
0.0
 11
469.5338278238387
 21
-1223.67910772598
 31
0.0
  0
LINE
  5
1B6
330
1F
100
AcDbEntity
  8
1
  6
Continuous
 62
     3
100
AcDbLine
 10
469.5338278238387
 20
-1217.67910772598
 30
0.0
 11
463.924968718577
 21
-1223.67910772598
 31
0.0
  0
LINE
  5
1B7
330
1F
100
AcDbEntity
  8
1
  6
Continuous
 62
     3
100
AcDbLine
 10
473.16711265815
 20
-1214.677489435571
 30
0.0
 11
473.16711265815
 21
-1211.67910772598
 31
0.0
  0
LINE
  5
1B8
330
1F
100
AcDbEntity
  8
1
  6
Continuous
 62
     3
100
AcDbLine
 10
469.5338278238387
 20
-1217.67910772598
 30
0.0
 11
470.1654943677413
 21
-1217.67910772598
 31
0.0
  0
LINE
  5
1B9
330
1F
100
AcDbEntity
  8
1
  6
Continuous
 62
     3
100
AcDbLine
 10
463.924968718577
 20
-1211.67910772598
 30
0.0
 11
469.5338278238387
 21
-1211.67910772598
 31
0.0
  0
LINE
  5
1BA
330
1F
100
AcDbEntity
  8
1
  6
Continuous
 62
     3
100
AcDbLine
 10
469.1124687185769
 20
-1201.67910772598
 30
0.0
 11
470.074968718577
 21
-1201.67910772598
 31
0.0
  0
LINE
  5
1BB
330
1F
100
AcDbEntity
  8
1
  6
Continuous
 62
     3
100
AcDbLine
 10
470.074968718577
 20
-1201.67910772598
 30
0.0
 11
470.074968718577
 21
-1206.22910772598
 31
0.0
  0
LINE
  5
1BC
330
1F
100
AcDbEntity
  8
1
  6
Continuous
 62
     3
100
AcDbLine
 10
470.074968718577
 20
-1206.22910772598
 30
0.0
 11
470.949968718577
 21
-1206.22910772598
 31
0.0
  0
LINE
  5
1BD
330
1F
100
AcDbEntity
  8
1
  6
Continuous
 62
     3
100
AcDbLine
 10
470.949968718577
 20
-1206.22910772598
 30
0.0
 11
470.949968718577
 21
-1207.10410772598
 31
0.0
  0
LINE
  5
1BE
330
1F
100
AcDbEntity
  8
1
  6
Continuous
 62
     3
100
AcDbLine
 10
470.949968718577
 20
-1207.10410772598
 30
0.0
 11
470.074968718577
 21
-1207.10410772598
 31
0.0
  0
LINE
  5
1BF
330
1F
100
AcDbEntity
  8
1
  6
Continuous
 62
     3
100
AcDbLine
 10
470.074968718577
 20
-1207.10410772598
 30
0.0
 11
470.0749687185769
 21
-1208.67910772598
 31
0.0
  0
LINE
  5
1C0
330
1F
100
AcDbEntity
  8
1
  6
Continuous
 62
     3
100
AcDbLine
 10
470.0749687185769
 20
-1208.67910772598
 30
0.0
 11
469.1124687185769
 21
-1208.67910772598
 31
0.0
  0
LINE
  5
1C1
330
1F
100
AcDbEntity
  8
1
  6
Continuous
 62
     3
100
AcDbLine
 10
469.1124687185769
 20
-1208.67910772598
 30
0.0
 11
469.1124687185769
 21
-1207.10410772598
 31
0.0
  0
LINE
  5
1C2
330
1F
100
AcDbEntity
  8
1
  6
Continuous
 62
     3
100
AcDbLine
 10
469.1124687185769
 20
-1207.10410772598
 30
0.0
 11
466.137468718577
 21
-1207.10410772598
 31
0.0
  0
LINE
  5
1C3
330
1F
100
AcDbEntity
  8
1
  6
Continuous
 62
     3
100
AcDbLine
 10
466.137468718577
 20
-1207.10410772598
 30
0.0
 11
466.137468718577
 21
-1206.14160772598
 31
0.0
  0
LINE
  5
1C4
330
1F
100
AcDbEntity
  8
1
  6
Continuous
 62
     3
100
AcDbLine
 10
466.137468718577
 20
-1206.14160772598
 30
0.0
 11
469.1124687185769
 21
-1201.67910772598
 31
0.0
  0
LINE
  5
1C5
330
1F
100
AcDbEntity
  8
1
  6
Continuous
 62
     3
100
AcDbLine
 10
469.1124687185769
 20
-1203.25410772598
 30
0.0
 11
467.0999687185769
 21
-1206.22910772598
 31
0.0
  0
LINE
  5
1C6
330
1F
100
AcDbEntity
  8
1
  6
Continuous
 62
     3
100
AcDbLine
 10
467.0999687185769
 20
-1206.22910772598
 30
0.0
 11
469.1124687185769
 21
-1206.22910772598
 31
0.0
  0
LINE
  5
1C7
330
1F
100
AcDbEntity
  8
1
  6
Continuous
 62
     3
100
AcDbLine
 10
469.1124687185769
 20
-1206.22910772598
 30
0.0
 11
469.1124687185769
 21
-1203.25410772598
 31
0.0
  0
LINE
  5
1C8
330
1F
100
AcDbEntity
  8
1
  6
Continuous
 62
     3
100
AcDbLine
 10
474.449968718577
 20
-1207.80410772598
 30
0.0
 11
475.0624687185768
 21
-1207.80410772598
 31
0.0
  0
LINE
  5
1C9
330
1F
100
AcDbEntity
  8
1
  6
Continuous
 62
     3
100
AcDbLine
 10
475.0624687185768
 20
-1207.80410772598
 30
0.0
 11
475.4124687185769
 21
-1207.62910772598
 31
0.0
  0
LINE
  5
1CA
330
1F
100
AcDbEntity
  8
1
  6
Continuous
 62
     3
100
AcDbLine
 10
475.4124687185769
 20
-1207.62910772598
 30
0.0
 11
475.762468718577
 21
-1207.36660772598
 31
0.0
  0
LINE
  5
1CB
330
1F
100
AcDbEntity
  8
1
  6
Continuous
 62
     3
100
AcDbLine
 10
475.762468718577
 20
-1207.36660772598
 30
0.0
 11
475.9374687185768
 21
-1207.10410772598
 31
0.0
  0
LINE
  5
1CC
330
1F
100
AcDbEntity
  8
1
  6
Continuous
 62
     3
100
AcDbLine
 10
475.9374687185768
 20
-1207.10410772598
 30
0.0
 11
476.1124687185769
 21
-1206.66660772598
 31
0.0
  0
LINE
  5
1CD
330
1F
100
AcDbEntity
  8
1
  6
Continuous
 62
     3
100
AcDbLine
 10
476.1124687185769
 20
-1206.66660772598
 30
0.0
 11
476.199968718577
 21
-1205.70410772598
 31
0.0
  0
LINE
  5
1CE
330
1F
100
AcDbEntity
  8
1
  6
Continuous
 62
     3
100
AcDbLine
 10
476.199968718577
 20
-1205.70410772598
 30
0.0
 11
476.199968718577
 21
-1204.65410772598
 31
0.0
  0
LINE
  5
1CF
330
1F
100
AcDbEntity
  8
1
  6
Continuous
 62
     3
100
AcDbLine
 10
476.199968718577
 20
-1204.65410772598
 30
0.0
 11
476.1124687185769
 21
-1203.69160772598
 31
0.0
  0
LINE
  5
1D0
330
1F
100
AcDbEntity
  8
1
  6
Continuous
 62
     3
100
AcDbLine
 10
476.1124687185769
 20
-1203.69160772598
 30
0.0
 11
475.9374687185768
 21
-1203.25410772598
 31
0.0
  0
LINE
  5
1D1
330
1F
100
AcDbEntity
  8
1
  6
Continuous
 62
     3
100
AcDbLine
 10
475.9374687185768
 20
-1203.25410772598
 30
0.0
 11
475.762468718577
 21
-1202.99160772598
 31
0.0
  0
LINE
  5
1D2
330
1F
100
AcDbEntity
  8
1
  6
Continuous
 62
     3
100
AcDbLine
 10
475.762468718577
 20
-1202.99160772598
 30
0.0
 11
475.4124687185769
 21
-1202.72910772598
 31
0.0
  0
LINE
  5
1D3
330
1F
100
AcDbEntity
  8
1
  6
Continuous
 62
     3
100
AcDbLine
 10
475.4124687185769
 20
-1202.72910772598
 30
0.0
 11
475.0624687185768
 21
-1202.55410772598
 31
0.0
  0
LINE
  5
1D4
330
1F
100
AcDbEntity
  8
1
  6
Continuous
 62
     3
100
AcDbLine
 10
475.0624687185768
 20
-1202.55410772598
 30
0.0
 11
474.449968718577
 21
-1202.55410772598
 31
0.0
  0
LINE
  5
1D5
330
1F
100
AcDbEntity
  8
1
  6
Continuous
 62
     3
100
AcDbLine
 10
474.449968718577
 20
-1202.55410772598
 30
0.0
 11
474.0999687185769
 21
-1202.72910772598
 31
0.0
  0
LINE
  5
1D6
330
1F
100
AcDbEntity
  8
1
  6
Continuous
 62
     3
100
AcDbLine
 10
474.0999687185769
 20
-1202.72910772598
 30
0.0
 11
473.7499687185768
 21
-1202.99160772598
 31
0.0
  0
LINE
  5
1D7
330
1F
100
AcDbEntity
  8
1
  6
Continuous
 62
     3
100
AcDbLine
 10
473.7499687185768
 20
-1202.99160772598
 30
0.0
 11
473.574968718577
 21
-1203.25410772598
 31
0.0
  0
LINE
  5
1D8
330
1F
100
AcDbEntity
  8
1
  6
Continuous
 62
     3
100
AcDbLine
 10
473.574968718577
 20
-1203.25410772598
 30
0.0
 11
473.3999687185769
 21
-1203.69160772598
 31
0.0
  0
LINE
  5
1D9
330
1F
100
AcDbEntity
  8
1
  6
Continuous
 62
     3
100
AcDbLine
 10
473.3999687185769
 20
-1203.69160772598
 30
0.0
 11
473.3124687185768
 21
-1204.65410772598
 31
0.0
  0
LINE
  5
1DA
330
1F
100
AcDbEntity
  8
1
  6
Continuous
 62
     3
100
AcDbLine
 10
473.3124687185768
 20
-1204.65410772598
 30
0.0
 11
473.3124687185768
 21
-1205.70410772598
 31
0.0
  0
LINE
  5
1DB
330
1F
100
AcDbEntity
  8
1
  6
Continuous
 62
     3
100
AcDbLine
 10
473.3124687185768
 20
-1205.70410772598
 30
0.0
 11
473.3999687185769
 21
-1206.66660772598
 31
0.0
  0
LINE
  5
1DC
330
1F
100
AcDbEntity
  8
1
  6
Continuous
 62
     3
100
AcDbLine
 10
473.3999687185769
 20
-1206.66660772598
 30
0.0
 11
473.574968718577
 21
-1207.10410772598
 31
0.0
  0
LINE
  5
1DD
330
1F
100
AcDbEntity
  8
1
  6
Continuous
 62
     3
100
AcDbLine
 10
473.574968718577
 20
-1207.10410772598
 30
0.0
 11
473.7499687185768
 21
-1207.36660772598
 31
0.0
  0
LINE
  5
1DE
330
1F
100
AcDbEntity
  8
1
  6
Continuous
 62
     3
100
AcDbLine
 10
473.7499687185768
 20
-1207.36660772598
 30
0.0
 11
474.0999687185769
 21
-1207.62910772598
 31
0.0
  0
LINE
  5
1DF
330
1F
100
AcDbEntity
  8
1
  6
Continuous
 62
     3
100
AcDbLine
 10
474.0999687185769
 20
-1207.62910772598
 30
0.0
 11
474.449968718577
 21
-1207.80410772598
 31
0.0
  0
LINE
  5
1E0
330
1F
100
AcDbEntity
  8
1
  6
Continuous
 62
     3
100
AcDbLine
 10
476.1124687185769
 20
-1208.24160772598
 30
0.0
 11
476.3749687185768
 21
-1207.97910772598
 31
0.0
  0
LINE
  5
1E1
330
1F
100
AcDbEntity
  8
1
  6
Continuous
 62
     3
100
AcDbLine
 10
476.3749687185768
 20
-1207.97910772598
 30
0.0
 11
476.637468718577
 21
-1207.62910772598
 31
0.0
  0
LINE
  5
1E2
330
1F
100
AcDbEntity
  8
1
  6
Continuous
 62
     3
100
AcDbLine
 10
476.637468718577
 20
-1207.62910772598
 30
0.0
 11
476.8124687185768
 21
-1207.27910772598
 31
0.0
  0
LINE
  5
1E3
330
1F
100
AcDbEntity
  8
1
  6
Continuous
 62
     3
100
AcDbLine
 10
476.8124687185768
 20
-1207.27910772598
 30
0.0
 11
476.9874687185769
 21
-1206.84160772598
 31
0.0
  0
LINE
  5
1E4
330
1F
100
AcDbEntity
  8
1
  6
Continuous
 62
     3
100
AcDbLine
 10
476.9874687185769
 20
-1206.84160772598
 30
0.0
 11
477.074968718577
 21
-1206.31660772598
 31
0.0
  0
LINE
  5
1E5
330
1F
100
AcDbEntity
  8
1
  6
Continuous
 62
     3
100
AcDbLine
 10
477.074968718577
 20
-1206.31660772598
 30
0.0
 11
477.1624687185769
 21
-1205.52910772598
 31
0.0
  0
LINE
  5
1E6
330
1F
100
AcDbEntity
  8
1
  6
Continuous
 62
     3
100
AcDbLine
 10
477.1624687185769
 20
-1205.52910772598
 30
0.0
 11
477.1624687185769
 21
-1204.82910772598
 31
0.0
  0
LINE
  5
1E7
330
1F
100
AcDbEntity
  8
1
  6
Continuous
 62
     3
100
AcDbLine
 10
477.1624687185769
 20
-1204.82910772598
 30
0.0
 11
477.074968718577
 21
-1204.04160772598
 31
0.0
  0
LINE
  5
1E8
330
1F
100
AcDbEntity
  8
1
  6
Continuous
 62
     3
100
AcDbLine
 10
477.074968718577
 20
-1204.04160772598
 30
0.0
 11
476.9874687185769
 21
-1203.51660772598
 31
0.0
  0
LINE
  5
1E9
330
1F
100
AcDbEntity
  8
1
  6
Continuous
 62
     3
100
AcDbLine
 10
476.9874687185769
 20
-1203.51660772598
 30
0.0
 11
476.8124687185768
 21
-1203.07910772598
 31
0.0
  0
LINE
  5
1EA
330
1F
100
AcDbEntity
  8
1
  6
Continuous
 62
     3
100
AcDbLine
 10
476.8124687185768
 20
-1203.07910772598
 30
0.0
 11
476.637468718577
 21
-1202.72910772598
 31
0.0
  0
LINE
  5
1EB
330
1F
100
AcDbEntity
  8
1
  6
Continuous
 62
     3
100
AcDbLine
 10
476.637468718577
 20
-1202.72910772598
 30
0.0
 11
476.3749687185768
 21
-1202.37910772598
 31
0.0
  0
LINE
  5
1EC
330
1F
100
AcDbEntity
  8
1
  6
Continuous
 62
     3
100
AcDbLine
 10
476.3749687185768
 20
-1202.37910772598
 30
0.0
 11
476.1124687185769
 21
-1202.11660772598
 31
0.0
  0
LINE
  5
1ED
330
1F
100
AcDbEntity
  8
1
  6
Continuous
 62
     3
100
AcDbLine
 10
476.1124687185769
 20
-1202.11660772598
 30
0.0
 11
475.8499687185769
 21
-1201.94160772598
 31
0.0
  0
LINE
  5
1EE
330
1F
100
AcDbEntity
  8
1
  6
Continuous
 62
     3
100
AcDbLine
 10
475.8499687185769
 20
-1201.94160772598
 30
0.0
 11
475.4124687185769
 21
-1201.76660772598
 31
0.0
  0
LINE
  5
1EF
330
1F
100
AcDbEntity
  8
1
  6
Continuous
 62
     3
100
AcDbLine
 10
475.4124687185769
 20
-1201.76660772598
 30
0.0
 11
475.0624687185768
 21
-1201.67910772598
 31
0.0
  0
LINE
  5
1F0
330
1F
100
AcDbEntity
  8
1
  6
Continuous
 62
     3
100
AcDbLine
 10
475.0624687185768
 20
-1201.67910772598
 30
0.0
 11
474.449968718577
 21
-1201.67910772598
 31
0.0
  0
LINE
  5
1F1
330
1F
100
AcDbEntity
  8
1
  6
Continuous
 62
     3
100
AcDbLine
 10
474.449968718577
 20
-1201.67910772598
 30
0.0
 11
474.0999687185769
 21
-1201.76660772598
 31
0.0
  0
LINE
  5
1F2
330
1F
100
AcDbEntity
  8
1
  6
Continuous
 62
     3
100
AcDbLine
 10
474.0999687185769
 20
-1201.76660772598
 30
0.0
 11
473.6624687185769
 21
-1201.94160772598
 31
0.0
  0
LINE
  5
1F3
330
1F
100
AcDbEntity
  8
1
  6
Continuous
 62
     3
100
AcDbLine
 10
473.6624687185769
 20
-1201.94160772598
 30
0.0
 11
473.3999687185769
 21
-1202.11660772598
 31
0.0
  0
LINE
  5
1F4
330
1F
100
AcDbEntity
  8
1
  6
Continuous
 62
     3
100
AcDbLine
 10
473.3999687185769
 20
-1202.11660772598
 30
0.0
 11
473.137468718577
 21
-1202.37910772598
 31
0.0
  0
LINE
  5
1F5
330
1F
100
AcDbEntity
  8
1
  6
Continuous
 62
     3
100
AcDbLine
 10
473.137468718577
 20
-1202.37910772598
 30
0.0
 11
472.8749687185768
 21
-1202.72910772598
 31
0.0
  0
LINE
  5
1F6
330
1F
100
AcDbEntity
  8
1
  6
Continuous
 62
     3
100
AcDbLine
 10
472.8749687185768
 20
-1202.72910772598
 30
0.0
 11
472.699968718577
 21
-1203.07910772598
 31
0.0
  0
LINE
  5
1F7
330
1F
100
AcDbEntity
  8
1
  6
Continuous
 62
     3
100
AcDbLine
 10
472.699968718577
 20
-1203.07910772598
 30
0.0
 11
472.5249687185769
 21
-1203.51660772598
 31
0.0
  0
LINE
  5
1F8
330
1F
100
AcDbEntity
  8
1
  6
Continuous
 62
     3
100
AcDbLine
 10
472.5249687185769
 20
-1203.51660772598
 30
0.0
 11
472.4374687185768
 21
-1204.04160772598
 31
0.0
  0
LINE
  5
1F9
330
1F
100
AcDbEntity
  8
1
  6
Continuous
 62
     3
100
AcDbLine
 10
472.4374687185768
 20
-1204.04160772598
 30
0.0
 11
472.3499687185769
 21
-1204.82910772598
 31
0.0
  0
LINE
  5
1FA
330
1F
100
AcDbEntity
  8
1
  6
Continuous
 62
     3
100
AcDbLine
 10
472.3499687185769
 20
-1204.82910772598
 30
0.0
 11
472.3499687185769
 21
-1205.52910772598
 31
0.0
  0
LINE
  5
1FB
330
1F
100
AcDbEntity
  8
1
  6
Continuous
 62
     3
100
AcDbLine
 10
472.3499687185769
 20
-1205.52910772598
 30
0.0
 11
472.4374687185768
 21
-1206.31660772598
 31
0.0
  0
LINE
  5
1FC
330
1F
100
AcDbEntity
  8
1
  6
Continuous
 62
     3
100
AcDbLine
 10
472.4374687185768
 20
-1206.31660772598
 30
0.0
 11
472.5249687185769
 21
-1206.84160772598
 31
0.0
  0
LINE
  5
1FD
330
1F
100
AcDbEntity
  8
1
  6
Continuous
 62
     3
100
AcDbLine
 10
472.5249687185769
 20
-1206.84160772598
 30
0.0
 11
472.699968718577
 21
-1207.27910772598
 31
0.0
  0
LINE
  5
1FE
330
1F
100
AcDbEntity
  8
1
  6
Continuous
 62
     3
100
AcDbLine
 10
472.699968718577
 20
-1207.27910772598
 30
0.0
 11
472.8749687185768
 21
-1207.62910772598
 31
0.0
  0
LINE
  5
1FF
330
1F
100
AcDbEntity
  8
1
  6
Continuous
 62
     3
100
AcDbLine
 10
472.8749687185768
 20
-1207.62910772598
 30
0.0
 11
473.137468718577
 21
-1207.97910772598
 31
0.0
  0
LINE
  5
200
330
1F
100
AcDbEntity
  8
1
  6
Continuous
 62
     3
100
AcDbLine
 10
473.137468718577
 20
-1207.97910772598
 30
0.0
 11
473.3999687185769
 21
-1208.24160772598
 31
0.0
  0
LINE
  5
201
330
1F
100
AcDbEntity
  8
1
  6
Continuous
 62
     3
100
AcDbLine
 10
473.3999687185769
 20
-1208.24160772598
 30
0.0
 11
473.6624687185769
 21
-1208.41660772598
 31
0.0
  0
LINE
  5
202
330
1F
100
AcDbEntity
  8
1
  6
Continuous
 62
     3
100
AcDbLine
 10
473.6624687185769
 20
-1208.41660772598
 30
0.0
 11
474.0999687185769
 21
-1208.59160772598
 31
0.0
  0
LINE
  5
203
330
1F
100
AcDbEntity
  8
1
  6
Continuous
 62
     3
100
AcDbLine
 10
474.0999687185769
 20
-1208.59160772598
 30
0.0
 11
474.449968718577
 21
-1208.67910772598
 31
0.0
  0
LINE
  5
204
330
1F
100
AcDbEntity
  8
1
  6
Continuous
 62
     3
100
AcDbLine
 10
474.449968718577
 20
-1208.67910772598
 30
0.0
 11
475.0624687185768
 21
-1208.67910772598
 31
0.0
  0
LINE
  5
205
330
1F
100
AcDbEntity
  8
1
  6
Continuous
 62
     3
100
AcDbLine
 10
475.0624687185768
 20
-1208.67910772598
 30
0.0
 11
475.4124687185769
 21
-1208.59160772598
 31
0.0
  0
LINE
  5
206
330
1F
100
AcDbEntity
  8
1
  6
Continuous
 62
     3
100
AcDbLine
 10
475.4124687185769
 20
-1208.59160772598
 30
0.0
 11
475.8499687185769
 21
-1208.41660772598
 31
0.0
  0
LINE
  5
207
330
1F
100
AcDbEntity
  8
1
  6
Continuous
 62
     3
100
AcDbLine
 10
475.8499687185769
 20
-1208.41660772598
 30
0.0
 11
476.1124687185769
 21
-1208.24160772598
 31
0.0
  0
LINE
  5
208
330
1F
100
AcDbEntity
  8
1
  6
Continuous
 62
     3
100
AcDbLine
 10
463.5249687185769
 20
-1230.00410772598
 30
0.0
 11
464.0499687185769
 21
-1229.91660772598
 31
0.0
  0
LINE
  5
209
330
1F
100
AcDbEntity
  8
1
  6
Continuous
 62
     3
100
AcDbLine
 10
464.0499687185769
 20
-1229.91660772598
 30
0.0
 11
464.4874687185769
 21
-1229.74160772598
 31
0.0
  0
LINE
  5
20A
330
1F
100
AcDbEntity
  8
1
  6
Continuous
 62
     3
100
AcDbLine
 10
464.4874687185769
 20
-1229.74160772598
 30
0.0
 11
464.7499687185768
 21
-1229.47910772598
 31
0.0
  0
LINE
  5
20B
330
1F
100
AcDbEntity
  8
1
  6
Continuous
 62
     3
100
AcDbLine
 10
464.7499687185768
 20
-1229.47910772598
 30
0.0
 11
464.9249687185769
 21
-1229.04160772598
 31
0.0
  0
LINE
  5
20C
330
1F
100
AcDbEntity
  8
1
  6
Continuous
 62
     3
100
AcDbLine
 10
464.9249687185769
 20
-1229.04160772598
 30
0.0
 11
464.9249687185769
 21
-1228.51660772598
 31
0.0
  0
LINE
  5
20D
330
1F
100
AcDbEntity
  8
1
  6
Continuous
 62
     3
100
AcDbLine
 10
464.9249687185769
 20
-1228.51660772598
 30
0.0
 11
464.7499687185768
 21
-1228.07910772598
 31
0.0
  0
LINE
  5
20E
330
1F
100
AcDbEntity
  8
1
  6
Continuous
 62
     3
100
AcDbLine
 10
464.7499687185768
 20
-1228.07910772598
 30
0.0
 11
464.4874687185769
 21
-1227.81660772598
 31
0.0
  0
LINE
  5
20F
330
1F
100
AcDbEntity
  8
1
  6
Continuous
 62
     3
100
AcDbLine
 10
464.4874687185769
 20
-1227.81660772598
 30
0.0
 11
464.0499687185769
 21
-1227.64160772598
 31
0.0
  0
LINE
  5
210
330
1F
100
AcDbEntity
  8
1
  6
Continuous
 62
     3
100
AcDbLine
 10
464.0499687185769
 20
-1227.64160772598
 30
0.0
 11
463.5249687185769
 21
-1227.55410772598
 31
0.0
  0
LINE
  5
211
330
1F
100
AcDbEntity
  8
1
  6
Continuous
 62
     3
100
AcDbLine
 10
463.5249687185769
 20
-1227.55410772598
 30
0.0
 11
461.6874687185768
 21
-1227.55410772598
 31
0.0
  0
LINE
  5
212
330
1F
100
AcDbEntity
  8
1
  6
Continuous
 62
     3
100
AcDbLine
 10
461.6874687185768
 20
-1227.55410772598
 30
0.0
 11
461.6874687185768
 21
-1230.00410772598
 31
0.0
  0
LINE
  5
213
330
1F
100
AcDbEntity
  8
1
  6
Continuous
 62
     3
100
AcDbLine
 10
461.6874687185768
 20
-1230.00410772598
 30
0.0
 11
463.5249687185769
 21
-1230.00410772598
 31
0.0
  0
LINE
  5
214
330
1F
100
AcDbEntity
  8
1
  6
Continuous
 62
     3
100
AcDbLine
 10
465.7999687185769
 20
-1229.04160772598
 30
0.0
 11
465.7124687185769
 21
-1229.65410772598
 31
0.0
  0
LINE
  5
215
330
1F
100
AcDbEntity
  8
1
  6
Continuous
 62
     3
100
AcDbLine
 10
465.7124687185769
 20
-1229.65410772598
 30
0.0
 11
465.3624687185769
 21
-1230.17910772598
 31
0.0
  0
LINE
  5
216
330
1F
100
AcDbEntity
  8
1
  6
Continuous
 62
     3
100
AcDbLine
 10
465.3624687185769
 20
-1230.17910772598
 30
0.0
 11
465.0124687185769
 21
-1230.52910772598
 31
0.0
  0
LINE
  5
217
330
1F
100
AcDbEntity
  8
1
  6
Continuous
 62
     3
100
AcDbLine
 10
465.0124687185769
 20
-1230.52910772598
 30
0.0
 11
464.4874687185769
 21
-1230.79160772598
 31
0.0
  0
LINE
  5
218
330
1F
100
AcDbEntity
  8
1
  6
Continuous
 62
     3
100
AcDbLine
 10
464.4874687185769
 20
-1230.79160772598
 30
0.0
 11
463.7874687185769
 21
-1230.87910772598
 31
0.0
  0
LINE
  5
219
330
1F
100
AcDbEntity
  8
1
  6
Continuous
 62
     3
100
AcDbLine
 10
463.7874687185769
 20
-1230.87910772598
 30
0.0
 11
461.6874687185768
 21
-1230.87910772598
 31
0.0
  0
LINE
  5
21A
330
1F
100
AcDbEntity
  8
1
  6
Continuous
 62
     3
100
AcDbLine
 10
461.6874687185768
 20
-1230.87910772598
 30
0.0
 11
461.6874687185768
 21
-1233.67910772598
 31
0.0
  0
LINE
  5
21B
330
1F
100
AcDbEntity
  8
1
  6
Continuous
 62
     3
100
AcDbLine
 10
461.6874687185768
 20
-1233.67910772598
 30
0.0
 11
460.7249687185769
 21
-1233.67910772598
 31
0.0
  0
LINE
  5
21C
330
1F
100
AcDbEntity
  8
1
  6
Continuous
 62
     3
100
AcDbLine
 10
460.7249687185769
 20
-1233.67910772598
 30
0.0
 11
460.7249687185769
 21
-1226.67910772598
 31
0.0
  0
LINE
  5
21D
330
1F
100
AcDbEntity
  8
1
  6
Continuous
 62
     3
100
AcDbLine
 10
460.7249687185769
 20
-1226.67910772598
 30
0.0
 11
463.7874687185769
 21
-1226.67910772598
 31
0.0
  0
LINE
  5
21E
330
1F
100
AcDbEntity
  8
1
  6
Continuous
 62
     3
100
AcDbLine
 10
463.7874687185769
 20
-1226.67910772598
 30
0.0
 11
464.4874687185769
 21
-1226.76660772598
 31
0.0
  0
LINE
  5
21F
330
1F
100
AcDbEntity
  8
1
  6
Continuous
 62
     3
100
AcDbLine
 10
464.4874687185769
 20
-1226.76660772598
 30
0.0
 11
465.0124687185769
 21
-1227.02910772598
 31
0.0
  0
LINE
  5
220
330
1F
100
AcDbEntity
  8
1
  6
Continuous
 62
     3
100
AcDbLine
 10
465.0124687185769
 20
-1227.02910772598
 30
0.0
 11
465.3624687185769
 21
-1227.37910772598
 31
0.0
  0
LINE
  5
221
330
1F
100
AcDbEntity
  8
1
  6
Continuous
 62
     3
100
AcDbLine
 10
465.3624687185769
 20
-1227.37910772598
 30
0.0
 11
465.7124687185769
 21
-1227.90410772598
 31
0.0
  0
LINE
  5
222
330
1F
100
AcDbEntity
  8
1
  6
Continuous
 62
     3
100
AcDbLine
 10
465.7124687185769
 20
-1227.90410772598
 30
0.0
 11
465.7999687185769
 21
-1228.51660772598
 31
0.0
  0
LINE
  5
223
330
1F
100
AcDbEntity
  8
1
  6
Continuous
 62
     3
100
AcDbLine
 10
465.7999687185769
 20
-1228.51660772598
 30
0.0
 11
465.7999687185769
 21
-1229.04160772598
 31
0.0
  0
LINE
  5
224
330
1F
100
AcDbEntity
  8
1
  6
Continuous
 62
     3
100
AcDbLine
 10
467.1999687185769
 20
-1233.67910772598
 30
0.0
 11
467.1999687185769
 21
-1226.67910772598
 31
0.0
  0
LINE
  5
225
330
1F
100
AcDbEntity
  8
1
  6
Continuous
 62
     3
100
AcDbLine
 10
467.1999687185769
 20
-1226.67910772598
 30
0.0
 11
468.1624687185769
 21
-1226.67910772598
 31
0.0
  0
LINE
  5
226
330
1F
100
AcDbEntity
  8
1
  6
Continuous
 62
     3
100
AcDbLine
 10
468.1624687185769
 20
-1226.67910772598
 30
0.0
 11
471.7499687185768
 21
-1232.10410772598
 31
0.0
  0
LINE
  5
227
330
1F
100
AcDbEntity
  8
1
  6
Continuous
 62
     3
100
AcDbLine
 10
471.7499687185768
 20
-1232.10410772598
 30
0.0
 11
471.7499687185768
 21
-1226.67910772598
 31
0.0
  0
LINE
  5
228
330
1F
100
AcDbEntity
  8
1
  6
Continuous
 62
     3
100
AcDbLine
 10
471.7499687185768
 20
-1226.67910772598
 30
0.0
 11
472.6249687185768
 21
-1226.67910772598
 31
0.0
  0
LINE
  5
229
330
1F
100
AcDbEntity
  8
1
  6
Continuous
 62
     3
100
AcDbLine
 10
472.6249687185768
 20
-1226.67910772598
 30
0.0
 11
472.6249687185768
 21
-1233.67910772598
 31
0.0
  0
LINE
  5
22A
330
1F
100
AcDbEntity
  8
1
  6
Continuous
 62
     3
100
AcDbLine
 10
472.6249687185768
 20
-1233.67910772598
 30
0.0
 11
471.6624687185769
 21
-1233.67910772598
 31
0.0
  0
LINE
  5
22B
330
1F
100
AcDbEntity
  8
1
  6
Continuous
 62
     3
100
AcDbLine
 10
471.6624687185769
 20
-1233.67910772598
 30
0.0
 11
468.0749687185769
 21
-1228.25410772598
 31
0.0
  0
LINE
  5
22C
330
1F
100
AcDbEntity
  8
1
  6
Continuous
 62
     3
100
AcDbLine
 10
468.0749687185769
 20
-1228.25410772598
 30
0.0
 11
468.0749687185769
 21
-1233.67910772598
 31
0.0
  0
LINE
  5
22D
330
1F
100
AcDbEntity
  8
1
  6
Continuous
 62
     3
100
AcDbLine
 10
468.0749687185769
 20
-1233.67910772598
 30
0.0
 11
467.1999687185769
 21
-1233.67910772598
 31
0.0
  0
LINE
  5
22E
330
1F
100
AcDbEntity
  8
1
  6
Continuous
 62
     3
100
AcDbLine
 10
476.5624687185768
 20
-1233.67910772598
 30
0.0
 11
476.5624687185768
 21
-1226.67910772598
 31
0.0
  0
LINE
  5
22F
330
1F
100
AcDbEntity
  8
1
  6
Continuous
 62
     3
100
AcDbLine
 10
476.5624687185768
 20
-1226.67910772598
 30
0.0
 11
475.8624687185769
 21
-1226.67910772598
 31
0.0
  0
LINE
  5
230
330
1F
100
AcDbEntity
  8
1
  6
Continuous
 62
     3
100
AcDbLine
 10
475.8624687185769
 20
-1226.67910772598
 30
0.0
 11
475.7749687185769
 21
-1226.94160772598
 31
0.0
  0
LINE
  5
231
330
1F
100
AcDbEntity
  8
1
  6
Continuous
 62
     3
100
AcDbLine
 10
475.7749687185769
 20
-1226.94160772598
 30
0.0
 11
475.5124687185769
 21
-1227.29160772598
 31
0.0
  0
LINE
  5
232
330
1F
100
AcDbEntity
  8
1
  6
Continuous
 62
     3
100
AcDbLine
 10
475.5124687185769
 20
-1227.29160772598
 30
0.0
 11
475.2499687185768
 21
-1227.55410772598
 31
0.0
  0
LINE
  5
233
330
1F
100
AcDbEntity
  8
1
  6
Continuous
 62
     3
100
AcDbLine
 10
475.2499687185768
 20
-1227.55410772598
 30
0.0
 11
474.8999687185769
 21
-1227.72910772598
 31
0.0
  0
LINE
  5
234
330
1F
100
AcDbEntity
  8
1
  6
Continuous
 62
     3
100
AcDbLine
 10
474.8999687185769
 20
-1227.72910772598
 30
0.0
 11
474.6374687185769
 21
-1227.81660772598
 31
0.0
  0
LINE
  5
235
330
1F
100
AcDbEntity
  8
1
  6
Continuous
 62
     3
100
AcDbLine
 10
474.6374687185769
 20
-1227.81660772598
 30
0.0
 11
474.1999687185769
 21
-1227.90410772598
 31
0.0
  0
LINE
  5
236
330
1F
100
AcDbEntity
  8
1
  6
Continuous
 62
     3
100
AcDbLine
 10
474.1999687185769
 20
-1227.90410772598
 30
0.0
 11
474.0249687185769
 21
-1227.90410772598
 31
0.0
  0
LINE
  5
237
330
1F
100
AcDbEntity
  8
1
  6
Continuous
 62
     3
100
AcDbLine
 10
474.0249687185769
 20
-1227.90410772598
 30
0.0
 11
474.0249687185769
 21
-1228.60410772598
 31
0.0
  0
LINE
  5
238
330
1F
100
AcDbEntity
  8
1
  6
Continuous
 62
     3
100
AcDbLine
 10
474.0249687185769
 20
-1228.60410772598
 30
0.0
 11
475.6874687185768
 21
-1228.60410772598
 31
0.0
  0
LINE
  5
239
330
1F
100
AcDbEntity
  8
1
  6
Continuous
 62
     3
100
AcDbLine
 10
475.6874687185768
 20
-1228.60410772598
 30
0.0
 11
475.6874687185768
 21
-1233.67910772598
 31
0.0
  0
LINE
  5
23A
330
1F
100
AcDbEntity
  8
1
  6
Continuous
 62
     3
100
AcDbLine
 10
475.6874687185768
 20
-1233.67910772598
 30
0.0
 11
476.5624687185768
 21
-1233.67910772598
 31
0.0
  0
LINE
  5
23B
330
1F
100
AcDbEntity
  8
1
  6
Continuous
 62
     3
100
AcDbLine
 10
481.3749687185768
 20
-1232.36660772598
 30
0.0
 11
481.5499687185769
 21
-1232.10410772598
 31
0.0
  0
LINE
  5
23C
330
1F
100
AcDbEntity
  8
1
  6
Continuous
 62
     3
100
AcDbLine
 10
481.5499687185769
 20
-1232.10410772598
 30
0.0
 11
481.7249687185769
 21
-1231.66660772598
 31
0.0
  0
LINE
  5
23D
330
1F
100
AcDbEntity
  8
1
  6
Continuous
 62
     3
100
AcDbLine
 10
481.7249687185769
 20
-1231.66660772598
 30
0.0
 11
481.7249687185769
 21
-1231.14160772598
 31
0.0
  0
LINE
  5
23E
330
1F
100
AcDbEntity
  8
1
  6
Continuous
 62
     3
100
AcDbLine
 10
481.7249687185769
 20
-1231.14160772598
 30
0.0
 11
481.5499687185769
 21
-1230.70410772598
 31
0.0
  0
LINE
  5
23F
330
1F
100
AcDbEntity
  8
1
  6
Continuous
 62
     3
100
AcDbLine
 10
481.5499687185769
 20
-1230.70410772598
 30
0.0
 11
481.3749687185768
 21
-1230.44160772598
 31
0.0
  0
LINE
  5
240
330
1F
100
AcDbEntity
  8
1
  6
Continuous
 62
     3
100
AcDbLine
 10
481.3749687185768
 20
-1230.44160772598
 30
0.0
 11
481.0249687185769
 21
-1230.17910772598
 31
0.0
  0
LINE
  5
241
330
1F
100
AcDbEntity
  8
1
  6
Continuous
 62
     3
100
AcDbLine
 10
481.0249687185769
 20
-1230.17910772598
 30
0.0
 11
480.5874687185769
 21
-1230.00410772598
 31
0.0
  0
LINE
  5
242
330
1F
100
AcDbEntity
  8
1
  6
Continuous
 62
     3
100
AcDbLine
 10
480.5874687185769
 20
-1230.00410772598
 30
0.0
 11
480.1499687185769
 21
-1230.00410772598
 31
0.0
  0
LINE
  5
243
330
1F
100
AcDbEntity
  8
1
  6
Continuous
 62
     3
100
AcDbLine
 10
480.1499687185769
 20
-1230.00410772598
 30
0.0
 11
479.7124687185769
 21
-1230.17910772598
 31
0.0
  0
LINE
  5
244
330
1F
100
AcDbEntity
  8
1
  6
Continuous
 62
     3
100
AcDbLine
 10
479.7124687185769
 20
-1230.17910772598
 30
0.0
 11
479.3624687185769
 21
-1230.44160772598
 31
0.0
  0
LINE
  5
245
330
1F
100
AcDbEntity
  8
1
  6
Continuous
 62
     3
100
AcDbLine
 10
479.3624687185769
 20
-1230.44160772598
 30
0.0
 11
479.1874687185768
 21
-1230.70410772598
 31
0.0
  0
LINE
  5
246
330
1F
100
AcDbEntity
  8
1
  6
Continuous
 62
     3
100
AcDbLine
 10
479.1874687185768
 20
-1230.70410772598
 30
0.0
 11
479.0124687185769
 21
-1231.14160772598
 31
0.0
  0
LINE
  5
247
330
1F
100
AcDbEntity
  8
1
  6
Continuous
 62
     3
100
AcDbLine
 10
479.0124687185769
 20
-1231.14160772598
 30
0.0
 11
479.0124687185769
 21
-1231.66660772598
 31
0.0
  0
LINE
  5
248
330
1F
100
AcDbEntity
  8
1
  6
Continuous
 62
     3
100
AcDbLine
 10
479.0124687185769
 20
-1231.66660772598
 30
0.0
 11
479.1874687185768
 21
-1232.10410772598
 31
0.0
  0
LINE
  5
249
330
1F
100
AcDbEntity
  8
1
  6
Continuous
 62
     3
100
AcDbLine
 10
479.1874687185768
 20
-1232.10410772598
 30
0.0
 11
479.3624687185769
 21
-1232.36660772598
 31
0.0
  0
LINE
  5
24A
330
1F
100
AcDbEntity
  8
1
  6
Continuous
 62
     3
100
AcDbLine
 10
479.3624687185769
 20
-1232.36660772598
 30
0.0
 11
479.7124687185769
 21
-1232.62910772598
 31
0.0
  0
LINE
  5
24B
330
1F
100
AcDbEntity
  8
1
  6
Continuous
 62
     3
100
AcDbLine
 10
479.7124687185769
 20
-1232.62910772598
 30
0.0
 11
480.1499687185769
 21
-1232.80410772598
 31
0.0
  0
LINE
  5
24C
330
1F
100
AcDbEntity
  8
1
  6
Continuous
 62
     3
100
AcDbLine
 10
480.1499687185769
 20
-1232.80410772598
 30
0.0
 11
480.5874687185769
 21
-1232.80410772598
 31
0.0
  0
LINE
  5
24D
330
1F
100
AcDbEntity
  8
1
  6
Continuous
 62
     3
100
AcDbLine
 10
480.5874687185769
 20
-1232.80410772598
 30
0.0
 11
481.0249687185769
 21
-1232.62910772598
 31
0.0
  0
LINE
  5
24E
330
1F
100
AcDbEntity
  8
1
  6
Continuous
 62
     3
100
AcDbLine
 10
481.0249687185769
 20
-1232.62910772598
 30
0.0
 11
481.3749687185768
 21
-1232.36660772598
 31
0.0
  0
LINE
  5
24F
330
1F
100
AcDbEntity
  8
1
  6
Continuous
 62
     3
100
AcDbLine
 10
482.5999687185769
 20
-1231.75410772598
 30
0.0
 11
482.4249687185769
 21
-1232.27910772598
 31
0.0
  0
LINE
  5
250
330
1F
100
AcDbEntity
  8
1
  6
Continuous
 62
     3
100
AcDbLine
 10
482.4249687185769
 20
-1232.27910772598
 30
0.0
 11
482.2499687185768
 21
-1232.62910772598
 31
0.0
  0
LINE
  5
251
330
1F
100
AcDbEntity
  8
1
  6
Continuous
 62
     3
100
AcDbLine
 10
482.2499687185768
 20
-1232.62910772598
 30
0.0
 11
481.9874687185769
 21
-1232.97910772598
 31
0.0
  0
LINE
  5
252
330
1F
100
AcDbEntity
  8
1
  6
Continuous
 62
     3
100
AcDbLine
 10
481.9874687185769
 20
-1232.97910772598
 30
0.0
 11
481.7249687185769
 21
-1233.24160772598
 31
0.0
  0
LINE
  5
253
330
1F
100
AcDbEntity
  8
1
  6
Continuous
 62
     3
100
AcDbLine
 10
481.7249687185769
 20
-1233.24160772598
 30
0.0
 11
481.4624687185769
 21
-1233.41660772598
 31
0.0
  0
LINE
  5
254
330
1F
100
AcDbEntity
  8
1
  6
Continuous
 62
     3
100
AcDbLine
 10
481.4624687185769
 20
-1233.41660772598
 30
0.0
 11
481.0249687185769
 21
-1233.59160772598
 31
0.0
  0
LINE
  5
255
330
1F
100
AcDbEntity
  8
1
  6
Continuous
 62
     3
100
AcDbLine
 10
481.0249687185769
 20
-1233.59160772598
 30
0.0
 11
480.5874687185769
 21
-1233.67910772598
 31
0.0
  0
LINE
  5
256
330
1F
100
AcDbEntity
  8
1
  6
Continuous
 62
     3
100
AcDbLine
 10
480.5874687185769
 20
-1233.67910772598
 30
0.0
 11
480.1499687185769
 21
-1233.67910772598
 31
0.0
  0
LINE
  5
257
330
1F
100
AcDbEntity
  8
1
  6
Continuous
 62
     3
100
AcDbLine
 10
480.1499687185769
 20
-1233.67910772598
 30
0.0
 11
479.7124687185769
 21
-1233.59160772598
 31
0.0
  0
LINE
  5
258
330
1F
100
AcDbEntity
  8
1
  6
Continuous
 62
     3
100
AcDbLine
 10
479.7124687185769
 20
-1233.59160772598
 30
0.0
 11
479.2749687185769
 21
-1233.41660772598
 31
0.0
  0
LINE
  5
259
330
1F
100
AcDbEntity
  8
1
  6
Continuous
 62
     3
100
AcDbLine
 10
479.2749687185769
 20
-1233.41660772598
 30
0.0
 11
479.0124687185769
 21
-1233.24160772598
 31
0.0
  0
LINE
  5
25A
330
1F
100
AcDbEntity
  8
1
  6
Continuous
 62
     3
100
AcDbLine
 10
479.0124687185769
 20
-1233.24160772598
 30
0.0
 11
478.7499687185768
 21
-1232.97910772598
 31
0.0
  0
LINE
  5
25B
330
1F
100
AcDbEntity
  8
1
  6
Continuous
 62
     3
100
AcDbLine
 10
478.7499687185768
 20
-1232.97910772598
 30
0.0
 11
478.4874687185769
 21
-1232.62910772598
 31
0.0
  0
LINE
  5
25C
330
1F
100
AcDbEntity
  8
1
  6
Continuous
 62
     3
100
AcDbLine
 10
478.4874687185769
 20
-1232.62910772598
 30
0.0
 11
478.3124687185768
 21
-1232.27910772598
 31
0.0
  0
LINE
  5
25D
330
1F
100
AcDbEntity
  8
1
  6
Continuous
 62
     3
100
AcDbLine
 10
478.3124687185768
 20
-1232.27910772598
 30
0.0
 11
478.1374687185769
 21
-1231.84160772598
 31
0.0
  0
LINE
  5
25E
330
1F
100
AcDbEntity
  8
1
  6
Continuous
 62
     3
100
AcDbLine
 10
478.1374687185769
 20
-1231.84160772598
 30
0.0
 11
478.0499687185769
 21
-1231.31660772598
 31
0.0
  0
LINE
  5
25F
330
1F
100
AcDbEntity
  8
1
  6
Continuous
 62
     3
100
AcDbLine
 10
478.0499687185769
 20
-1231.31660772598
 30
0.0
 11
477.9624687185769
 21
-1230.52910772598
 31
0.0
  0
LINE
  5
260
330
1F
100
AcDbEntity
  8
1
  6
Continuous
 62
     3
100
AcDbLine
 10
477.9624687185769
 20
-1230.52910772598
 30
0.0
 11
477.9624687185769
 21
-1229.82910772598
 31
0.0
  0
LINE
  5
261
330
1F
100
AcDbEntity
  8
1
  6
Continuous
 62
     3
100
AcDbLine
 10
477.9624687185769
 20
-1229.82910772598
 30
0.0
 11
478.0499687185769
 21
-1229.04160772598
 31
0.0
  0
LINE
  5
262
330
1F
100
AcDbEntity
  8
1
  6
Continuous
 62
     3
100
AcDbLine
 10
478.0499687185769
 20
-1229.04160772598
 30
0.0
 11
478.1374687185769
 21
-1228.51660772598
 31
0.0
  0
LINE
  5
263
330
1F
100
AcDbEntity
  8
1
  6
Continuous
 62
     3
100
AcDbLine
 10
478.1374687185769
 20
-1228.51660772598
 30
0.0
 11
478.3124687185768
 21
-1228.07910772598
 31
0.0
  0
LINE
  5
264
330
1F
100
AcDbEntity
  8
1
  6
Continuous
 62
     3
100
AcDbLine
 10
478.3124687185768
 20
-1228.07910772598
 30
0.0
 11
478.4874687185769
 21
-1227.72910772598
 31
0.0
  0
LINE
  5
265
330
1F
100
AcDbEntity
  8
1
  6
Continuous
 62
     3
100
AcDbLine
 10
478.4874687185769
 20
-1227.72910772598
 30
0.0
 11
478.7499687185768
 21
-1227.37910772598
 31
0.0
  0
LINE
  5
266
330
1F
100
AcDbEntity
  8
1
  6
Continuous
 62
     3
100
AcDbLine
 10
478.7499687185768
 20
-1227.37910772598
 30
0.0
 11
479.0124687185769
 21
-1227.11660772598
 31
0.0
  0
LINE
  5
267
330
1F
100
AcDbEntity
  8
1
  6
Continuous
 62
     3
100
AcDbLine
 10
479.0124687185769
 20
-1227.11660772598
 30
0.0
 11
479.2749687185769
 21
-1226.94160772598
 31
0.0
  0
LINE
  5
268
330
1F
100
AcDbEntity
  8
1
  6
Continuous
 62
     3
100
AcDbLine
 10
479.2749687185769
 20
-1226.94160772598
 30
0.0
 11
479.7124687185769
 21
-1226.76660772598
 31
0.0
  0
LINE
  5
269
330
1F
100
AcDbEntity
  8
1
  6
Continuous
 62
     3
100
AcDbLine
 10
479.7124687185769
 20
-1226.76660772598
 30
0.0
 11
480.0624687185768
 21
-1226.67910772598
 31
0.0
  0
LINE
  5
26A
330
1F
100
AcDbEntity
  8
1
  6
Continuous
 62
     3
100
AcDbLine
 10
480.0624687185768
 20
-1226.67910772598
 30
0.0
 11
480.6749687185769
 21
-1226.67910772598
 31
0.0
  0
LINE
  5
26B
330
1F
100
AcDbEntity
  8
1
  6
Continuous
 62
     3
100
AcDbLine
 10
480.6749687185769
 20
-1226.67910772598
 30
0.0
 11
481.0249687185769
 21
-1226.76660772598
 31
0.0
  0
LINE
  5
26C
330
1F
100
AcDbEntity
  8
1
  6
Continuous
 62
     3
100
AcDbLine
 10
481.0249687185769
 20
-1226.76660772598
 30
0.0
 11
481.4624687185769
 21
-1226.94160772598
 31
0.0
  0
LINE
  5
26D
330
1F
100
AcDbEntity
  8
1
  6
Continuous
 62
     3
100
AcDbLine
 10
481.4624687185769
 20
-1226.94160772598
 30
0.0
 11
481.7249687185769
 21
-1227.11660772598
 31
0.0
  0
LINE
  5
26E
330
1F
100
AcDbEntity
  8
1
  6
Continuous
 62
     3
100
AcDbLine
 10
481.7249687185769
 20
-1227.11660772598
 30
0.0
 11
481.9874687185769
 21
-1227.37910772598
 31
0.0
  0
LINE
  5
26F
330
1F
100
AcDbEntity
  8
1
  6
Continuous
 62
     3
100
AcDbLine
 10
481.9874687185769
 20
-1227.37910772598
 30
0.0
 11
482.2499687185768
 21
-1227.72910772598
 31
0.0
  0
LINE
  5
270
330
1F
100
AcDbEntity
  8
1
  6
Continuous
 62
     3
100
AcDbLine
 10
482.2499687185768
 20
-1227.72910772598
 30
0.0
 11
482.4249687185769
 21
-1228.07910772598
 31
0.0
  0
LINE
  5
271
330
1F
100
AcDbEntity
  8
1
  6
Continuous
 62
     3
100
AcDbLine
 10
482.4249687185769
 20
-1228.07910772598
 30
0.0
 11
482.5124687185769
 21
-1228.51660772598
 31
0.0
  0
LINE
  5
272
330
1F
100
AcDbEntity
  8
1
  6
Continuous
 62
     3
100
AcDbLine
 10
482.5124687185769
 20
-1228.51660772598
 30
0.0
 11
482.5124687185769
 21
-1228.69160772598
 31
0.0
  0
LINE
  5
273
330
1F
100
AcDbEntity
  8
1
  6
Continuous
 62
     3
100
AcDbLine
 10
482.5124687185769
 20
-1228.69160772598
 30
0.0
 11
481.6374687185769
 21
-1228.69160772598
 31
0.0
  0
LINE
  5
274
330
1F
100
AcDbEntity
  8
1
  6
Continuous
 62
     3
100
AcDbLine
 10
481.6374687185769
 20
-1228.69160772598
 30
0.0
 11
481.5499687185769
 21
-1228.25410772598
 31
0.0
  0
LINE
  5
275
330
1F
100
AcDbEntity
  8
1
  6
Continuous
 62
     3
100
AcDbLine
 10
481.5499687185769
 20
-1228.25410772598
 30
0.0
 11
481.3749687185768
 21
-1227.99160772598
 31
0.0
  0
LINE
  5
276
330
1F
100
AcDbEntity
  8
1
  6
Continuous
 62
     3
100
AcDbLine
 10
481.3749687185768
 20
-1227.99160772598
 30
0.0
 11
481.0249687185769
 21
-1227.72910772598
 31
0.0
  0
LINE
  5
277
330
1F
100
AcDbEntity
  8
1
  6
Continuous
 62
     3
100
AcDbLine
 10
481.0249687185769
 20
-1227.72910772598
 30
0.0
 11
480.6749687185769
 21
-1227.55410772598
 31
0.0
  0
LINE
  5
278
330
1F
100
AcDbEntity
  8
1
  6
Continuous
 62
     3
100
AcDbLine
 10
480.6749687185769
 20
-1227.55410772598
 30
0.0
 11
480.0624687185768
 21
-1227.55410772598
 31
0.0
  0
LINE
  5
279
330
1F
100
AcDbEntity
  8
1
  6
Continuous
 62
     3
100
AcDbLine
 10
480.0624687185768
 20
-1227.55410772598
 30
0.0
 11
479.7124687185769
 21
-1227.72910772598
 31
0.0
  0
LINE
  5
27A
330
1F
100
AcDbEntity
  8
1
  6
Continuous
 62
     3
100
AcDbLine
 10
479.7124687185769
 20
-1227.72910772598
 30
0.0
 11
479.3624687185769
 21
-1227.99160772598
 31
0.0
  0
LINE
  5
27B
330
1F
100
AcDbEntity
  8
1
  6
Continuous
 62
     3
100
AcDbLine
 10
479.3624687185769
 20
-1227.99160772598
 30
0.0
 11
479.1874687185768
 21
-1228.25410772598
 31
0.0
  0
LINE
  5
27C
330
1F
100
AcDbEntity
  8
1
  6
Continuous
 62
     3
100
AcDbLine
 10
479.1874687185768
 20
-1228.25410772598
 30
0.0
 11
479.0124687185769
 21
-1228.69160772598
 31
0.0
  0
LINE
  5
27D
330
1F
100
AcDbEntity
  8
1
  6
Continuous
 62
     3
100
AcDbLine
 10
479.0124687185769
 20
-1228.69160772598
 30
0.0
 11
478.8374687185769
 21
-1229.91660772598
 31
0.0
  0
LINE
  5
27E
330
1F
100
AcDbEntity
  8
1
  6
Continuous
 62
     3
100
AcDbLine
 10
478.8374687185769
 20
-1229.91660772598
 30
0.0
 11
479.2749687185769
 21
-1229.47910772598
 31
0.0
  0
LINE
  5
27F
330
1F
100
AcDbEntity
  8
1
  6
Continuous
 62
     3
100
AcDbLine
 10
479.2749687185769
 20
-1229.47910772598
 30
0.0
 11
479.7124687185769
 21
-1229.21660772598
 31
0.0
  0
LINE
  5
280
330
1F
100
AcDbEntity
  8
1
  6
Continuous
 62
     3
100
AcDbLine
 10
479.7124687185769
 20
-1229.21660772598
 30
0.0
 11
480.1499687185769
 21
-1229.12910772598
 31
0.0
  0
LINE
  5
281
330
1F
100
AcDbEntity
  8
1
  6
Continuous
 62
     3
100
AcDbLine
 10
480.1499687185769
 20
-1229.12910772598
 30
0.0
 11
480.5874687185769
 21
-1229.12910772598
 31
0.0
  0
LINE
  5
282
330
1F
100
AcDbEntity
  8
1
  6
Continuous
 62
     3
100
AcDbLine
 10
480.5874687185769
 20
-1229.12910772598
 30
0.0
 11
481.0249687185769
 21
-1229.21660772598
 31
0.0
  0
LINE
  5
283
330
1F
100
AcDbEntity
  8
1
  6
Continuous
 62
     3
100
AcDbLine
 10
481.0249687185769
 20
-1229.21660772598
 30
0.0
 11
481.4624687185769
 21
-1229.39160772598
 31
0.0
  0
LINE
  5
284
330
1F
100
AcDbEntity
  8
1
  6
Continuous
 62
     3
100
AcDbLine
 10
481.4624687185769
 20
-1229.39160772598
 30
0.0
 11
481.7249687185769
 21
-1229.56660772598
 31
0.0
  0
LINE
  5
285
330
1F
100
AcDbEntity
  8
1
  6
Continuous
 62
     3
100
AcDbLine
 10
481.7249687185769
 20
-1229.56660772598
 30
0.0
 11
481.9874687185769
 21
-1229.82910772598
 31
0.0
  0
LINE
  5
286
330
1F
100
AcDbEntity
  8
1
  6
Continuous
 62
     3
100
AcDbLine
 10
481.9874687185769
 20
-1229.82910772598
 30
0.0
 11
482.2499687185768
 21
-1230.17910772598
 31
0.0
  0
LINE
  5
287
330
1F
100
AcDbEntity
  8
1
  6
Continuous
 62
     3
100
AcDbLine
 10
482.2499687185768
 20
-1230.17910772598
 30
0.0
 11
482.4249687185769
 21
-1230.52910772598
 31
0.0
  0
LINE
  5
288
330
1F
100
AcDbEntity
  8
1
  6
Continuous
 62
     3
100
AcDbLine
 10
482.4249687185769
 20
-1230.52910772598
 30
0.0
 11
482.5999687185769
 21
-1231.05410772598
 31
0.0
  0
LINE
  5
289
330
1F
100
AcDbEntity
  8
1
  6
Continuous
 62
     3
100
AcDbLine
 10
482.5999687185769
 20
-1231.05410772598
 30
0.0
 11
482.5999687185769
 21
-1231.75410772598
 31
0.0
  0
LINE
  5
28A
330
1F
100
AcDbEntity
  8
1
  6
Continuous
 62
     3
100
AcDbLine
 10
460.7249687185769
 20
-1233.67910772598
 30
0.0
 11
460.7249687185769
 21
-1226.67910772598
 31
0.0
  0
LINE
  5
28B
330
1F
100
AcDbEntity
  8
1
  6
Continuous
 62
     3
100
AcDbLine
 10
436.8198416996546
 20
-1187.17910772598
 30
0.0
 11
441.721765488301
 21
-1190.009234744902
 31
0.0
  0
LINE
  5
28C
330
1F
100
AcDbEntity
  8
1
  6
Continuous
 62
     3
100
AcDbLine
 10
420.5933443915509
 20
-1187.17910772598
 30
0.0
 11
436.8198416996546
 21
-1187.17910772598
 31
0.0
  0
LINE
  5
28D
330
1F
100
AcDbEntity
  8
1
  6
Continuous
 62
     3
100
AcDbLine
 10
425.0355989831087
 20
-1199.668477461448
 30
0.0
 11
437.2643384540559
 21
-1199.668477461448
 31
0.0
  0
LINE
  5
28E
330
1F
100
AcDbEntity
  8
1
  6
Continuous
 62
     3
100
AcDbLine
 10
425.0355989831087
 20
-1235.689737990512
 30
0.0
 11
437.2643384540446
 21
-1235.689737990512
 31
0.0
  0
LINE
  5
28F
330
1F
100
AcDbEntity
  8
1
  6
Continuous
 62
     3
100
AcDbLine
 10
439.1499687185768
 20
-1248.17910772598
 30
0.0
 11
420.5933443915509
 21
-1248.17910772598
 31
0.0
  0
LINE
  5
290
330
1F
100
AcDbEntity
  8
1
  6
Continuous
 62
     3
100
AcDbLine
 10
420.5933443915509
 20
-1248.17910772598
 30
0.0
 11
419.149968718577
 21
-1245.67910772598
 31
0.0
  0
LINE
  5
291
330
1F
100
AcDbEntity
  8
1
  6
Continuous
 62
     3
100
AcDbLine
 10
458.649968718577
 20
-1159.411158533549
 30
0.0
 11
484.649968718577
 21
-1159.411158533549
 31
0.0
  0
LINE
  5
292
330
1F
100
AcDbEntity
  8
1
  6
Continuous
 62
     3
100
AcDbLine
 10
457.649968718577
 20
-1153.17910772598
 30
0.0
 11
457.649968718577
 21
-1157.67910772598
 31
0.0
  0
LINE
  5
293
330
1F
100
AcDbEntity
  8
1
  6
Continuous
 62
     3
100
AcDbLine
 10
485.649968718577
 20
-1157.67910772598
 30
0.0
 11
485.649968718577
 21
-1153.17910772598
 31
0.0
  0
LINE
  5
294
330
1F
100
AcDbEntity
  8
1
  6
Continuous
 62
     3
100
AcDbLine
 10
490.649968718577
 20
-1150.17910772598
 30
0.0
 11
491.6499687185768
 21
-1150.17910772598
 31
0.0
  0
LINE
  5
295
330
1F
100
AcDbEntity
  8
1
  6
Continuous
 62
     3
100
AcDbLine
 10
493.6499687185768
 20
-1148.17910772598
 30
0.0
 11
493.6499687185768
 21
-1145.67910772598
 31
0.0
  0
LINE
  5
296
330
1F
100
AcDbEntity
  8
1
  6
Continuous
 62
     3
100
AcDbLine
 10
493.6499687185768
 20
-1145.67910772598
 30
0.0
 11
491.649968718577
 21
-1145.67910772598
 31
0.0
  0
LINE
  5
297
330
1F
100
AcDbEntity
  8
1
  6
Continuous
 62
     3
100
AcDbLine
 10
491.649968718577
 20
-1145.67910772598
 30
0.0
 11
458.6499687185768
 21
-1145.67910772598
 31
0.0
  0
LINE
  5
298
330
1F
100
AcDbEntity
  8
1
  6
Continuous
 62
     3
100
AcDbLine
 10
451.649968718577
 20
-1145.67910772598
 30
0.0
 11
458.6499687185768
 21
-1145.67910772598
 31
0.0
  0
LINE
  5
299
330
1F
100
AcDbEntity
  8
1
  6
Continuous
 62
     3
100
AcDbLine
 10
451.649968718577
 20
-1145.67910772598
 30
0.0
 11
451.649968718577
 21
-1149.17910772598
 31
0.0
  0
LINE
  5
29A
330
1F
100
AcDbEntity
  8
1
  6
Continuous
 62
     3
100
AcDbLine
 10
452.649968718577
 20
-1150.17910772598
 30
0.0
 11
454.649968718577
 21
-1150.17910772598
 31
0.0
  0
LINE
  5
29B
330
1F
100
AcDbEntity
  8
1
  6
Continuous
 62
     3
100
AcDbLine
 10
443.1499687185768
 20
-1217.67910772598
 30
0.0
 11
443.1499687185768
 21
-1190.67910772598
 31
0.0
  0
LINE
  5
29C
330
1F
100
AcDbEntity
  8
1
  6
Continuous
 62
     3
100
AcDbLine
 10
443.1499687185768
 20
-1248.67910772598
 30
0.0
 11
443.1499687185768
 21
-1217.67910772598
 31
0.0
  0
LINE
  5
29D
330
1F
100
AcDbEntity
  8
1
  6
Continuous
 62
     3
100
AcDbLine
 10
470.149968718577
 20
-1173.67910772598
 30
0.0
 11
470.149968718577
 21
-1186.67910772598
 31
0.0
  0
LINE
  5
29E
330
1F
100
AcDbEntity
  8
1
  6
Continuous
 62
     3
100
AcDbLine
 10
473.149968718577
 20
-1173.67910772598
 30
0.0
 11
473.149968718577
 21
-1186.67910772598
 31
0.0
  0
LINE
  5
29F
330
1F
100
AcDbEntity
  8
1
  6
Continuous
 62
     3
100
AcDbLine
 10
484.173176093151
 20
-1187.18976446867
 30
0.0
 11
476.173176093151
 21
-1187.18976446867
 31
0.0
  0
LINE
  5
2A0
330
1F
100
AcDbEntity
  8
1
  6
Continuous
 62
     3
100
AcDbLine
 10
467.0623723044139
 20
-1187.18976446867
 30
0.0
 11
460.0623723044139
 21
-1188.18976446867
 31
0.0
  0
LINE
  5
2A1
330
1F
100
AcDbEntity
  8
1
  6
Continuous
 62
     3
100
AcDbLine
 10
454.649968718577
 20
-1150.17910772598
 30
0.0
 11
488.649968718577
 21
-1150.17910772598
 31
0.0
  0
LINE
  5
2A2
330
1F
100
AcDbEntity
  8
1
  6
Continuous
 62
     3
100
AcDbLine
 10
502.6499687185768
 20
-1248.67910772598
 30
0.0
 11
498.6499687185768
 21
-1248.67910772598
 31
0.0
  0
LINE
  5
2A3
330
1F
100
AcDbEntity
  8
1
  6
Continuous
 62
     3
100
AcDbLine
 10
492.6105599236183
 20
-1187.67910772598
 30
0.0
 11
497.6499687185768
 21
-1187.67910772598
 31
0.0
  0
LINE
  5
2A4
330
1F
100
AcDbEntity
  8
1
  6
Continuous
 62
     3
100
AcDbLine
 10
483.9515056146475
 20
-1173.507573539066
 30
0.0
 11
487.9120968196888
 21
-1184.389208442608
 31
0.0
  0
LINE
  5
2A5
330
1F
100
AcDbEntity
  8
1
  6
Continuous
 62
     3
100
AcDbLine
 10
492.6105599236183
 20
-1187.67910772598
 30
0.0
 11
488.6105599236183
 21
-1187.67910772598
 31
0.0
  0
LINE
  5
2A6
330
1F
100
AcDbEntity
  8
1
  6
Continuous
 62
     3
100
AcDbLine
 10
459.3484318225065
 20
-1173.507573539066
 30
0.0
 11
454.2959299146663
 21
-1187.389208442608
 31
0.0
  0
LINE
  5
2A7
330
1F
100
AcDbEntity
  8
1
  6
Continuous
 62
     3
100
AcDbLine
 10
497.6499687185768
 20
-1187.67910772598
 30
0.0
 11
498.6499687185768
 21
-1186.67910772598
 31
0.0
  0
LINE
  5
2A8
330
1F
100
AcDbEntity
  8
1
  6
Continuous
 62
     3
100
AcDbLine
 10
459.649968718577
 20
-1161.143209341118
 30
0.0
 11
459.6499687185768
 21
-1184.941559160548
 31
0.0
  0
LINE
  5
2A9
330
1F
100
AcDbEntity
  8
1
  6
Continuous
 62
     3
100
AcDbLine
 10
483.649968718577
 20
-1161.143209341118
 30
0.0
 11
483.6499687185768
 21
-1182.67910772598
 31
0.0
  0
LINE
  5
2AA
330
1F
100
AcDbEntity
  8
1
  6
Continuous
 62
     3
100
AcDbLine
 10
444.2217654883014
 20
-1190.67910772598
 30
0.0
 11
452.1307474226335
 21
-1190.67910772598
 31
0.0
  0
LINE
  5
2AB
330
1F
100
AcDbEntity
  8
1
  6
Continuous
 62
     3
100
AcDbLine
 10
491.649968718577
 20
-1149.17910772598
 30
0.0
 11
491.649968718577
 21
-1145.67910772598
 31
0.0
  0
LINE
  5
2AC
330
1F
100
AcDbEntity
  8
1
  6
Continuous
 62
     3
100
AcDbLine
 10
488.649968718577
 20
-1150.17910772598
 30
0.0
 11
490.649968718577
 21
-1150.17910772598
 31
0.0
  0
LINE
  5
2AD
330
1F
100
AcDbEntity
  8
1
  6
Continuous
 62
     3
100
AcDbLine
 10
452.649968718577
 20
-1150.17910772598
 30
0.0
 11
454.649968718577
 21
-1150.17910772598
 31
0.0
  0
LINE
  5
2AE
330
1F
100
AcDbEntity
  8
1
  6
DOT_CENTER
 62
     1
100
AcDbLine
 10
471.649968718577
 20
-1117.67910772598
 30
0.0
 11
471.649968718577
 21
-1272.67910772598
 31
0.0
  0
LINE
  5
2AF
330
1F
100
AcDbEntity
  8
1
  6
DOT_CENTER
 62
     1
100
AcDbLine
 10
412.6499687185768
 20
-1217.67910772598
 30
0.0
 11
533.985843430665
 21
-1217.67910772598
 31
0.0
  0
LINE
  5
2B0
330
1F
100
AcDbEntity
  8
1
  6
Continuous
 62
     3
100
AcDbLine
 10
489.6605989831087
 20
-1254.564737990512
 30
0.0
 11
489.6605989831087
 21
-1264.793477461448
 31
0.0
  0
LINE
  5
2B1
330
1F
100
AcDbEntity
  8
1
  6
Continuous
 62
     3
100
AcDbLine
 10
453.6393384540452
 20
-1254.564737990512
 30
0.0
 11
453.6393384540452
 21
-1264.793477461448
 31
0.0
  0
LINE
  5
2B2
330
1F
100
AcDbEntity
  8
1
  6
Continuous
 62
     3
100
AcDbLine
 10
502.149968718577
 20
-1268.235732053006
 30
0.0
 11
502.1499687185768
 21
-1250.387206969528
 31
0.0
  0
LINE
  5
2B3
330
1F
100
AcDbEntity
  8
1
  6
Continuous
 62
     3
100
AcDbLine
 10
441.149968718577
 20
-1268.235732053006
 30
0.0
 11
441.1499687185768
 21
-1250.17910772598
 31
0.0
  0
LINE
  5
2B4
330
1F
100
AcDbEntity
  8
1
  6
Continuous
 62
     3
100
AcDbLine
 10
443.1499687185768
 20
-1248.67910772598
 30
0.0
 11
502.1499687185768
 21
-1248.67910772598
 31
0.0
  0
LINE
  5
2B5
330
1F
100
AcDbEntity
  8
1
  6
Continuous
 62
     3
100
AcDbLine
 10
498.6499687185768
 20
-1186.67910772598
 30
0.0
 11
501.3659889407139
 21
-1186.67910772598
 31
0.0
  0
LINE
  5
2B6
330
1F
100
AcDbEntity
  8
1
  6
Continuous
 62
     3
100
AcDbLine
 10
499.649968718577
 20
-1269.67910772598
 30
0.0
 11
502.149968718577
 21
-1268.235732053006
 31
0.0
  0
LINE
  5
2B7
330
1F
100
AcDbEntity
  8
1
  6
Continuous
 62
     3
100
AcDbLine
 10
441.149968718577
 20
-1268.235732053006
 30
0.0
 11
443.649968718577
 21
-1269.67910772598
 31
0.0
  0
LINE
  5
2B8
330
1F
100
AcDbEntity
  8
1
  6
Continuous
 62
     3
100
AcDbLine
 10
474.3793728997419
 20
-1269.67910772598
 30
0.0
 11
499.649968718577
 21
-1269.67910772598
 31
0.0
  0
LINE
  5
2B9
330
1F
100
AcDbEntity
  8
1
  6
Continuous
 62
     3
100
AcDbLine
 10
443.649968718577
 20
-1269.67910772598
 30
0.0
 11
474.3793728997419
 21
-1269.67910772598
 31
0.0
  0
LINE
  5
2BA
330
1F
100
AcDbEntity
  8
1
  6
Continuous
 62
     3
100
AcDbLine
 10
498.6499687185768
 20
-1186.67910772598
 30
0.0
 11
502.6499687185768
 21
-1186.67910772598
 31
0.0
  0
LINE
  5
2BB
330
1F
100
AcDbEntity
  8
1
  6
Continuous
 62
     3
100
AcDbLine
 10
668.6499687185763
 20
-1186.67910772598
 30
0.0
 11
672.6499687185763
 21
-1186.67910772598
 31
0.0
  0
LINE
  5
2BC
330
1F
100
AcDbEntity
  8
1
  6
Continuous
 62
     3
100
AcDbLine
 10
696.9205645374111
 20
-1269.67910772598
 30
0.0
 11
727.6499687185763
 21
-1269.67910772598
 31
0.0
  0
LINE
  5
2BD
330
1F
100
AcDbEntity
  8
1
  6
Continuous
 62
     3
100
AcDbLine
 10
671.6499687185763
 20
-1269.67910772598
 30
0.0
 11
696.9205645374111
 21
-1269.67910772598
 31
0.0
  0
LINE
  5
2BE
330
1F
100
AcDbEntity
  8
1
  6
Continuous
 62
     3
100
AcDbLine
 10
727.6499687185763
 20
-1269.67910772598
 30
0.0
 11
730.1499687185763
 21
-1268.235732053006
 31
0.0
  0
LINE
  5
2BF
330
1F
100
AcDbEntity
  8
1
  6
Continuous
 62
     3
100
AcDbLine
 10
669.1499687185763
 20
-1268.235732053006
 30
0.0
 11
671.6499687185763
 21
-1269.67910772598
 31
0.0
  0
LINE
  5
2C0
330
1F
100
AcDbEntity
  8
1
  6
Continuous
 62
     3
100
AcDbLine
 10
669.9339484964391
 20
-1186.67910772598
 30
0.0
 11
672.6499687185763
 21
-1186.67910772598
 31
0.0
  0
LINE
  5
2C1
330
1F
100
AcDbEntity
  8
1
  6
Continuous
 62
     3
100
AcDbLine
 10
669.1499687185763
 20
-1248.67910772598
 30
0.0
 11
728.1499687185763
 21
-1248.67910772598
 31
0.0
  0
LINE
  5
2C2
330
1F
100
AcDbEntity
  8
1
  6
Continuous
 62
     3
100
AcDbLine
 10
730.1499687185763
 20
-1250.17910772598
 30
0.0
 11
730.1499687185763
 21
-1268.235732053006
 31
0.0
  0
LINE
  5
2C3
330
1F
100
AcDbEntity
  8
1
  6
Continuous
 62
     3
100
AcDbLine
 10
669.1499687185763
 20
-1250.387206969528
 30
0.0
 11
669.1499687185763
 21
-1268.235732053006
 31
0.0
  0
LINE
  5
2C4
330
1F
100
AcDbEntity
  8
1
  6
Continuous
 62
     3
100
AcDbLine
 10
717.660598983108
 20
-1264.793477461448
 30
0.0
 11
717.660598983108
 21
-1254.564737990512
 31
0.0
  0
LINE
  5
2C5
330
1F
100
AcDbEntity
  8
1
  6
Continuous
 62
     3
100
AcDbLine
 10
681.6393384540445
 20
-1264.793477461448
 30
0.0
 11
681.6393384540445
 21
-1254.564737990512
 31
0.0
  0
LINE
  5
2C6
330
1F
100
AcDbEntity
  8
1
  6
DOT_CENTER
 62
     1
100
AcDbLine
 10
638.8600029398
 20
-1217.67910772598
 30
0.0
 11
758.6499687185763
 21
-1217.67910772598
 31
0.0
  0
LINE
  5
2C7
330
1F
100
AcDbEntity
  8
1
  6
DOT_CENTER
 62
     1
100
AcDbLine
 10
699.6499687185763
 20
-1272.67910772598
 30
0.0
 11
699.6499687185763
 21
-1117.67910772598
 31
0.0
  0
LINE
  5
2C8
330
1F
100
AcDbEntity
  8
1
  6
Continuous
 62
     3
100
AcDbLine
 10
716.6499687185763
 20
-1150.17910772598
 30
0.0
 11
718.6499687185763
 21
-1150.17910772598
 31
0.0
  0
LINE
  5
2C9
330
1F
100
AcDbEntity
  8
1
  6
Continuous
 62
     3
100
AcDbLine
 10
680.6499687185763
 20
-1150.17910772598
 30
0.0
 11
682.6499687185763
 21
-1150.17910772598
 31
0.0
  0
LINE
  5
2CA
330
1F
100
AcDbEntity
  8
1
  6
Continuous
 62
     3
100
AcDbLine
 10
679.6499687185763
 20
-1145.67910772598
 30
0.0
 11
679.6499687185763
 21
-1149.17910772598
 31
0.0
  0
LINE
  5
2CB
330
1F
100
AcDbEntity
  8
1
  6
Continuous
 62
     3
100
AcDbLine
 10
719.1691900145195
 20
-1190.67910772598
 30
0.0
 11
727.0781719488516
 21
-1190.67910772598
 31
0.0
  0
LINE
  5
2CC
330
1F
100
AcDbEntity
  8
1
  6
Continuous
 62
     3
100
AcDbLine
 10
687.6499687185763
 20
-1182.67910772598
 30
0.0
 11
687.6499687185763
 21
-1161.143209341118
 31
0.0
  0
LINE
  5
2CD
330
1F
100
AcDbEntity
  8
1
  6
Continuous
 62
     3
100
AcDbLine
 10
711.6499687185763
 20
-1184.941559160548
 30
0.0
 11
711.6499687185763
 21
-1161.143209341118
 31
0.0
  0
LINE
  5
2CE
330
1F
100
AcDbEntity
  8
1
  6
Continuous
 62
     3
100
AcDbLine
 10
672.6499687185763
 20
-1186.67910772598
 30
0.0
 11
673.6499687185763
 21
-1187.67910772598
 31
0.0
  0
LINE
  5
2CF
330
1F
100
AcDbEntity
  8
1
  6
Continuous
 62
     3
100
AcDbLine
 10
717.0040075224868
 20
-1187.389208442608
 30
0.0
 11
711.9515056146468
 21
-1173.507573539066
 31
0.0
  0
LINE
  5
2D0
330
1F
100
AcDbEntity
  8
1
  6
Continuous
 62
     3
100
AcDbLine
 10
682.6893775135347
 20
-1187.67910772598
 30
0.0
 11
678.6893775135347
 21
-1187.67910772598
 31
0.0
  0
LINE
  5
2D1
330
1F
100
AcDbEntity
  8
1
  6
Continuous
 62
     3
100
AcDbLine
 10
683.3878406174642
 20
-1184.389208442608
 30
0.0
 11
687.3484318225058
 21
-1173.507573539066
 31
0.0
  0
LINE
  5
2D2
330
1F
100
AcDbEntity
  8
1
  6
Continuous
 62
     3
100
AcDbLine
 10
673.6499687185763
 20
-1187.67910772598
 30
0.0
 11
678.6893775135347
 21
-1187.67910772598
 31
0.0
  0
LINE
  5
2D3
330
1F
100
AcDbEntity
  8
1
  6
Continuous
 62
     3
100
AcDbLine
 10
672.6499687185763
 20
-1248.67910772598
 30
0.0
 11
668.6499687185763
 21
-1248.67910772598
 31
0.0
  0
LINE
  5
2D4
330
1F
100
AcDbEntity
  8
1
  6
Continuous
 62
     3
100
AcDbLine
 10
682.6499687185763
 20
-1150.17910772598
 30
0.0
 11
716.6499687185763
 21
-1150.17910772598
 31
0.0
  0
LINE
  5
2D5
330
1F
100
AcDbEntity
  8
1
  6
Continuous
 62
     3
100
AcDbLine
 10
722.1499687185763
 20
-1213.67910772598
 30
0.0
 11
722.1499687185763
 21
-1221.67910772598
 31
0.0
  0
LINE
  5
2D6
330
1F
100
AcDbEntity
  8
1
  6
Continuous
 62
     3
100
AcDbLine
 10
722.1499687185763
 20
-1221.67910772598
 30
0.0
 11
672.6499687185763
 21
-1221.67910772598
 31
0.0
  0
LINE
  5
2D7
330
1F
100
AcDbEntity
  8
1
  6
Continuous
 62
     3
100
AcDbLine
 10
672.6499687185763
 20
-1213.67910772598
 30
0.0
 11
722.1499687185763
 21
-1213.67910772598
 31
0.0
  0
LINE
  5
2D8
330
1F
100
AcDbEntity
  8
1
  6
Continuous
 62
     3
100
AcDbLine
 10
672.6499687185763
 20
-1213.67910772598
 30
0.0
 11
672.6499687185763
 21
-1186.67910772598
 31
0.0
  0
LINE
  5
2D9
330
1F
100
AcDbEntity
  8
1
  6
Continuous
 62
     3
100
AcDbLine
 10
672.6499687185763
 20
-1247.67910772598
 30
0.0
 11
672.6499687185763
 21
-1221.67910772598
 31
0.0
  0
LINE
  5
2DA
330
1F
100
AcDbEntity
  8
1
  6
Continuous
 62
     3
100
AcDbLine
 10
673.6499687185763
 20
-1247.67910772598
 30
0.0
 11
673.6499687185763
 21
-1221.67910772598
 31
0.0
  0
LINE
  5
2DB
330
1F
100
AcDbEntity
  8
1
  6
Continuous
 62
     3
100
AcDbLine
 10
673.6499687185763
 20
-1213.67910772598
 30
0.0
 11
673.6499687185763
 21
-1187.67910772598
 31
0.0
  0
LINE
  5
2DC
330
1F
100
AcDbEntity
  8
1
  6
Continuous
 62
     3
100
AcDbLine
 10
711.2375651327391
 20
-1188.18976446867
 30
0.0
 11
704.2375651327391
 21
-1187.18976446867
 31
0.0
  0
LINE
  5
2DD
330
1F
100
AcDbEntity
  8
1
  6
Continuous
 62
     3
100
AcDbLine
 10
695.126761344002
 20
-1187.18976446867
 30
0.0
 11
687.126761344002
 21
-1187.18976446867
 31
0.0
  0
LINE
  5
2DE
330
1F
100
AcDbEntity
  8
1
  6
Continuous
 62
     3
100
AcDbLine
 10
698.1499687185763
 20
-1186.67910772598
 30
0.0
 11
698.1499687185763
 21
-1173.67910772598
 31
0.0
  0
LINE
  5
2DF
330
1F
100
AcDbEntity
  8
1
  6
Continuous
 62
     3
100
AcDbLine
 10
701.1499687185763
 20
-1186.67910772598
 30
0.0
 11
701.1499687185763
 21
-1173.67910772598
 31
0.0
  0
LINE
  5
2E0
330
1F
100
AcDbEntity
  8
1
  6
Continuous
 62
     3
100
AcDbLine
 10
728.1499687185763
 20
-1217.67910772598
 30
0.0
 11
728.1499687185763
 21
-1248.67910772598
 31
0.0
  0
LINE
  5
2E1
330
1F
100
AcDbEntity
  8
1
  6
Continuous
 62
     3
100
AcDbLine
 10
728.1499687185763
 20
-1190.67910772598
 30
0.0
 11
728.1499687185763
 21
-1217.67910772598
 31
0.0
  0
LINE
  5
2E2
330
1F
100
AcDbEntity
  8
1
  6
Continuous
 62
     3
100
AcDbLine
 10
716.6499687185763
 20
-1150.17910772598
 30
0.0
 11
718.6499687185763
 21
-1150.17910772598
 31
0.0
  0
LINE
  5
2E3
330
1F
100
AcDbEntity
  8
1
  6
Continuous
 62
     3
100
AcDbLine
 10
719.6499687185763
 20
-1149.17910772598
 30
0.0
 11
719.6499687185763
 21
-1145.67910772598
 31
0.0
  0
LINE
  5
2E4
330
1F
100
AcDbEntity
  8
1
  6
Continuous
 62
     3
100
AcDbLine
 10
712.6499687185763
 20
-1145.67910772598
 30
0.0
 11
719.6499687185763
 21
-1145.67910772598
 31
0.0
  0
LINE
  5
2E5
330
1F
100
AcDbEntity
  8
1
  6
Continuous
 62
     3
100
AcDbLine
 10
712.6499687185763
 20
-1145.67910772598
 30
0.0
 11
679.6499687185763
 21
-1145.67910772598
 31
0.0
  0
LINE
  5
2E6
330
1F
100
AcDbEntity
  8
1
  6
Continuous
 62
     3
100
AcDbLine
 10
679.6499687185763
 20
-1145.67910772598
 30
0.0
 11
677.6499687185763
 21
-1145.67910772598
 31
0.0
  0
LINE
  5
2E7
330
1F
100
AcDbEntity
  8
1
  6
Continuous
 62
     3
100
AcDbLine
 10
677.6499687185763
 20
-1145.67910772598
 30
0.0
 11
677.6499687185763
 21
-1148.17910772598
 31
0.0
  0
LINE
  5
2E8
330
1F
100
AcDbEntity
  8
1
  6
Continuous
 62
     3
100
AcDbLine
 10
679.6499687185763
 20
-1150.17910772598
 30
0.0
 11
680.6499687185763
 21
-1150.17910772598
 31
0.0
  0
LINE
  5
2E9
330
1F
100
AcDbEntity
  8
1
  6
Continuous
 62
     3
100
AcDbLine
 10
685.6499687185763
 20
-1153.17910772598
 30
0.0
 11
685.6499687185763
 21
-1157.67910772598
 31
0.0
  0
LINE
  5
2EA
330
1F
100
AcDbEntity
  8
1
  6
Continuous
 62
     3
100
AcDbLine
 10
713.6499687185763
 20
-1157.67910772598
 30
0.0
 11
713.6499687185763
 21
-1153.17910772598
 31
0.0
  0
LINE
  5
2EB
330
1F
100
AcDbEntity
  8
1
  6
Continuous
 62
     3
100
AcDbLine
 10
686.6499687185763
 20
-1159.411158533549
 30
0.0
 11
712.6499687185763
 21
-1159.411158533549
 31
0.0
  0
LINE
  5
2EC
330
1F
100
AcDbEntity
  8
1
  6
Continuous
 62
     3
100
AcDbLine
 10
750.7065930456022
 20
-1248.17910772598
 30
0.0
 11
732.1499687185763
 21
-1248.17910772598
 31
0.0
  0
LINE
  5
2ED
330
1F
100
AcDbEntity
  8
1
  6
Continuous
 62
     3
100
AcDbLine
 10
734.0355989831085
 20
-1235.689737990512
 30
0.0
 11
746.2721132230665
 21
-1235.689737990512
 31
0.0
  0
LINE
  5
2EE
330
1F
100
AcDbEntity
  8
1
  6
Continuous
 62
     3
100
AcDbLine
 10
734.0355989830971
 20
-1199.668477461448
 30
0.0
 11
746.2721132230665
 21
-1199.668477461448
 31
0.0
  0
LINE
  5
2EF
330
1F
100
AcDbEntity
  8
1
  6
Continuous
 62
     3
100
AcDbLine
 10
750.7065930456022
 20
-1187.17910772598
 30
0.0
 11
752.1499687185763
 21
-1189.67910772598
 31
0.0
  0
LINE
  5
2F0
330
1F
100
AcDbEntity
  8
1
  6
Continuous
 62
     3
100
AcDbLine
 10
734.4800957374985
 20
-1187.17910772598
 30
0.0
 11
750.7065930456022
 21
-1187.17910772598
 31
0.0
  0
LINE
  5
2F1
330
1F
100
AcDbEntity
  8
1
  6
Continuous
 62
     3
100
AcDbLine
 10
729.5781719488521
 20
-1190.009234744902
 30
0.0
 11
734.4800957374985
 21
-1187.17910772598
 31
0.0
  0
LINE
  5
2F2
330
1F
100
AcDbEntity
  8
1
  6
DOT_CENTER
 62
     1
100
AcDbLine
 10
585.6499687185765
 20
-1117.67910772598
 30
0.0
 11
585.6499687185765
 21
-1272.67910772598
 31
0.0
  0
LINE
  5
2F3
330
1F
100
AcDbEntity
  8
1
  6
DOT_CENTER
 62
     1
100
AcDbLine
 10
551.5073845589127
 20
-1217.67910772598
 30
0.0
 11
618.9159725319396
 21
-1217.67910772598
 31
0.0
  0
LINE
  5
2F4
330
1F
100
AcDbEntity
  8
1
  6
Continuous
 62
     3
100
AcDbLine
 10
613.6499687185765
 20
-1247.67910772598
 30
0.0
 11
613.6499687185765
 21
-1269.67910772598
 31
0.0
  0
LINE
  5
2F5
330
1F
100
AcDbEntity
  8
1
  6
Continuous
 62
     3
100
AcDbLine
 10
557.6499687185765
 20
-1269.67910772598
 30
0.0
 11
557.6499687185765
 21
-1247.67910772598
 31
0.0
  0
LINE
  5
2F6
330
1F
100
AcDbEntity
  8
1
  6
Continuous
 62
     3
100
AcDbLine
 10
557.6499687185765
 20
-1269.67910772598
 30
0.0
 11
613.6499687185765
 21
-1269.67910772598
 31
0.0
  0
LINE
  5
2F7
330
1F
100
AcDbEntity
  8
1
  6
Continuous
 62
     3
100
AcDbLine
 10
557.6499687185765
 20
-1247.67910772598
 30
0.0
 11
561.6561839688386
 21
-1240.740139366469
 31
0.0
  0
LINE
  5
2F8
330
1F
100
AcDbEntity
  8
1
  6
Continuous
 62
     3
100
AcDbLine
 10
613.6499687185765
 20
-1247.67910772598
 30
0.0
 11
609.6437534683141
 21
-1240.740139366469
 31
0.0
  0
LINE
  5
2F9
330
1F
100
AcDbEntity
  8
1
  6
Continuous
 62
     3
100
AcDbLine
 10
573.348431822506
 20
-1173.507573539066
 30
0.0
 11
565.997274212298
 21
-1193.704713079965
 31
0.0
  0
LINE
  5
2FA
330
1F
100
AcDbEntity
  8
1
  6
Continuous
 62
     3
100
AcDbLine
 10
573.6499687185765
 20
-1161.143209341118
 30
0.0
 11
573.6499687185765
 21
-1187.084990644423
 31
0.0
  0
LINE
  5
2FB
330
1F
100
AcDbEntity
  8
1
  6
Continuous
 62
     3
100
AcDbLine
 10
597.6499687185765
 20
-1161.143209341118
 30
0.0
 11
597.6499687185765
 21
-1187.084990644423
 31
0.0
  0
LINE
  5
2FC
330
1F
100
AcDbEntity
  8
1
  6
Continuous
 62
     3
100
AcDbLine
 10
597.6499687185765
 20
-1172.67910772598
 30
0.0
 11
597.9515056146468
 21
-1173.507573539066
 31
0.0
  0
LINE
  5
2FD
330
1F
100
AcDbEntity
  8
1
  6
Continuous
 62
     3
100
AcDbLine
 10
597.9515056146468
 20
-1173.507573539066
 30
0.0
 11
605.3026632248547
 21
-1193.704713079964
 31
0.0
  0
LINE
  5
2FE
330
1F
100
AcDbEntity
  8
1
  6
Continuous
 62
     3
100
AcDbLine
 10
557.6499687185765
 20
-1247.67910772598
 30
0.0
 11
577.8397190426698
 21
-1247.67910772598
 31
0.0
  0
LINE
  5
2FF
330
1F
100
AcDbEntity
  8
1
  6
Continuous
 62
     3
100
AcDbLine
 10
572.6499687185765
 20
-1159.411158533549
 30
0.0
 11
598.6499687185765
 21
-1159.411158533549
 31
0.0
  0
LINE
  5
300
330
1F
100
AcDbEntity
  8
1
  6
Continuous
 62
     3
100
AcDbLine
 10
571.6499687185765
 20
-1153.17910772598
 30
0.0
 11
571.6499687185765
 21
-1157.67910772598
 31
0.0
  0
LINE
  5
301
330
1F
100
AcDbEntity
  8
1
  6
Continuous
 62
     3
100
AcDbLine
 10
599.6499687185765
 20
-1157.67910772598
 30
0.0
 11
599.6499687185765
 21
-1153.17910772598
 31
0.0
  0
LINE
  5
302
330
1F
100
AcDbEntity
  8
1
  6
Continuous
 62
     3
100
AcDbLine
 10
605.6499687185765
 20
-1145.67910772598
 30
0.0
 11
572.6499687185763
 21
-1145.67910772598
 31
0.0
  0
LINE
  5
303
330
1F
100
AcDbEntity
  8
1
  6
Continuous
 62
     3
100
AcDbLine
 10
565.6499687185765
 20
-1145.67910772598
 30
0.0
 11
572.6499687185763
 21
-1145.67910772598
 31
0.0
  0
LINE
  5
304
330
1F
100
AcDbEntity
  8
1
  6
Continuous
 62
     3
100
AcDbLine
 10
565.6499687185765
 20
-1145.67910772598
 30
0.0
 11
565.6499687185765
 21
-1149.17910772598
 31
0.0
  0
LINE
  5
305
330
1F
100
AcDbEntity
  8
1
  6
Continuous
 62
     3
100
AcDbLine
 10
566.6499687185765
 20
-1150.17910772598
 30
0.0
 11
568.6499687185765
 21
-1150.17910772598
 31
0.0
  0
LINE
  5
306
330
1F
100
AcDbEntity
  8
1
  6
Continuous
 62
     3
100
AcDbLine
 10
568.6499687185765
 20
-1150.17910772598
 30
0.0
 11
602.6499687185765
 21
-1150.17910772598
 31
0.0
  0
LINE
  5
307
330
1F
100
AcDbEntity
  8
1
  6
Continuous
 62
     3
100
AcDbLine
 10
605.6499687185765
 20
-1149.17910772598
 30
0.0
 11
605.6499687185765
 21
-1145.67910772598
 31
0.0
  0
LINE
  5
308
330
1F
100
AcDbEntity
  8
1
  6
Continuous
 62
     3
100
AcDbLine
 10
602.6499687185765
 20
-1150.17910772598
 30
0.0
 11
604.6499687185765
 21
-1150.17910772598
 31
0.0
  0
LINE
  5
309
330
1F
100
AcDbEntity
  8
1
  6
Continuous
 62
     3
100
AcDbLine
 10
566.6499687185765
 20
-1150.17910772598
 30
0.0
 11
568.6499687185765
 21
-1150.17910772598
 31
0.0
  0
LINE
  5
30A
330
1F
100
AcDbEntity
  8
1
  6
Continuous
 62
     3
100
AcDbLine
 10
584.1499687185765
 20
-1173.67910772598
 30
0.0
 11
584.1499687185765
 21
-1186.67910772598
 31
0.0
  0
LINE
  5
30B
330
1F
100
AcDbEntity
  8
1
  6
Continuous
 62
     3
100
AcDbLine
 10
587.1499687185765
 20
-1173.67910772598
 30
0.0
 11
587.1499687185765
 21
-1186.67910772598
 31
0.0
  0
LINE
  5
30C
330
1F
100
AcDbEntity
  8
1
  6
Continuous
 62
     3
100
AcDbLine
 10
585.6499687185765
 20
-1252.564737990512
 30
0.0
 11
585.6499687185765
 21
-1264.793477461448
 31
0.0
  0
LINE
  5
30D
330
1F
100
AcDbEntity
  8
1
  6
Continuous
 62
     3
100
AcDbLine
 10
491.649968718577
 20
-1048.22350907641
 30
0.0
 11
491.649968718577
 21
-1059.395081951664
 31
0.0
  0
LINE
  5
30E
330
1F
100
AcDbEntity
  8
1
  6
DASH_CENTER
 62
     1
100
AcDbLine
 10
412.6499687185768
 20
-1062.22350907641
 30
0.0
 11
533.985843430665
 21
-1062.22350907641
 31
0.0
  0
LINE
  5
30F
330
1F
100
AcDbEntity
  8
1
  6
Continuous
 62
     3
100
AcDbLine
 10
451.649968718577
 20
-1062.22350907641
 30
0.0
 11
451.649968718577
 21
-1048.22350907641
 31
0.0
  0
LINE
  5
310
330
1F
100
AcDbEntity
  8
1
  6
DASH_CENTER
 62
     1
100
AcDbLine
 10
471.649968718577
 20
-1029.132282148272
 30
0.0
 11
471.649968718577
 21
-1096.241588077021
 31
0.0
  0
LINE
  5
311
330
1F
100
AcDbEntity
  8
1
  6
Continuous
 62
     3
100
AcDbLine
 10
451.649968718577
 20
-1076.22350907641
 30
0.0
 11
451.649968718577
 21
-1062.22350907641
 31
0.0
  0
LINE
  5
312
330
1F
100
AcDbEntity
  8
1
  6
Continuous
 62
     3
100
AcDbLine
 10
491.649968718577
 20
-1065.051936201156
 30
0.0
 11
491.649968718577
 21
-1076.22350907641
 31
0.0
  0
LINE
  5
313
330
1F
100
AcDbEntity
  8
1
  6
Continuous
 62
     3
100
AcDbLine
 10
419.149968718577
 20
-1189.67910772598
 30
0.0
 11
419.149968718577
 21
-1245.67910772598
 31
0.0
  0
LINE
  5
314
330
1F
100
AcDbEntity
  8
1
  6
Continuous
 62
     3
100
AcDbLine
 10
419.149968718577
 20
-1189.67910772598
 30
0.0
 11
420.5933443915509
 21
-1187.17910772598
 31
0.0
  0
LINE
  5
315
330
1F
100
AcDbEntity
  8
1
  6
Continuous
 62
     3
100
AcDbLine
 10
752.1499687185763
 20
-1189.67910772598
 30
0.0
 11
752.1499687185763
 21
-1245.67910772598
 31
0.0
  0
LINE
  5
316
330
1F
100
AcDbEntity
  8
1
  6
Continuous
 62
     3
100
AcDbLine
 10
752.1499687185763
 20
-1245.67910772598
 30
0.0
 11
750.7065930456022
 21
-1248.17910772598
 31
0.0
  0
LINE
  5
317
330
1F
100
AcDbEntity
  8
1
  6
Continuous
 62
     3
100
AcDbLine
 10
593.4602183944832
 20
-1247.67910772598
 30
0.0
 11
613.6499687185765
 21
-1247.67910772598
 31
0.0
  0
ARC
  5
318
330
1F
100
AcDbEntity
  8
1
  6
Continuous
 62
     3
100
AcDbCircle
 10
344.6499687185768
 20
-1217.67910772598
 30
0.0
 40
30.00000000000001
100
AcDbArc
 50
158.9605302186827
 51
-158.9605302186811
  0
ARC
  5
319
330
1F
100
AcDbEntity
  8
1
  6
Continuous
 62
     3
100
AcDbCircle
 10
344.6499687185768
 20
-1217.67910772598
 30
0.0
 40
30.00000000000042
100
AcDbArc
 50
134.7933534580392
 51
141.0394697813174
  0
ARC
  5
31A
330
1F
100
AcDbEntity
  8
1
  6
Continuous
 62
     3
100
AcDbCircle
 10
344.6499687185768
 20
-1217.67910772598
 30
0.0
 40
30.0
100
AcDbArc
 50
0.0
 51
21.03946978131728
  0
ARC
  5
31B
330
1F
100
AcDbEntity
  8
1
  6
Continuous
 62
     3
100
AcDbCircle
 10
326.6393384540451
 20
-1277.17910772598
 30
0.0
 40
30.49999999999982
100
AcDbArc
 50
53.80661709989766
 51
75.28766838821099
  0
ARC
  5
31C
330
1F
100
AcDbEntity
  8
1
  6
Continuous
 62
     3
100
AcDbCircle
 10
362.6605989831086
 20
-1277.17910772598
 30
0.0
 40
30.50000000000002
100
AcDbArc
 50
104.7123316117892
 51
126.1933829001025
  0
ARC
  5
31D
330
1F
100
AcDbEntity
  8
1
  6
Continuous
 62
     3
100
AcDbCircle
 10
362.6605989831086
 20
-1240.17910772598
 30
0.0
 40
30.49999999999989
100
AcDbArc
 50
-126.1933829001025
 51
-104.7123316117892
  0
ARC
  5
31E
330
1F
100
AcDbEntity
  8
1
  6
Continuous
 62
     3
100
AcDbCircle
 10
326.6393384540451
 20
-1240.17910772598
 30
0.0
 40
30.49999999999999
100
AcDbArc
 50
-75.28766838821099
 51
-53.80661709989766
  0
ARC
  5
31F
330
1F
100
AcDbEntity
  8
1
  6
Continuous
 62
     3
100
AcDbCircle
 10
344.6499687185768
 20
-1217.67910772598
 30
0.0
 40
29.99999999999999
100
AcDbArc
 50
38.96053021868313
 51
45.20664654196113
  0
ARC
  5
320
330
1F
100
AcDbEntity
  8
1
  6
Continuous
 62
     3
100
AcDbCircle
 10
344.6499687185768
 20
-1217.67910772598
 30
0.0
 40
30.00000000000027
100
AcDbArc
 50
45.20664654196113
 51
60.94071893196004
  0
ARC
  5
321
330
1F
100
AcDbEntity
  8
1
  6
Continuous
 62
     3
100
AcDbCircle
 10
344.6499687185768
 20
-1217.67910772598
 30
0.0
 40
30.00000000000043
100
AcDbArc
 50
119.0592810680402
 51
134.7933534580392
  0
ARC
  5
322
330
1F
100
AcDbEntity
  8
1
  6
Continuous
 62
     3
100
AcDbCircle
 10
344.6499687185768
 20
-1217.67910772598
 30
0.0
 40
30.00000000000001
100
AcDbArc
 50
-21.03946978131728
 51
0.0
  0
ARC
  5
323
330
1F
100
AcDbEntity
  8
1
  6
Continuous
 62
     3
100
AcDbCircle
 10
344.6499687185768
 20
-1217.67910772598
 30
0.0
 40
30.49999999999987
100
AcDbArc
 50
83.35983767501902
 51
96.6401623249814
  0
ARC
  5
324
330
1F
100
AcDbEntity
  8
1
  6
Continuous
 62
     3
100
AcDbCircle
 10
344.6499687185768
 20
-1217.67910772598
 30
0.0
 40
30.50000000000005
100
AcDbArc
 50
23.35983767501908
 51
36.6401623249803
  0
ARC
  5
325
330
1F
100
AcDbEntity
  8
1
  6
Continuous
 62
     3
100
AcDbCircle
 10
344.6499687185768
 20
-1217.67910772598
 30
0.0
 40
30.49999999999975
100
AcDbArc
 50
-36.6401623249809
 51
-23.35983767501908
  0
ARC
  5
326
330
1F
100
AcDbEntity
  8
1
  6
Continuous
 62
     3
100
AcDbCircle
 10
344.6499687185768
 20
-1217.67910772598
 30
0.0
 40
30.49999999999989
100
AcDbArc
 50
-96.6401623249814
 51
-83.35983767501902
  0
ARC
  5
327
330
1F
100
AcDbEntity
  8
1
  6
Continuous
 62
     3
100
AcDbCircle
 10
344.6499687185768
 20
-1217.67910772598
 30
0.0
 40
30.50000000000005
100
AcDbArc
 50
-156.6401623249809
 51
-143.3598376750194
  0
ARC
  5
328
330
1F
100
AcDbEntity
  8
1
  6
Continuous
 62
     3
100
AcDbCircle
 10
344.6499687185768
 20
-1217.67910772598
 30
0.0
 40
30.49999999999979
100
AcDbArc
 50
143.3598376750197
 51
156.6401623249809
  0
ARC
  5
329
330
1F
100
AcDbEntity
  8
1
  6
Continuous
 62
     3
100
AcDbCircle
 10
435.1680031802228
 20
-1191.948025504491
 30
0.0
 40
7.999999999999932
100
AcDbArc
 50
-74.80874362345298
 51
3.84791834814656
  0
ARC
  5
32A
330
1F
100
AcDbEntity
  8
1
  6
Continuous
 62
     3
100
AcDbCircle
 10
412.6499687185768
 20
-1217.67910772598
 30
0.0
 40
30.5
100
AcDbArc
 50
0.0
 51
36.19338290010303
  0
ARC
  5
32B
330
1F
100
AcDbEntity
  8
1
  6
Continuous
 62
     3
100
AcDbCircle
 10
427.1319342569305
 20
-1191.948025504491
 30
0.0
 40
7.999999999996957
100
AcDbArc
 50
176.1520816518532
 51
-105.1912563764688
  0
ARC
  5
32C
330
1F
100
AcDbEntity
  8
1
  6
Continuous
 62
     3
100
AcDbCircle
 10
449.6499687185769
 20
-1217.67910772598
 30
0.0
 40
30.50000000000012
100
AcDbArc
 50
143.8066170998974
 51
-143.8313576524212
  0
ARC
  5
32D
330
1F
100
AcDbEntity
  8
1
  6
Continuous
 62
     3
100
AcDbCircle
 10
427.1319342569305
 20
-1243.410189947469
 30
0.0
 40
7.999999999996968
100
AcDbArc
 50
105.1912563764688
 51
-176.1520816518532
  0
ARC
  5
32E
330
1F
100
AcDbEntity
  8
1
  6
Continuous
 62
     3
100
AcDbCircle
 10
412.6499687185768
 20
-1217.67910772598
 30
0.0
 40
30.49999999999981
100
AcDbArc
 50
-36.19338290010303
 51
0.0
  0
ARC
  5
32F
330
1F
100
AcDbEntity
  8
1
  6
Continuous
 62
     3
100
AcDbCircle
 10
435.1680031802228
 20
-1243.410189947469
 30
0.0
 40
7.999999999997468
100
AcDbArc
 50
-3.84791834814656
 51
74.80874362353117
  0
ARC
  5
330
330
1F
100
AcDbEntity
  8
1
  6
Continuous
 62
     3
100
AcDbCircle
 10
471.649968718577
 20
-1247.67910772598
 30
0.0
 40
59.9999999999996
100
AcDbArc
 50
105.1613686066106
 51
107.4753651465016
  0
ARC
  5
331
330
1F
100
AcDbEntity
  8
1
  6
Continuous
 62
     3
100
AcDbCircle
 10
497.3810509400697
 20
-1256.661073264339
 30
0.0
 40
8.000000000002173
100
AcDbArc
 50
86.15208165188018
 51
164.8087436235029
  0
ARC
  5
332
330
1F
100
AcDbEntity
  8
1
  6
Continuous
 62
     3
100
AcDbCircle
 10
445.9188864970841
 20
-1256.661073264339
 30
0.0
 40
8.000000000002217
100
AcDbArc
 50
15.19125637649701
 51
93.84791834811982
  0
ARC
  5
333
330
1F
100
AcDbEntity
  8
1
  6
Continuous
 62
     3
100
AcDbCircle
 10
471.649968718577
 20
-1279.17910772598
 30
0.0
 40
30.49999999999982
100
AcDbArc
 50
53.80661709989766
 51
126.1933829001025
  0
ARC
  5
334
330
1F
100
AcDbEntity
  8
1
  6
Continuous
 62
     3
100
AcDbCircle
 10
497.3810509400697
 20
-1262.697142187622
 30
0.0
 40
8.000000000001926
100
AcDbArc
 50
-164.8087436235092
 51
-119.2207085129794
  0
ARC
  5
335
330
1F
100
AcDbEntity
  8
1
  6
Continuous
 62
     3
100
AcDbCircle
 10
445.9188864970841
 20
-1262.697142187622
 30
0.0
 40
8.000000000001458
100
AcDbArc
 50
-60.77929148702096
 51
-15.19125637649072
  0
ARC
  5
336
330
1F
100
AcDbEntity
  8
1
  6
Continuous
 62
     3
100
AcDbCircle
 10
471.649968718577
 20
-1240.17910772598
 30
0.0
 40
30.49999999999989
100
AcDbArc
 50
-126.1933829001025
 51
-104.7123316117895
  0
ARC
  5
337
330
1F
100
AcDbEntity
  8
1
  6
Continuous
 62
     3
100
AcDbCircle
 10
471.649968718577
 20
-1240.17910772598
 30
0.0
 40
30.50000000000002
100
AcDbArc
 50
-75.28766838821079
 51
-53.80661709989766
  0
ARC
  5
338
330
1F
100
AcDbEntity
  8
1
  6
Continuous
 62
     3
100
AcDbCircle
 10
699.6499687185763
 20
-1240.17910772598
 30
0.0
 40
30.49999999999985
100
AcDbArc
 50
-126.1933829001024
 51
-104.7123316117895
  0
ARC
  5
339
330
1F
100
AcDbEntity
  8
1
  6
Continuous
 62
     3
100
AcDbCircle
 10
699.6499687185763
 20
-1240.17910772598
 30
0.0
 40
30.50000000000001
100
AcDbArc
 50
-75.28766838821089
 51
-53.80661709989757
  0
ARC
  5
33A
330
1F
100
AcDbEntity
  8
1
  6
Continuous
 62
     3
100
AcDbCircle
 10
725.3810509400689
 20
-1262.697142187622
 30
0.0
 40
8.000000000001815
100
AcDbArc
 50
-164.808743623509
 51
-119.220708512979
  0
ARC
  5
33B
330
1F
100
AcDbEntity
  8
1
  6
Continuous
 62
     3
100
AcDbCircle
 10
673.9188864970836
 20
-1262.697142187622
 30
0.0
 40
8.000000000001347
100
AcDbArc
 50
-60.77929148702239
 51
-15.19125637649104
  0
ARC
  5
33C
330
1F
100
AcDbEntity
  8
1
  6
Continuous
 62
     3
100
AcDbCircle
 10
699.6499687185763
 20
-1279.17910772598
 30
0.0
 40
30.49999999999985
100
AcDbArc
 50
53.80661709989757
 51
126.1933829001024
  0
ARC
  5
33D
330
1F
100
AcDbEntity
  8
1
  6
Continuous
 62
     3
100
AcDbCircle
 10
725.3810509400689
 20
-1256.661073264339
 30
0.0
 40
8.000000000002173
100
AcDbArc
 50
86.15208165188018
 51
164.8087436235027
  0
ARC
  5
33E
330
1F
100
AcDbEntity
  8
1
  6
Continuous
 62
     3
100
AcDbCircle
 10
673.9188864970836
 20
-1256.661073264339
 30
0.0
 40
8.000000000002054
100
AcDbArc
 50
15.19125637649733
 51
93.84791834811982
  0
ARC
  5
33F
330
1F
100
AcDbEntity
  8
1
  6
Continuous
 62
     3
100
AcDbCircle
 10
699.6499687185763
 20
-1247.67910772598
 30
0.0
 40
59.99999999999981
100
AcDbArc
 50
72.52463485349861
 51
74.83863139338962
  0
ARC
  5
340
330
1F
100
AcDbEntity
  8
1
  6
Continuous
 62
     3
100
AcDbCircle
 10
736.1319342569302
 20
-1243.410189947469
 30
0.0
 40
7.999999999996953
100
AcDbArc
 50
105.1912563764684
 51
-176.1520816518534
  0
ARC
  5
341
330
1F
100
AcDbEntity
  8
1
  6
Continuous
 62
     3
100
AcDbCircle
 10
758.6499687185763
 20
-1217.67910772598
 30
0.0
 40
30.5
100
AcDbArc
 50
180.0
 51
-143.806617099897
  0
ARC
  5
342
330
1F
100
AcDbEntity
  8
1
  6
Continuous
 62
     3
100
AcDbCircle
 10
744.1680031802227
 20
-1243.410189947469
 30
0.0
 40
7.999999999996957
100
AcDbArc
 50
-3.84791834814681
 51
74.80874362353157
  0
ARC
  5
343
330
1F
100
AcDbEntity
  8
1
  6
Continuous
 62
     3
100
AcDbCircle
 10
721.6499687185763
 20
-1217.67910772598
 30
0.0
 40
30.50000000000001
100
AcDbArc
 50
-36.16864234757872
 51
36.19338290010253
  0
ARC
  5
344
330
1F
100
AcDbEntity
  8
1
  6
Continuous
 62
     3
100
AcDbCircle
 10
744.1680031802227
 20
-1191.948025504491
 30
0.0
 40
7.999999999996953
100
AcDbArc
 50
-74.80874362353157
 51
3.84791834814681
  0
ARC
  5
345
330
1F
100
AcDbEntity
  8
1
  6
Continuous
 62
     3
100
AcDbCircle
 10
758.6499687185763
 20
-1217.67910772598
 30
0.0
 40
30.49999999999981
100
AcDbArc
 50
143.806617099897
 51
180.0
  0
ARC
  5
346
330
1F
100
AcDbEntity
  8
1
  6
Continuous
 62
     3
100
AcDbCircle
 10
736.1319342569302
 20
-1191.948025504491
 30
0.0
 40
7.999999999997411
100
AcDbArc
 50
176.1520816518534
 51
-105.191256376547
  0
ARC
  5
347
330
1F
100
AcDbEntity
  8
1
  6
Continuous
 62
     3
100
AcDbCircle
 10
567.6393384540447
 20
-1240.17910772598
 30
0.0
 40
30.50000000000001
100
AcDbArc
 50
-75.28766838821089
 51
-53.80661709989757
  0
ARC
  5
348
330
1F
100
AcDbEntity
  8
1
  6
Continuous
 62
     3
100
AcDbCircle
 10
603.6605989831082
 20
-1240.17910772598
 30
0.0
 40
30.49999999999985
100
AcDbArc
 50
-126.1933829001024
 51
-104.7123316117891
  0
ARC
  5
349
330
1F
100
AcDbEntity
  8
1
  6
Continuous
 62
     3
100
AcDbCircle
 10
603.6605989831082
 20
-1277.17910772598
 30
0.0
 40
30.50000000000001
100
AcDbArc
 50
104.7123316117891
 51
126.1933829001024
  0
ARC
  5
34A
330
1F
100
AcDbEntity
  8
1
  6
Continuous
 62
     3
100
AcDbCircle
 10
567.6393384540447
 20
-1277.17910772598
 30
0.0
 40
30.49999999999985
100
AcDbArc
 50
53.80661709989757
 51
75.28766838821089
  0
ARC
  5
34B
330
1F
100
AcDbEntity
  8
1
  6
Continuous
 62
     3
100
AcDbCircle
 10
491.649968718577
 20
-1062.22350907641
 30
0.0
 40
1.999999999999897
100
AcDbArc
 50
-70.52877936550596
 51
70.52877936550596
  0
ARC
  5
34C
330
1F
100
AcDbEntity
  8
1
  6
Continuous
 62
     3
100
AcDbCircle
 10
471.649968718577
 20
-1034.22350907641
 30
0.0
 40
14.00000000000006
100
AcDbArc
 50
-129.6981988405446
 51
-50.30180115945502
  0
ARC
  5
34D
330
1F
100
AcDbEntity
  8
1
  6
Continuous
 62
     3
100
AcDbCircle
 10
471.649968718577
 20
-1090.22350907641
 30
0.0
 40
14.00000000000014
100
AcDbArc
 50
50.30180115945502
 51
129.698198840545
  0
CIRCLE
  5
34E
330
1F
100
AcDbEntity
  8
1
  6
Continuous
 62
     3
100
AcDbCircle
 10
344.6499687185768
 20
-1217.67910772598
 30
0.0
 40
28.0
  0
CIRCLE
  5
34F
330
1F
100
AcDbEntity
  8
1
  6
Continuous
 62
     1
100
AcDbCircle
 10
344.6499687185768
 20
-1217.67910772598
 30
0.0
 40
23.80000000000001
  0
CIRCLE
  5
350
330
1F
100
AcDbEntity
  8
1
  6
Continuous
 62
     3
100
AcDbCircle
 10
344.6499687185768
 20
-1217.67910772598
 30
0.0
 40
22.39999999999986
  0
CIRCLE
  5
351
330
1F
100
AcDbEntity
  8
1
  6
Continuous
 62
     3
100
AcDbCircle
 10
485.7921043423079
 20
-1048.081373452679
 30
0.0
 40
2.5
  0
CIRCLE
  5
352
330
1F
100
AcDbEntity
  8
1
  6
Continuous
 62
     3
100
AcDbCircle
 10
485.7921043423079
 20
-1076.365644700141
 30
0.0
 40
2.5
  0
CIRCLE
  5
353
330
1F
100
AcDbEntity
  8
1
  6
Continuous
 62
     3
100
AcDbCircle
 10
457.507833094846
 20
-1048.081373452679
 30
0.0
 40
2.5
  0
CIRCLE
  5
354
330
1F
100
AcDbEntity
  8
1
  6
Continuous
 62
     3
100
AcDbCircle
 10
457.507833094846
 20
-1076.365644700141
 30
0.0
 40
2.5
  0
ARC
  5
355
330
1F
100
AcDbEntity
  8
1
  6
Continuous
 62
     3
100
AcDbCircle
 10
316.3260569499167
 20
-1238.240139366469
 30
0.0
 40
5.000000000000116
100
AcDbArc
 50
-29.99999999999924
 51
22.52946733657983
  0
ARC
  5
356
330
1F
100
AcDbEntity
  8
1
  6
Continuous
 62
     3
100
AcDbCircle
 10
347.1499687185766
 20
-1186.67910772598
 30
0.0
 40
0.9999999999997726
100
AcDbArc
 50
180.0
 51
-146.9546059304315
  0
ARC
  5
357
330
1F
100
AcDbEntity
  8
1
  6
Continuous
 62
     3
100
AcDbCircle
 10
347.1499687185766
 20
-1173.67910772598
 30
0.0
 40
1.0
100
AcDbArc
 50
90.0
 51
180.0
  0
ARC
  5
358
330
1F
100
AcDbEntity
  8
1
  6
Continuous
 62
     3
100
AcDbCircle
 10
342.1499687185768
 20
-1186.67910772598
 30
0.0
 40
0.9999999999998525
100
AcDbArc
 50
-33.04539406956847
 51
0.0
  0
ARC
  5
359
330
1F
100
AcDbEntity
  8
1
  6
Continuous
 62
     3
100
AcDbCircle
 10
342.1499687185768
 20
-1173.67910772598
 30
0.0
 40
1.0
100
AcDbArc
 50
0.0
 51
90.0
  0
ARC
  5
35A
330
1F
100
AcDbEntity
  8
1
  6
Continuous
 62
     3
100
AcDbCircle
 10
363.6499687185766
 20
-1149.17910772598
 30
0.0
 40
1.0
100
AcDbArc
 50
-89.99999999998697
 51
0.0
  0
ARC
  5
35B
330
1F
100
AcDbEntity
  8
1
  6
Continuous
 62
     3
100
AcDbCircle
 10
325.6499687185768
 20
-1149.17910772598
 30
0.0
 40
1.0
100
AcDbArc
 50
180.0
 51
-90.0
  0
ARC
  5
35C
330
1F
100
AcDbEntity
  8
1
  6
Continuous
 62
     3
100
AcDbCircle
 10
361.6499687185766
 20
-1153.17910772598
 30
0.0
 40
3.0
100
AcDbArc
 50
89.99999999999567
 51
180.0
  0
ARC
  5
35D
330
1F
100
AcDbEntity
  8
1
  6
Continuous
 62
     3
100
AcDbCircle
 10
358.6499687185766
 20
-1161.143209341118
 30
0.0
 40
2.00000000000005
100
AcDbArc
 50
119.9999999999916
 51
180.0
  0
ARC
  5
35E
330
1F
100
AcDbEntity
  8
1
  6
Continuous
 62
     3
100
AcDbCircle
 10
356.6499687185766
 20
-1157.67910772598
 30
0.0
 40
2.000000000000278
100
AcDbArc
 50
-59.99999999999707
 51
0.0
  0
ARC
  5
35F
330
1F
100
AcDbEntity
  8
1
  6
Continuous
 62
     3
100
AcDbCircle
 10
330.6499687185768
 20
-1161.143209341118
 30
0.0
 40
2.0
100
AcDbArc
 50
0.0
 51
60.00000000000272
  0
ARC
  5
360
330
1F
100
AcDbEntity
  8
1
  6
Continuous
 62
     3
100
AcDbCircle
 10
332.6499687185768
 20
-1157.67910772598
 30
0.0
 40
2.0
100
AcDbArc
 50
180.0
 51
-119.9999999999973
  0
ARC
  5
361
330
1F
100
AcDbEntity
  8
1
  6
Continuous
 62
     3
100
AcDbCircle
 10
327.6499687185768
 20
-1153.17910772598
 30
0.0
 40
3.0
100
AcDbArc
 50
0.0
 51
90.0
  0
ARC
  5
362
330
1F
100
AcDbEntity
  8
1
  6
Continuous
 62
     3
100
AcDbCircle
 10
361.6499687185768
 20
-1171.797472822437
 30
0.0
 40
5.0
100
AcDbArc
 50
180.0
 51
-159.9999999999928
  0
ARC
  5
363
330
1F
100
AcDbEntity
  8
1
  6
Continuous
 62
     3
100
AcDbCircle
 10
369.3092849438198
 20
-1192.841271199755
 30
0.0
 40
5.000000000000456
100
AcDbArc
 50
-159.9999999999956
 51
-134.7933534580436
  0
ARC
  5
364
330
1F
100
AcDbEntity
  8
1
  6
Continuous
 62
     3
100
AcDbCircle
 10
361.6499687185768
 20
-1187.084990644423
 30
0.0
 40
5.0
100
AcDbArc
 50
180.0
 51
-119.0592810680423
  0
ARC
  5
365
330
1F
100
AcDbEntity
  8
1
  6
Continuous
 62
     3
100
AcDbCircle
 10
327.6499687185768
 20
-1171.797472822437
 30
0.0
 40
5.000000000000213
100
AcDbArc
 50
-20.00000000000816
 51
0.0
  0
ARC
  5
366
330
1F
100
AcDbEntity
  8
1
  6
Continuous
 62
     3
100
AcDbCircle
 10
327.6499687185768
 20
-1187.084990644423
 30
0.0
 40
4.999999999999816
100
AcDbArc
 50
-60.94071893195885
 51
0.0
  0
ARC
  5
367
330
1F
100
AcDbEntity
  8
1
  6
Continuous
 62
     3
100
AcDbCircle
 10
319.9906524933339
 20
-1192.841271199755
 30
0.0
 40
4.999999999999575
100
AcDbArc
 50
-45.20664654195915
 51
-20.00000000000571
  0
ARC
  5
368
330
1F
100
AcDbEntity
  8
1
  6
Continuous
 62
     3
100
AcDbCircle
 10
372.9738804872367
 20
-1238.240139366469
 30
0.0
 40
5.000000000000077
100
AcDbArc
 50
157.4705326634199
 51
-150.0000000000001
  0
ARC
  5
369
330
1F
100
AcDbEntity
  8
1
  6
Continuous
 62
     3
100
AcDbCircle
 10
470.1654943677413
 20
-1214.677489435571
 30
0.0
 40
3.001618290408942
100
AcDbArc
 50
-90.0
 51
0.0
  0
ARC
  5
36A
330
1F
100
AcDbEntity
  8
1
  6
Continuous
 62
     3
100
AcDbCircle
 10
444.221765488301
 20
-1185.67910772598
 30
0.0
 40
4.99999999999982
100
AcDbArc
 50
-120.0000000000012
 51
-89.99999999999544
  0
ARC
  5
36B
330
1F
100
AcDbEntity
  8
1
  6
Continuous
 62
     3
100
AcDbCircle
 10
439.1499687185768
 20
-1250.17910772598
 30
0.0
 40
2.0
100
AcDbArc
 50
0.0
 51
90.0
  0
ARC
  5
36C
330
1F
100
AcDbEntity
  8
1
  6
Continuous
 62
     3
100
AcDbCircle
 10
454.649968718577
 20
-1153.17910772598
 30
0.0
 40
3.0
100
AcDbArc
 50
0.0
 51
90.0
  0
ARC
  5
36D
330
1F
100
AcDbEntity
  8
1
  6
Continuous
 62
     3
100
AcDbCircle
 10
459.649968718577
 20
-1157.67910772598
 30
0.0
 40
2.0
100
AcDbArc
 50
180.0
 51
-119.9999999999973
  0
ARC
  5
36E
330
1F
100
AcDbEntity
  8
1
  6
Continuous
 62
     3
100
AcDbCircle
 10
457.649968718577
 20
-1161.143209341118
 30
0.0
 40
2.0
100
AcDbArc
 50
0.0
 51
60.00000000000272
  0
ARC
  5
36F
330
1F
100
AcDbEntity
  8
1
  6
Continuous
 62
     3
100
AcDbCircle
 10
483.6499687185768
 20
-1157.67910772598
 30
0.0
 40
2.000000000000249
100
AcDbArc
 50
-59.99999999999848
 51
0.0
  0
ARC
  5
370
330
1F
100
AcDbEntity
  8
1
  6
Continuous
 62
     3
100
AcDbCircle
 10
485.6499687185768
 20
-1161.143209341118
 30
0.0
 40
2.000000000000079
100
AcDbArc
 50
119.9999999999931
 51
180.0
  0
ARC
  5
371
330
1F
100
AcDbEntity
  8
1
  6
Continuous
 62
     3
100
AcDbCircle
 10
488.6499687185768
 20
-1153.17910772598
 30
0.0
 40
3.0
100
AcDbArc
 50
89.99999999999675
 51
180.0
  0
ARC
  5
372
330
1F
100
AcDbEntity
  8
1
  6
Continuous
 62
     3
100
AcDbCircle
 10
491.6499687185768
 20
-1148.17910772598
 30
0.0
 40
2.0
100
AcDbArc
 50
-90.0
 51
0.0
  0
ARC
  5
373
330
1F
100
AcDbEntity
  8
1
  6
Continuous
 62
     3
100
AcDbCircle
 10
469.149968718577
 20
-1173.67910772598
 30
0.0
 40
1.0
100
AcDbArc
 50
0.0
 51
90.0
  0
ARC
  5
374
330
1F
100
AcDbEntity
  8
1
  6
Continuous
 62
     3
100
AcDbCircle
 10
469.149968718577
 20
-1186.67910772598
 30
0.0
 40
1.0
100
AcDbArc
 50
-90.0
 51
0.0
  0
ARC
  5
375
330
1F
100
AcDbEntity
  8
1
  6
Continuous
 62
     3
100
AcDbCircle
 10
474.1499687185768
 20
-1186.67910772598
 30
0.0
 40
0.9999999999998295
100
AcDbArc
 50
180.0
 51
-90.0
  0
ARC
  5
376
330
1F
100
AcDbEntity
  8
1
  6
Continuous
 62
     3
100
AcDbCircle
 10
474.1499687185768
 20
-1173.67910772598
 30
0.0
 40
1.0
100
AcDbArc
 50
90.0
 51
180.0
  0
ARC
  5
377
330
1F
100
AcDbEntity
  8
1
  6
Continuous
 62
     3
100
AcDbCircle
 10
452.649968718577
 20
-1149.17910772598
 30
0.0
 40
1.0
100
AcDbArc
 50
180.0
 51
-90.0
  0
ARC
  5
378
330
1F
100
AcDbEntity
  8
1
  6
Continuous
 62
     3
100
AcDbCircle
 10
502.6499687185768
 20
-1246.67910772598
 30
0.0
 40
2.0
100
AcDbArc
 50
-90.0
 51
-67.97568716295916
  0
ARC
  5
379
330
1F
100
AcDbEntity
  8
1
  6
Continuous
 62
     3
100
AcDbCircle
 10
452.1307474226335
 20
-1185.67910772598
 30
0.0
 40
5.0
100
AcDbArc
 50
-90.0
 51
-72.52463485349657
  0
ARC
  5
37A
330
1F
100
AcDbEntity
  8
1
  6
Continuous
 62
     3
100
AcDbCircle
 10
488.6499687185768
 20
-1182.67910772598
 30
0.0
 40
5.0
100
AcDbArc
 50
180.0
 51
-90.0
  0
ARC
  5
37B
330
1F
100
AcDbEntity
  8
1
  6
Continuous
 62
     3
100
AcDbCircle
 10
454.6499687185768
 20
-1184.941559160548
 30
0.0
 40
4.999999999999987
100
AcDbArc
 50
-74.83863139339016
 51
0.0
  0
ARC
  5
37C
330
1F
100
AcDbEntity
  8
1
  6
Continuous
 62
     3
100
AcDbCircle
 10
488.649968718577
 20
-1171.797472822438
 30
0.0
 40
5.0
100
AcDbArc
 50
180.0
 51
-160.0000000000041
  0
ARC
  5
37D
330
1F
100
AcDbEntity
  8
1
  6
Continuous
 62
     3
100
AcDbCircle
 10
492.6105599236183
 20
-1182.67910772598
 30
0.0
 40
4.999999999999824
100
AcDbArc
 50
-160.0000000000041
 51
-90.0
  0
ARC
  5
37E
330
1F
100
AcDbEntity
  8
1
  6
Continuous
 62
     3
100
AcDbCircle
 10
449.5974668107368
 20
-1185.67910772598
 30
0.0
 40
5.0
100
AcDbArc
 50
-90.0
 51
-19.99999999999592
  0
ARC
  5
37F
330
1F
100
AcDbEntity
  8
1
  6
Continuous
 62
     3
100
AcDbCircle
 10
454.649968718577
 20
-1171.797472822438
 30
0.0
 40
4.999999999999824
100
AcDbArc
 50
-19.99999999999592
 51
0.0
  0
ARC
  5
380
330
1F
100
AcDbEntity
  8
1
  6
Continuous
 62
     3
100
AcDbCircle
 10
490.6499687185768
 20
-1149.17910772598
 30
0.0
 40
1.0
100
AcDbArc
 50
-89.99999999999022
 51
0.0
  0
ARC
  5
381
330
1F
100
AcDbEntity
  8
1
  6
Continuous
 62
     3
100
AcDbCircle
 10
504.1499687185768
 20
-1250.387206969528
 30
0.0
 40
2.000000000000114
100
AcDbArc
 50
112.0243128370409
 51
180.0
  0
ARC
  5
382
330
1F
100
AcDbEntity
  8
1
  6
Continuous
 62
     3
100
AcDbCircle
 10
502.6499687185765
 20
-1188.67910772598
 30
0.0
 40
2.000000000000164
100
AcDbArc
 50
60.00000000000272
 51
89.99999999999022
  0
ARC
  5
383
330
1F
100
AcDbEntity
  8
1
  6
Continuous
 62
     3
100
AcDbCircle
 10
668.6499687185763
 20
-1246.67910772598
 30
0.0
 40
2.00000000000005
100
AcDbArc
 50
-119.9999999999916
 51
-112.0243128370409
  0
ARC
  5
384
330
1F
100
AcDbEntity
  8
1
  6
Continuous
 62
     3
100
AcDbCircle
 10
668.6499687185765
 20
-1188.67910772598
 30
0.0
 40
2.0
100
AcDbArc
 50
90.00000000000651
 51
119.9999999999973
  0
ARC
  5
385
330
1F
100
AcDbEntity
  8
1
  6
Continuous
 62
     3
100
AcDbCircle
 10
667.1499687185763
 20
-1250.387206969528
 30
0.0
 40
2.0
100
AcDbArc
 50
0.0
 51
67.97568716295916
  0
ARC
  5
386
330
1F
100
AcDbEntity
  8
1
  6
Continuous
 62
     3
100
AcDbCircle
 10
680.6499687185763
 20
-1149.17910772598
 30
0.0
 40
1.0
100
AcDbArc
 50
180.0
 51
-90.0
  0
ARC
  5
387
330
1F
100
AcDbEntity
  8
1
  6
Continuous
 62
     3
100
AcDbCircle
 10
716.6499687185763
 20
-1171.797472822438
 30
0.0
 40
5.0
100
AcDbArc
 50
180.0
 51
-160.0000000000041
  0
ARC
  5
388
330
1F
100
AcDbEntity
  8
1
  6
Continuous
 62
     3
100
AcDbCircle
 10
721.7024706264162
 20
-1185.67910772598
 30
0.0
 40
4.999999999999824
100
AcDbArc
 50
-160.0000000000041
 51
-90.0
  0
ARC
  5
389
330
1F
100
AcDbEntity
  8
1
  6
Continuous
 62
     3
100
AcDbCircle
 10
678.6893775135347
 20
-1182.67910772598
 30
0.0
 40
5.0
100
AcDbArc
 50
-90.0
 51
-19.99999999999592
  0
ARC
  5
38A
330
1F
100
AcDbEntity
  8
1
  6
Continuous
 62
     3
100
AcDbCircle
 10
682.6499687185763
 20
-1171.797472822438
 30
0.0
 40
4.999999999999824
100
AcDbArc
 50
-19.99999999999592
 51
0.0
  0
ARC
  5
38B
330
1F
100
AcDbEntity
  8
1
  6
Continuous
 62
     3
100
AcDbCircle
 10
716.6499687185763
 20
-1184.941559160548
 30
0.0
 40
5.0
100
AcDbArc
 50
180.0
 51
-105.1613686066111
  0
ARC
  5
38C
330
1F
100
AcDbEntity
  8
1
  6
Continuous
 62
     3
100
AcDbCircle
 10
682.6499687185763
 20
-1182.67910772598
 30
0.0
 40
5.0
100
AcDbArc
 50
-90.0
 51
0.0
  0
ARC
  5
38D
330
1F
100
AcDbEntity
  8
1
  6
Continuous
 62
     3
100
AcDbCircle
 10
719.1691900145195
 20
-1185.67910772598
 30
0.0
 40
5.000000000000222
100
AcDbArc
 50
-107.4753651465028
 51
-90.0
  0
ARC
  5
38E
330
1F
100
AcDbEntity
  8
1
  6
Continuous
 62
     3
100
AcDbCircle
 10
668.6499687185763
 20
-1246.67910772598
 30
0.0
 40
2.000000000000114
100
AcDbArc
 50
-112.0243128370409
 51
-90.0
  0
ARC
  5
38F
330
1F
100
AcDbEntity
  8
1
  6
Continuous
 62
     3
100
AcDbCircle
 10
718.6499687185763
 20
-1149.17910772598
 30
0.0
 40
1.0
100
AcDbArc
 50
-90.0
 51
0.0
  0
ARC
  5
390
330
1F
100
AcDbEntity
  8
1
  6
Continuous
 62
     3
100
AcDbCircle
 10
697.1499687185763
 20
-1173.67910772598
 30
0.0
 40
1.0
100
AcDbArc
 50
0.0
 51
90.0
  0
ARC
  5
391
330
1F
100
AcDbEntity
  8
1
  6
Continuous
 62
     3
100
AcDbCircle
 10
697.1499687185763
 20
-1186.67910772598
 30
0.0
 40
1.0
100
AcDbArc
 50
-90.0
 51
0.0
  0
ARC
  5
392
330
1F
100
AcDbEntity
  8
1
  6
Continuous
 62
     3
100
AcDbCircle
 10
702.1499687185763
 20
-1186.67910772598
 30
0.0
 40
1.0
100
AcDbArc
 50
180.0
 51
-90.0
  0
ARC
  5
393
330
1F
100
AcDbEntity
  8
1
  6
Continuous
 62
     3
100
AcDbCircle
 10
702.1499687185763
 20
-1173.67910772598
 30
0.0
 40
1.0
100
AcDbArc
 50
90.0
 51
180.0
  0
ARC
  5
394
330
1F
100
AcDbEntity
  8
1
  6
Continuous
 62
     3
100
AcDbCircle
 10
679.6499687185763
 20
-1148.17910772598
 30
0.0
 40
2.0
100
AcDbArc
 50
180.0
 51
-90.0
  0
ARC
  5
395
330
1F
100
AcDbEntity
  8
1
  6
Continuous
 62
     3
100
AcDbCircle
 10
682.6499687185763
 20
-1153.17910772598
 30
0.0
 40
3.0
100
AcDbArc
 50
0.0
 51
90.0
  0
ARC
  5
396
330
1F
100
AcDbEntity
  8
1
  6
Continuous
 62
     3
100
AcDbCircle
 10
685.6499687185763
 20
-1161.143209341118
 30
0.0
 40
2.0
100
AcDbArc
 50
0.0
 51
60.00000000000272
  0
ARC
  5
397
330
1F
100
AcDbEntity
  8
1
  6
Continuous
 62
     3
100
AcDbCircle
 10
687.6499687185763
 20
-1157.67910772598
 30
0.0
 40
2.0
100
AcDbArc
 50
180.0
 51
-119.9999999999973
  0
ARC
  5
398
330
1F
100
AcDbEntity
  8
1
  6
Continuous
 62
     3
100
AcDbCircle
 10
713.6499687185763
 20
-1161.143209341118
 30
0.0
 40
2.000000000000164
100
AcDbArc
 50
119.9999999999973
 51
180.0
  0
ARC
  5
399
330
1F
100
AcDbEntity
  8
1
  6
Continuous
 62
     3
100
AcDbCircle
 10
711.6499687185763
 20
-1157.67910772598
 30
0.0
 40
2.000000000000164
100
AcDbArc
 50
-60.00000000000272
 51
0.0
  0
ARC
  5
39A
330
1F
100
AcDbEntity
  8
1
  6
Continuous
 62
     3
100
AcDbCircle
 10
716.6499687185763
 20
-1153.17910772598
 30
0.0
 40
3.0
100
AcDbArc
 50
90.0
 51
180.0
  0
ARC
  5
39B
330
1F
100
AcDbEntity
  8
1
  6
Continuous
 62
     3
100
AcDbCircle
 10
732.1499687185763
 20
-1250.17910772598
 30
0.0
 40
2.0
100
AcDbArc
 50
90.0
 51
180.0
  0
ARC
  5
39C
330
1F
100
AcDbEntity
  8
1
  6
Continuous
 62
     3
100
AcDbCircle
 10
727.0781719488521
 20
-1185.67910772598
 30
0.0
 40
5.0
100
AcDbArc
 50
-90.00000000000522
 51
-59.99999999999881
  0
ARC
  5
39D
330
1F
100
AcDbEntity
  8
1
  6
Continuous
 62
     3
100
AcDbCircle
 10
502.6499687185768
 20
-1246.67910772598
 30
0.0
 40
2.000000000000114
100
AcDbArc
 50
-67.97568716295916
 51
-60.00000000001118
  0
ARC
  5
39E
330
1F
100
AcDbEntity
  8
1
  6
Continuous
 62
     3
100
AcDbCircle
 10
613.9738804872363
 20
-1238.240139366469
 30
0.0
 40
5.000000000000066
100
AcDbArc
 50
178.3621938840635
 51
-150.0000000000001
  0
ARC
  5
39F
330
1F
100
AcDbEntity
  8
1
  6
Continuous
 62
     3
100
AcDbCircle
 10
568.6499687185765
 20
-1187.084990644423
 30
0.0
 40
4.99999999999993
100
AcDbArc
 50
-26.60169481646218
 51
0.0
  0
ARC
  5
3A0
330
1F
100
AcDbEntity
  8
1
  6
Continuous
 62
     3
100
AcDbCircle
 10
568.6499687185765
 20
-1171.797472822437
 30
0.0
 40
5.000000000000213
100
AcDbArc
 50
-20.00000000000816
 51
0.0
  0
ARC
  5
3A1
330
1F
100
AcDbEntity
  8
1
  6
Continuous
 62
     3
100
AcDbCircle
 10
602.6499687185765
 20
-1171.797472822437
 30
0.0
 40
5.0
100
AcDbArc
 50
180.0
 51
-159.9999999999928
  0
ARC
  5
3A2
330
1F
100
AcDbEntity
  8
1
  6
Continuous
 62
     3
100
AcDbCircle
 10
568.6499687185765
 20
-1153.17910772598
 30
0.0
 40
3.0
100
AcDbArc
 50
0.0
 51
90.0
  0
ARC
  5
3A3
330
1F
100
AcDbEntity
  8
1
  6
Continuous
 62
     3
100
AcDbCircle
 10
573.6499687185765
 20
-1157.67910772598
 30
0.0
 40
2.0
100
AcDbArc
 50
180.0
 51
-119.9999999999973
  0
ARC
  5
3A4
330
1F
100
AcDbEntity
  8
1
  6
Continuous
 62
     3
100
AcDbCircle
 10
571.6499687185765
 20
-1161.143209341118
 30
0.0
 40
2.0
100
AcDbArc
 50
0.0
 51
60.00000000000272
  0
ARC
  5
3A5
330
1F
100
AcDbEntity
  8
1
  6
Continuous
 62
     3
100
AcDbCircle
 10
597.6499687185763
 20
-1157.67910772598
 30
0.0
 40
2.000000000000278
100
AcDbArc
 50
-59.99999999999707
 51
0.0
  0
ARC
  5
3A6
330
1F
100
AcDbEntity
  8
1
  6
Continuous
 62
     3
100
AcDbCircle
 10
599.6499687185763
 20
-1161.143209341118
 30
0.0
 40
2.00000000000005
100
AcDbArc
 50
119.9999999999916
 51
180.0
  0
ARC
  5
3A7
330
1F
100
AcDbEntity
  8
1
  6
Continuous
 62
     3
100
AcDbCircle
 10
602.6499687185763
 20
-1153.17910772598
 30
0.0
 40
3.0
100
AcDbArc
 50
89.99999999999567
 51
180.0
  0
ARC
  5
3A8
330
1F
100
AcDbEntity
  8
1
  6
Continuous
 62
     3
100
AcDbCircle
 10
566.6499687185765
 20
-1149.17910772598
 30
0.0
 40
1.0
100
AcDbArc
 50
180.0
 51
-90.0
  0
ARC
  5
3A9
330
1F
100
AcDbEntity
  8
1
  6
Continuous
 62
     3
100
AcDbCircle
 10
604.6499687185763
 20
-1149.17910772598
 30
0.0
 40
1.0
100
AcDbArc
 50
-89.99999999998697
 51
0.0
  0
ARC
  5
3AA
330
1F
100
AcDbEntity
  8
1
  6
Continuous
 62
     3
100
AcDbCircle
 10
583.1499687185765
 20
-1173.67910772598
 30
0.0
 40
1.0
100
AcDbArc
 50
0.0
 51
90.0
  0
ARC
  5
3AB
330
1F
100
AcDbEntity
  8
1
  6
Continuous
 62
     3
100
AcDbCircle
 10
583.1499687185765
 20
-1186.67910772598
 30
0.0
 40
0.9999999999999002
100
AcDbArc
 50
-33.04539406956669
 51
0.0
  0
ARC
  5
3AC
330
1F
100
AcDbEntity
  8
1
  6
Continuous
 62
     3
100
AcDbCircle
 10
588.1499687185763
 20
-1173.67910772598
 30
0.0
 40
1.0
100
AcDbArc
 50
90.0
 51
180.0
  0
ARC
  5
3AD
330
1F
100
AcDbEntity
  8
1
  6
Continuous
 62
     3
100
AcDbCircle
 10
588.1499687185763
 20
-1186.67910772598
 30
0.0
 40
0.9999999999997726
100
AcDbArc
 50
180.0
 51
-146.9546059304333
  0
ARC
  5
3AE
330
1F
100
AcDbEntity
  8
1
  6
Continuous
 62
     3
100
AcDbCircle
 10
492.649968718577
 20
-1059.395081951664
 30
0.0
 40
1.0
100
AcDbArc
 50
180.0
 51
-109.4712206344879
  0
ARC
  5
3AF
330
1F
100
AcDbEntity
  8
1
  6
Continuous
 62
     3
100
AcDbCircle
 10
492.649968718577
 20
-1065.051936201156
 30
0.0
 40
0.9999999999999105
100
AcDbArc
 50
109.4712206344879
 51
180.0
  0
ARC
  5
3B0
330
1F
100
AcDbEntity
  8
1
  6
Continuous
 62
     3
100
AcDbCircle
 10
485.649968718577
 20
-1048.22350907641
 30
0.0
 40
6.0
100
AcDbArc
 50
0.0
 51
147.4509890024933
  0
ARC
  5
3B1
330
1F
100
AcDbEntity
  8
1
  6
Continuous
 62
     3
100
AcDbCircle
 10
457.649968718577
 20
-1076.22350907641
 30
0.0
 40
6.0
100
AcDbArc
 50
180.0
 51
-90.0
  0
ARC
  5
3B2
330
1F
100
AcDbEntity
  8
1
  6
Continuous
 62
     3
100
AcDbCircle
 10
457.649968718577
 20
-1048.22350907641
 30
0.0
 40
5.999999999999995
100
AcDbArc
 50
32.54901099750615
 51
90.0
  0
ARC
  5
3B3
330
1F
100
AcDbEntity
  8
1
  6
Continuous
 62
     3
100
AcDbCircle
 10
485.649968718577
 20
-1076.22350907641
 30
0.0
 40
5.999999999999899
100
AcDbArc
 50
-147.4509890024933
 51
0.0
  0
ARC
  5
3B4
330
1F
100
AcDbEntity
  8
1
  6
Continuous
 62
     3
100
AcDbCircle
 10
457.649968718577
 20
-1076.22350907641
 30
0.0
 40
6.0
100
AcDbArc
 50
-90.0
 51
-32.54901099750673
  0
ARC
  5
3B5
330
1F
100
AcDbEntity
  8
1
  6
Continuous
 62
     3
100
AcDbCircle
 10
457.649968718577
 20
-1048.22350907641
 30
0.0
 40
6.0
100
AcDbArc
 50
90.0
 51
180.0
  0
ARC
  5
3B6
330
1F
100
AcDbEntity
  8
1
  6
Continuous
 62
     3
100
AcDbCircle
 10
602.6499687185765
 20
-1187.084990644423
 30
0.0
 40
5.0
100
AcDbArc
 50
180.0
 51
-153.3983051835384
  0
ARC
  5
3B7
330
1F
100
AcDbEntity
  8
1
  6
Continuous
 62
     3
100
AcDbCircle
 10
557.3260569499164
 20
-1238.240139366469
 30
0.0
 40
5.000000000000016
100
AcDbArc
 50
-29.99999999999989
 51
1.63780611593646
  0
TEXT
  5
3B9
330
1F
100
AcDbEntity
  8
1
 62
     1
100
AcDbText
 10
678.1056369004402
 20
-1220.20569881689
 30
0.0
 40
4.8
  1
VY5303A0041
 41
0.855
  7
CONVERTER_2
100
AcDbText
  0
ENDSEC
  0
SECTION
  2
OBJECTS
  0
DICTIONARY
  5
C
330
0
100
AcDbDictionary
281
     1
  3
ACAD_GROUP
350
D
  3
ACAD_LAYOUT
350
1A
  3
ACAD_MLINESTYLE
350
17
  3
ACAD_PLOTSETTINGS
350
19
  3
ACAD_PLOTSTYLENAME
350
E
  0
DICTIONARY
  5
D
102
{ACAD_REACTORS
330
C
102
}
330
C
100
AcDbDictionary
281
     1
  0
DICTIONARY
  5
1A
102
{ACAD_REACTORS
330
C
102
}
330
C
100
AcDbDictionary
281
     1
  3
Layout1
350
1E
  3
Layout2
350
26
  3
Model
350
22
  0
DICTIONARY
  5
17
102
{ACAD_REACTORS
330
C
102
}
330
C
100
AcDbDictionary
281
     1
  3
Standard
350
18
  0
DICTIONARY
  5
19
102
{ACAD_REACTORS
330
C
102
}
330
C
100
AcDbDictionary
281
     1
  0
ACDBDICTIONARYWDFLT
  5
E
102
{ACAD_REACTORS
330
C
102
}
330
C
100
AcDbDictionary
281
     1
  3
Normal
350
F
100
AcDbDictionaryWithDefault
340
F
  0
LAYOUT
  5
1E
102
{ACAD_REACTORS
330
1A
102
}
330
1A
100
AcDbPlotSettings
  1

  2

  4

  6

 40
0.0
 41
0.0
 42
0.0
 43
0.0
 44
0.0
 45
0.0
 46
0.0
 47
0.0
 48
0.0
 49
0.0
140
0.0
141
0.0
142
1.0
143
1.0
 70
   688
 72
     0
 73
     0
 74
     5
  7

 75
    16
147
1.0
148
0.0
149
0.0
100
AcDbLayout
  1
Layout1
 70
     1
 71
     1
 10
0.0
 20
0.0
 11
0.0
 21
0.0
 12
0.0
 22
0.0
 32
0.0
 14
0.0
 24
0.0
 34
0.0
 15
0.0
 25
0.0
 35
0.0
146
0.0
 13
0.0
 23
0.0
 33
0.0
 16
1.0
 26
0.0
 36
0.0
 17
0.0
 27
1.0
 37
0.0
 76
     0
330
1B
  0
LAYOUT
  5
26
102
{ACAD_REACTORS
330
1A
102
}
330
1A
100
AcDbPlotSettings
  1

  2

  4

  6

 40
0.0
 41
0.0
 42
0.0
 43
0.0
 44
0.0
 45
0.0
 46
0.0
 47
0.0
 48
0.0
 49
0.0
140
0.0
141
0.0
142
1.0
143
1.0
 70
   688
 72
     0
 73
     0
 74
     5
  7

 75
    16
147
1.0
148
0.0
149
0.0
100
AcDbLayout
  1
Layout2
 70
     1
 71
     2
 10
0.0
 20
0.0
 11
0.0
 21
0.0
 12
0.0
 22
0.0
 32
0.0
 14
0.0
 24
0.0
 34
0.0
 15
0.0
 25
0.0
 35
0.0
146
0.0
 13
0.0
 23
0.0
 33
0.0
 16
1.0
 26
0.0
 36
0.0
 17
0.0
 27
1.0
 37
0.0
 76
     0
330
23
  0
LAYOUT
  5
22
102
{ACAD_REACTORS
330
1A
102
}
330
1A
100
AcDbPlotSettings
  1

  2

  4

  6

 40
0.0
 41
0.0
 42
0.0
 43
0.0
 44
0.0
 45
0.0
 46
0.0
 47
0.0
 48
0.0
 49
0.0
140
0.0
141
0.0
142
1.0
143
1.0
 70
  1712
 72
     0
 73
     0
 74
     0
  7

 75
     0
147
1.0
148
0.0
149
0.0
100
AcDbLayout
  1
Model
 70
     1
 71
     0
 10
0.0
 20
0.0
 11
0.0
 21
0.0
 12
0.0
 22
0.0
 32
0.0
 14
310.507384558913
 24
-1272.67910772598
 34
0.0
 15
758.6499687185763
 25
-1029.132282148272
 35
0.0
146
0.0
 13
0.0
 23
0.0
 33
0.0
 16
1.0
 26
0.0
 36
0.0
 17
0.0
 27
1.0
 37
0.0
 76
     0
330
1F
  0
MLINESTYLE
  5
18
102
{ACAD_REACTORS
330
17
102
}
330
17
100
AcDbMlineStyle
  2
Standard
 70
     0
  3

 62
   256
 51
90.0
 52
90.0
 71
     2
 49
0.5
 62
   256
  6
BYLAYER
 49
-0.5
 62
   256
  6
BYLAYER
  0
ACDBPLACEHOLDER
  5
F
102
{ACAD_REACTORS
330
E
102
}
330
E
  0
ENDSEC
  0
EOF
