  0
SECTION
  2
HEADER
  9
$ACADVER
  1
AC1015
  9
$ACADMAINTVER
 70
     6
  9
$DWGCODEPAGE
  3
ANSI_1252
  9
$INSBASE
 10
0.0
 20
0.0
 30
0.0
  9
$EXTMIN
 10
599.9477732995447
 20
-408.4437277987026
 30
0.0
  9
$EXTMAX
 10
1071.188143717352
 20
-134.282001261038
 30
0.0
  9
$LIMMIN
 10
0.0
 20
0.0
  9
$LIMMAX
 10
12.0
 20
9.0
  9
$ORTHOMODE
 70
     0
  9
$REGENMODE
 70
     1
  9
$FILLMODE
 70
     1
  9
$QTEXTMODE
 70
     0
  9
$MIRRTEXT
 70
     1
  9
$LTSCALE
 40
1.0
  9
$ATTMODE
 70
     1
  9
$TEXTSIZE
 40
0.2
  9
$TRACEWID
 40
0.05
  9
$TEXTSTYLE
  7
Standard
  9
$CLAYER
  8
0
  9
$CELTYPE
  6
ByLayer
  9
$CECOLOR
 62
   256
  9
$CELTSCALE
 40
1.0
  9
$DISPSILH
 70
     0
  9
$DIMSCALE
 40
1.0
  9
$DIMASZ
 40
0.18
  9
$DIMEXO
 40
0.0625
  9
$DIMDLI
 40
0.38
  9
$DIMRND
 40
0.0
  9
$DIMDLE
 40
0.0
  9
$DIMEXE
 40
0.18
  9
$DIMTP
 40
0.0
  9
$DIMTM
 40
0.0
  9
$DIMTXT
 40
0.18
  9
$DIMCEN
 40
0.09
  9
$DIMTSZ
 40
0.0
  9
$DIMTOL
 70
     0
  9
$DIMLIM
 70
     0
  9
$DIMTIH
 70
     1
  9
$DIMTOH
 70
     1
  9
$DIMSE1
 70
     0
  9
$DIMSE2
 70
     0
  9
$DIMTAD
 70
     0
  9
$DIMZIN
 70
     0
  9
$DIMBLK
  1

  9
$DIMASO
 70
     1
  9
$DIMSHO
 70
     1
  9
$DIMPOST
  1

  9
$DIMAPOST
  1

  9
$DIMALT
 70
     0
  9
$DIMALTD
 70
     2
  9
$DIMALTF
 40
25.4
  9
$DIMLFAC
 40
1.0
  9
$DIMTOFL
 70
     0
  9
$DIMTVP
 40
0.0
  9
$DIMTIX
 70
     0
  9
$DIMSOXD
 70
     0
  9
$DIMSAH
 70
     0
  9
$DIMBLK1
  1

  9
$DIMBLK2
  1

  9
$DIMSTYLE
  2
Standard
  9
$DIMCLRD
 70
     0
  9
$DIMCLRE
 70
     0
  9
$DIMCLRT
 70
     0
  9
$DIMTFAC
 40
1.0
  9
$DIMGAP
 40
0.09
  9
$DIMJUST
 70
     0
  9
$DIMSD1
 70
     0
  9
$DIMSD2
 70
     0
  9
$DIMTOLJ
 70
     1
  9
$DIMTZIN
 70
     0
  9
$DIMALTZ
 70
     0
  9
$DIMALTTZ
 70
     0
  9
$DIMUPT
 70
     0
  9
$DIMDEC
 70
     4
  9
$DIMTDEC
 70
     4
  9
$DIMALTU
 70
     2
  9
$DIMALTTD
 70
     2
  9
$DIMTXSTY
  7
Standard
  9
$DIMAUNIT
 70
     0
  9
$DIMADEC
 70
     0
  9
$DIMALTRND
 40
0.0
  9
$DIMAZIN
 70
     0
  9
$DIMDSEP
 70
    46
  9
$DIMATFIT
 70
     3
  9
$DIMFRAC
 70
     0
  9
$DIMLDRBLK
  1

  9
$DIMLUNIT
 70
     2
  9
$DIMLWD
 70
    -2
  9
$DIMLWE
 70
    -2
  9
$DIMTMOVE
 70
     0
  9
$LUNITS
 70
     2
  9
$LUPREC
 70
     4
  9
$SKETCHINC
 40
0.1
  9
$FILLETRAD
 40
0.5
  9
$AUNITS
 70
     0
  9
$AUPREC
 70
     0
  9
$MENU
  1
.
  9
$ELEVATION
 40
0.0
  9
$PELEVATION
 40
0.0
  9
$THICKNESS
 40
0.0
  9
$LIMCHECK
 70
     0
  9
$CHAMFERA
 40
0.5
  9
$CHAMFERB
 40
0.5
  9
$CHAMFERC
 40
1.0
  9
$CHAMFERD
 40
0.0
  9
$SKPOLY
 70
     0
  9
$TDCREATE
 40
2455035.624092153
  9
$TDUCREATE
 40
2455035.249092153
  9
$TDUPDATE
 40
2455035.624092164
  9
$TDUUPDATE
 40
2455035.249092164
  9
$TDINDWG
 40
0.0000000116
  9
$TDUSRTIMER
 40
0.0000000116
  9
$USRTIMER
 70
     1
  9
$ANGBASE
 50
0.0
  9
$ANGDIR
 70
     0
  9
$PDMODE
 70
     0
  9
$PDSIZE
 40
0.0
  9
$PLINEWID
 40
0.0
  9
$SPLFRAME
 70
     0
  9
$SPLINETYPE
 70
     6
  9
$SPLINESEGS
 70
     8
  9
$HANDSEED
  5
5D7
  9
$SURFTAB1
 70
     6
  9
$SURFTAB2
 70
     6
  9
$SURFTYPE
 70
     6
  9
$SURFU
 70
     6
  9
$SURFV
 70
     6
  9
$UCSBASE
  2

  9
$UCSNAME
  2

  9
$UCSORG
 10
0.0
 20
0.0
 30
0.0
  9
$UCSXDIR
 10
1.0
 20
0.0
 30
0.0
  9
$UCSYDIR
 10
0.0
 20
1.0
 30
0.0
  9
$UCSORTHOREF
  2

  9
$UCSORTHOVIEW
 70
     0
  9
$UCSORGTOP
 10
0.0
 20
0.0
 30
0.0
  9
$UCSORGBOTTOM
 10
0.0
 20
0.0
 30
0.0
  9
$UCSORGLEFT
 10
0.0
 20
0.0
 30
0.0
  9
$UCSORGRIGHT
 10
0.0
 20
0.0
 30
0.0
  9
$UCSORGFRONT
 10
0.0
 20
0.0
 30
0.0
  9
$UCSORGBACK
 10
0.0
 20
0.0
 30
0.0
  9
$PUCSBASE
  2

  9
$PUCSNAME
  2

  9
$PUCSORG
 10
0.0
 20
0.0
 30
0.0
  9
$PUCSXDIR
 10
1.0
 20
0.0
 30
0.0
  9
$PUCSYDIR
 10
0.0
 20
1.0
 30
0.0
  9
$PUCSORTHOREF
  2

  9
$PUCSORTHOVIEW
 70
     0
  9
$PUCSORGTOP
 10
0.0
 20
0.0
 30
0.0
  9
$PUCSORGBOTTOM
 10
0.0
 20
0.0
 30
0.0
  9
$PUCSORGLEFT
 10
0.0
 20
0.0
 30
0.0
  9
$PUCSORGRIGHT
 10
0.0
 20
0.0
 30
0.0
  9
$PUCSORGFRONT
 10
0.0
 20
0.0
 30
0.0
  9
$PUCSORGBACK
 10
0.0
 20
0.0
 30
0.0
  9
$USERI1
 70
     0
  9
$USERI2
 70
     0
  9
$USERI3
 70
     0
  9
$USERI4
 70
     0
  9
$USERI5
 70
     0
  9
$USERR1
 40
14.0
  9
$USERR2
 40
0.0
  9
$USERR3
 40
0.0
  9
$USERR4
 40
0.0
  9
$USERR5
 40
0.0
  9
$WORLDVIEW
 70
     1
  9
$SHADEDGE
 70
     3
  9
$SHADEDIF
 70
    70
  9
$TILEMODE
 70
     1
  9
$MAXACTVP
 70
    64
  9
$PINSBASE
 10
0.0
 20
0.0
 30
0.0
  9
$PLIMCHECK
 70
     0
  9
$PEXTMIN
 10
1.00000000000000E+20
 20
1.00000000000000E+20
 30
1.00000000000000E+20
  9
$PEXTMAX
 10
-1.00000000000000E+20
 20
-1.00000000000000E+20
 30
-1.00000000000000E+20
  9
$PLIMMIN
 10
0.0
 20
0.0
  9
$PLIMMAX
 10
12.0
 20
9.0
  9
$UNITMODE
 70
     0
  9
$VISRETAIN
 70
     1
  9
$PLINEGEN
 70
     0
  9
$PSLTSCALE
 70
     1
  9
$TREEDEPTH
 70
  3020
  9
$CMLSTYLE
  2
Standard
  9
$CMLJUST
 70
     0
  9
$CMLSCALE
 40
1.0
  9
$PROXYGRAPHICS
 70
     1
  9
$MEASUREMENT
 70
     1
  9
$CELWEIGHT
370
    -1
  9
$ENDCAPS
280
     0
  9
$JOINSTYLE
280
     0
  9
$LWDISPLAY
290
     0
  9
$INSUNITS
 70
     1
  9
$HYPERLINKBASE
  1

  9
$STYLESHEET
  1

  9
$XEDIT
290
     1
  9
$CEPSNTYPE
380
     0
  9
$PSTYLEMODE
290
     1
  9
$FINGERPRINTGUID
  2
{0E852FFD-3A80-4F4A-B067-6830FC524B5A}
  9
$VERSIONGUID
  2
{FAEB1C32-E019-11D5-929B-00C0DF256EC4}
  9
$EXTNAMES
290
     1
  9
$PSVPSCALE
 40
0.0
  9
$OLESTARTUP
290
     0
  0
ENDSEC
  0
SECTION
  2
CLASSES
  0
CLASS
  1
ACDBDICTIONARYWDFLT
  2
AcDbDictionaryWithDefault
  3
ObjectDBX Classes
 90
        0
280
     0
281
     0
  0
CLASS
  1

  2
exOdDbCircle
  3

 90
        0
280
     0
281
     1
  0
CLASS
  1

  2
exOdDbSpline
  3

 90
        0
280
     0
281
     1
  0
CLASS
  1
ACDBPLACEHOLDER
  2
AcDbPlaceHolder
  3
ObjectDBX Classes
 90
        0
280
     0
281
     0
  0
CLASS
  1
LAYOUT
  2
AcDbLayout
  3
ObjectDBX Classes
 90
        0
280
     0
281
     0
  0
ENDSEC
  0
SECTION
  2
TABLES
  0
TABLE
  2
VPORT
  5
8
330
0
100
AcDbSymbolTable
 70
     1
  0
VPORT
  5
29
330
8
100
AcDbSymbolTableRecord
100
AcDbViewportTableRecord
  2
*Active
 70
     0
 10
0.0
 20
0.0
 11
1.0
 21
1.0
 12
835.5679585084483
 22
-271.3628645298703
 13
0.0
 23
0.0
 14
0.5
 24
0.5
 15
0.5
 25
0.5
 16
0.0
 26
0.0
 36
1.0
 17
0.0
 27
0.0
 37
0.0
 40
323.4362876628072
 41
1.60267857142857
 42
50.0
 43
0.0
 44
0.0
 50
0.0
 51
0.0
 71
     0
 72
   100
 73
     1
 74
     3
 75
     0
 76
     0
 77
     0
 78
     0
281
     0
 65
     1
110
0.0
120
0.0
130
0.0
111
1.0
121
0.0
131
0.0
112
0.0
122
1.0
132
0.0
 79
     0
146
0.0
  0
ENDTAB
  0
TABLE
  2
LTYPE
  5
5
330
0
100
AcDbSymbolTable
 70
     8
  0
LTYPE
  5
14
330
5
100
AcDbSymbolTableRecord
100
AcDbLinetypeTableRecord
  2
ByBlock
 70
     0
  3

 72
    65
 73
     0
 40
0.0
  0
LTYPE
  5
15
330
5
100
AcDbSymbolTableRecord
100
AcDbLinetypeTableRecord
  2
ByLayer
 70
     0
  3

 72
    65
 73
     0
 40
0.0
  0
LTYPE
  5
16
330
5
100
AcDbSymbolTableRecord
100
AcDbLinetypeTableRecord
  2
Continuous
 70
     0
  3
Solid line
 72
    65
 73
     0
 40
0.0
  0
LTYPE
  5
2A
330
5
100
AcDbSymbolTableRecord
100
AcDbLinetypeTableRecord
  2
DASHED
 70
     0
  3
Dashed
 72
    65
 73
     2
 40
15.0
 49
7.0
 74
     0
 49
-8.0
 74
     0
  0
LTYPE
  5
2B
330
5
100
AcDbSymbolTableRecord
100
AcDbLinetypeTableRecord
  2
DOTTED
 70
     0
  3
Dotted
 72
    65
 73
     2
 40
1.0
 49
0.0
 74
     0
 49
-1.0
 74
     0
  0
LTYPE
  5
2C
330
5
100
AcDbSymbolTableRecord
100
AcDbLinetypeTableRecord
  2
DOT_CENTER
 70
     0
  3
Dot_Center
 72
    65
 73
     4
 40
14.0
 49
12.0
 74
     0
 49
-1.0
 74
     0
 49
0.0
 74
     0
 49
-1.0
 74
     0
  0
LTYPE
  5
2D
330
5
100
AcDbSymbolTableRecord
100
AcDbLinetypeTableRecord
  2
LONG_DASHED
 70
     0
  3
Long_Dashed
 72
    65
 73
     2
 40
15.0
 49
10.0
 74
     0
 49
-5.0
 74
     0
  0
LTYPE
  5
2E
330
5
100
AcDbSymbolTableRecord
100
AcDbLinetypeTableRecord
  2
DASH_CENTER
 70
     0
  3
Dash_Center
 72
    65
 73
     4
 40
14.0
 49
11.0
 74
     0
 49
-1.0
 74
     0
 49
1.0
 74
     0
 49
-1.0
 74
     0
  0
LTYPE
  5
2F
330
5
100
AcDbSymbolTableRecord
100
AcDbLinetypeTableRecord
  2
PHANTOM
 70
     0
  3
Phantom
 72
    65
 73
     6
 40
13.0
 49
10.0
 74
     0
 49
-1.0
 74
     0
 49
0.0
 74
     0
 49
-1.0
 74
     0
 49
0.0
 74
     0
 49
-1.0
 74
     0
  0
LTYPE
  5
30
330
5
100
AcDbSymbolTableRecord
100
AcDbLinetypeTableRecord
  2
CENTER_DASH_DASH
 70
     0
  3
Center_Dash_Dash
 72
    65
 73
     6
 40
14.0
 49
9.0
 74
     0
 49
-1.0
 74
     0
 49
1.0
 74
     0
 49
-1.0
 74
     0
 49
1.0
 74
     0
 49
-1.0
 74
     0
  0
ENDTAB
  0
TABLE
  2
LAYER
  5
2
330
0
100
AcDbSymbolTable
 70
     2
  0
LAYER
  5
10
330
2
100
AcDbSymbolTableRecord
100
AcDbLayerTableRecord
  2
0
 70
     0
 62
     7
  6
Continuous
370
    -3
390
F
  0
LAYER
  5
31
330
2
100
AcDbSymbolTableRecord
100
AcDbLayerTableRecord
  2
1
 70
     0
 62
     7
  6
Continuous
370
    -3
390
F
  0
ENDTAB
  0
TABLE
  2
STYLE
  5
3
330
0
100
AcDbSymbolTable
 70
     4
  0
STYLE
  5
11
330
3
100
AcDbSymbolTableRecord
100
AcDbTextStyleTableRecord
  2
Standard
 70
     0
 40
0.0
 41
1.0
 50
0.0
 71
     0
 42
0.2
  3
txt
  4

  0
STYLE
  5
1A2
330
3
100
AcDbSymbolTableRecord
100
AcDbTextStyleTableRecord
  2
CONVERTER_1
 70
     0
 40
0.0
 41
1.045
 50
0.0
 71
     0
 42
0.2
  3
complex.shx
  4

  0
STYLE
  5
2F3
330
3
100
AcDbSymbolTableRecord
100
AcDbTextStyleTableRecord
  2
CONVERTER_2
 70
     0
 40
0.0
 41
0.9
 50
0.0
 71
     0
 42
0.2
  3
txt.shx
  4

  0
STYLE
  5
5D5
330
3
100
AcDbSymbolTableRecord
100
AcDbTextStyleTableRecord
  2
CONVERTER_3
 70
     0
 40
0.0
 41
1.08
 50
0.0
 71
     0
 42
0.2
  3
txt.shx
  4

  0
ENDTAB
  0
TABLE
  2
VIEW
  5
6
330
0
100
AcDbSymbolTable
 70
     0
  0
ENDTAB
  0
TABLE
  2
UCS
  5
7
330
0
100
AcDbSymbolTable
 70
     0
  0
ENDTAB
  0
TABLE
  2
APPID
  5
9
330
0
100
AcDbSymbolTable
 70
     1
  0
APPID
  5
12
330
9
100
AcDbSymbolTableRecord
100
AcDbRegAppTableRecord
  2
ACAD
 70
     0
  0
ENDTAB
  0
TABLE
  2
DIMSTYLE
  5
A
330
0
100
AcDbSymbolTable
 70
     1
100
AcDbDimStyleTable
  0
DIMSTYLE
105
27
330
A
100
AcDbSymbolTableRecord
100
AcDbDimStyleTableRecord
  2
Standard
 70
     0
340
11
  0
ENDTAB
  0
TABLE
  2
BLOCK_RECORD
  5
1
330
0
100
AcDbSymbolTable
 70
    12
  0
BLOCK_RECORD
  5
1F
330
1
100
AcDbSymbolTableRecord
100
AcDbBlockTableRecord
  2
*Model_Space
340
22
  0
BLOCK_RECORD
  5
1B
330
1
100
AcDbSymbolTableRecord
100
AcDbBlockTableRecord
  2
*Paper_Space
340
1E
  0
BLOCK_RECORD
  5
23
330
1
100
AcDbSymbolTableRecord
100
AcDbBlockTableRecord
  2
*Paper_Space0
340
26
  0
BLOCK_RECORD
  5
32
330
1
100
AcDbSymbolTableRecord
100
AcDbBlockTableRecord
  2
1
340
0
102
{BLKREFS
331
5A
102
}
  0
BLOCK_RECORD
  5
35
330
1
100
AcDbSymbolTableRecord
100
AcDbBlockTableRecord
  2
7
340
0
102
{BLKREFS
331
5B
102
}
  0
BLOCK_RECORD
  5
38
330
1
100
AcDbSymbolTableRecord
100
AcDbBlockTableRecord
  2
3
340
0
102
{BLKREFS
331
5C
102
}
  0
BLOCK_RECORD
  5
3B
330
1
100
AcDbSymbolTableRecord
100
AcDbBlockTableRecord
  2
2-2
340
0
102
{BLKREFS
331
51
102
}
  0
BLOCK_RECORD
  5
3E
330
1
100
AcDbSymbolTableRecord
100
AcDbBlockTableRecord
  2
2-8
340
0
102
{BLKREFS
331
52
102
}
  0
BLOCK_RECORD
  5
41
330
1
100
AcDbSymbolTableRecord
100
AcDbBlockTableRecord
  2
2-7
340
0
102
{BLKREFS
331
53
102
}
  0
BLOCK_RECORD
  5
44
330
1
100
AcDbSymbolTableRecord
100
AcDbBlockTableRecord
  2
2-5
340
0
102
{BLKREFS
331
54
102
}
  0
BLOCK_RECORD
  5
47
330
1
100
AcDbSymbolTableRecord
100
AcDbBlockTableRecord
  2
2-1
340
0
102
{BLKREFS
331
55
102
}
  0
BLOCK_RECORD
  5
4A
330
1
100
AcDbSymbolTableRecord
100
AcDbBlockTableRecord
  2
2-6
340
0
102
{BLKREFS
331
56
102
}
  0
BLOCK_RECORD
  5
4D
330
1
100
AcDbSymbolTableRecord
100
AcDbBlockTableRecord
  2
2-4
340
0
102
{BLKREFS
331
57
102
}
  0
BLOCK_RECORD
  5
50
330
1
100
AcDbSymbolTableRecord
100
AcDbBlockTableRecord
  2
2
340
0
102
{BLKREFS
331
5D
102
}
  0
ENDTAB
  0
ENDSEC
  0
SECTION
  2
BLOCKS
  0
BLOCK
  5
20
330
1F
100
AcDbEntity
  8
0
100
AcDbBlockBegin
  2
*Model_Space
 70
     0
 71
     0
 10
0.0
 20
0.0
 30
0.0
  3
*Model_Space
  1

  0
ENDBLK
  5
21
330
1F
100
AcDbEntity
  8
0
100
AcDbBlockEnd
  0
BLOCK
  5
1C
330
1B
100
AcDbEntity
 67
     1
  8
0
100
AcDbBlockBegin
  2
*Paper_Space
 70
     0
 71
     0
 10
0.0
 20
0.0
 30
0.0
  3
*Paper_Space
  1

  0
ENDBLK
  5
1D
330
1B
100
AcDbEntity
 67
     1
  8
0
100
AcDbBlockEnd
  0
BLOCK
  5
24
330
23
100
AcDbEntity
  8
0
100
AcDbBlockBegin
  2
*Paper_Space0
 70
     0
 71
     0
 10
0.0
 20
0.0
 30
0.0
  3
*Paper_Space0
  1

  0
ENDBLK
  5
25
330
23
100
AcDbEntity
  8
0
100
AcDbBlockEnd
  0
BLOCK
  5
33
330
32
100
AcDbEntity
  8
0
100
AcDbBlockBegin
  2
1
 70
     0
 71
     0
 10
612.9477732995447
 20
-408.4437277987026
 30
0.0
  3
1
  1

  0
LINE
  5
5E
330
32
100
AcDbEntity
  8
1
  6
DASHED
 62
     2
100
AcDbLine
 10
806.9421609385545
 20
-157.1402324541395
 30
0.0
 11
815.3421609381385
 21
-157.1402324541395
 31
0.0
  0
LINE
  5
5F
330
32
100
AcDbEntity
  8
1
  6
DASHED
 62
     2
100
AcDbLine
 10
815.3421609381385
 20
-192.1402324541395
 30
0.0
 11
806.9421609385545
 21
-192.1402324541395
 31
0.0
  0
LINE
  5
60
330
32
100
AcDbEntity
  8
1
  6
Continuous
 62
     3
100
AcDbLine
 10
815.3421609381385
 20
-169.9511215865948
 30
0.0
 11
818.4421609385545
 21
-169.9511215865948
 31
0.0
  0
LINE
  5
61
330
32
100
AcDbEntity
  8
1
  6
Continuous
 62
     3
100
AcDbLine
 10
815.3421609381385
 20
-157.1402324541395
 30
0.0
 11
818.4421609385545
 21
-157.1402324541395
 31
0.0
  0
LINE
  5
62
330
32
100
AcDbEntity
  8
1
  6
DASHED
 62
     2
100
AcDbLine
 10
780.5172294442423
 20
-159.8902222516763
 30
0.0
 11
794.5396700144697
 21
-159.8902222516763
 31
0.0
  0
LINE
  5
63
330
32
100
AcDbEntity
  8
1
  6
DASHED
 62
     2
100
AcDbLine
 10
794.5396700144697
 20
-189.3902222516763
 30
0.0
 11
780.5172294442423
 21
-189.3902222516763
 31
0.0
  0
LINE
  5
64
330
32
100
AcDbEntity
  8
1
  6
DASH_CENTER
 62
     1
100
AcDbLine
 10
784.8421609385546
 20
-134.282001261038
 30
0.0
 11
784.8421609385546
 21
-213.716716452767
 31
0.0
  0
LINE
  5
65
330
32
100
AcDbEntity
  8
1
  6
DASHED
 62
     2
100
AcDbLine
 10
794.5396700144697
 20
-189.3902222516763
 30
0.0
 11
780.5172294442423
 21
-189.3902222516763
 31
0.0
  0
LINE
  5
66
330
32
100
AcDbEntity
  8
1
  6
DASHED
 62
     2
100
AcDbLine
 10
752.4421609385545
 20
-157.1402324541395
 30
0.0
 11
763.3648106693649
 21
-157.1402324541395
 31
0.0
  0
LINE
  5
67
330
32
100
AcDbEntity
  8
1
  6
DASHED
 62
     2
100
AcDbLine
 10
752.4421609385545
 20
-192.1402324541395
 30
0.0
 11
763.3648106693649
 21
-192.1402324541395
 31
0.0
  0
LINE
  5
68
330
32
100
AcDbEntity
  8
1
  6
DASHED
 62
     2
100
AcDbLine
 10
763.9421609385545
 20
-158.1402324541395
 30
0.0
 11
763.3648106693649
 21
-157.1402324541395
 31
0.0
  0
LINE
  5
69
330
32
100
AcDbEntity
  8
1
  6
DASHED
 62
     2
100
AcDbLine
 10
752.4421609385545
 20
-192.1402324541395
 30
0.0
 11
751.4421609385545
 21
-191.1402324541395
 31
0.0
  0
LINE
  5
6A
330
32
100
AcDbEntity
  8
1
  6
DASHED
 62
     2
100
AcDbLine
 10
751.4421609385545
 20
-158.1402324541395
 30
0.0
 11
751.4421609385545
 21
-191.1402324541395
 31
0.0
  0
LINE
  5
6B
330
32
100
AcDbEntity
  8
1
  6
DASHED
 62
     2
100
AcDbLine
 10
763.3648106693649
 20
-192.1402324541395
 30
0.0
 11
763.9421609385545
 21
-191.1402324541395
 31
0.0
  0
LINE
  5
6C
330
32
100
AcDbEntity
  8
1
  6
DASHED
 62
     2
100
AcDbLine
 10
751.4421609385545
 20
-158.1402324541395
 30
0.0
 11
752.4421609385545
 21
-157.1402324541395
 31
0.0
  0
LINE
  5
6D
330
32
100
AcDbEntity
  8
1
  6
DASHED
 62
     2
100
AcDbLine
 10
771.9421609385545
 20
-158.1402324541395
 30
0.0
 11
763.9421609385545
 21
-158.1402324541395
 31
0.0
  0
LINE
  5
6E
330
32
100
AcDbEntity
  8
1
  6
DASHED
 62
     2
100
AcDbLine
 10
763.9421609385545
 20
-191.1402324541395
 30
0.0
 11
771.9421609385545
 21
-191.1402324541395
 31
0.0
  0
LINE
  5
6F
330
32
100
AcDbEntity
  8
1
  6
DASHED
 62
     2
100
AcDbLine
 10
795.4746640684421
 20
-189.4927521949986
 30
0.0
 11
806.9421609385545
 21
-192.1402324541395
 31
0.0
  0
LINE
  5
70
330
32
100
AcDbEntity
  8
1
  6
DASHED
 62
     2
100
AcDbLine
 10
806.9421609385545
 20
-157.1402324541395
 30
0.0
 11
795.4746640684421
 21
-159.7877127132804
 31
0.0
  0
LINE
  5
71
330
32
100
AcDbEntity
  8
1
  6
Continuous
 62
     3
100
AcDbLine
 10
819.4421609385545
 20
-158.1402324541395
 30
0.0
 11
819.4421609385545
 21
-191.1402324541395
 31
0.0
  0
LINE
  5
72
330
32
100
AcDbEntity
  8
1
  6
Continuous
 62
     3
100
AcDbLine
 10
818.4421609385545
 20
-157.1402324541395
 30
0.0
 11
819.4421609385545
 21
-158.1402324541395
 31
0.0
  0
LINE
  5
73
330
32
100
AcDbEntity
  8
1
  6
Continuous
 62
     3
100
AcDbLine
 10
818.4421609385545
 20
-192.1402324541395
 30
0.0
 11
819.4421609385545
 21
-191.1402324541395
 31
0.0
  0
LINE
  5
74
330
32
100
AcDbEntity
  8
1
  6
Continuous
 62
     3
100
AcDbLine
 10
818.4421609385545
 20
-192.1402324541395
 30
0.0
 11
815.3421609381385
 21
-192.1402324541395
 31
0.0
  0
LINE
  5
75
330
32
100
AcDbEntity
  8
1
  6
Continuous
 62
     3
100
AcDbLine
 10
818.4421609385545
 20
-157.1402324541395
 30
0.0
 11
818.4421609385545
 21
-169.9511215865948
 31
0.0
  0
LINE
  5
76
330
32
100
AcDbEntity
  8
1
  6
Continuous
 62
     3
100
AcDbLine
 10
818.4421609385545
 20
-169.9511215865948
 30
0.0
 11
818.4421609385545
 21
-179.3293433216841
 31
0.0
  0
LINE
  5
77
330
32
100
AcDbEntity
  8
1
  6
Continuous
 62
     3
100
AcDbLine
 10
818.4421609385545
 20
-179.3293433216841
 30
0.0
 11
815.3421609381385
 21
-179.3293433216841
 31
0.0
  0
LINE
  5
78
330
32
100
AcDbEntity
  8
1
  6
Continuous
 62
     3
100
AcDbLine
 10
818.4421609385545
 20
-179.3293433216841
 30
0.0
 11
818.4421609385545
 21
-192.1402324541395
 31
0.0
  0
LINE
  5
79
330
32
100
AcDbEntity
  8
1
  6
Continuous
 62
     3
100
AcDbLine
 10
818.4421609385545
 20
-169.9511215865948
 30
0.0
 11
819.4421609385545
 21
-170.9511215865948
 31
0.0
  0
LINE
  5
7A
330
32
100
AcDbEntity
  8
1
  6
Continuous
 62
     3
100
AcDbLine
 10
818.4421609385545
 20
-179.3293433216841
 30
0.0
 11
819.4421609385545
 21
-178.3293433216841
 31
0.0
  0
LINE
  5
7B
330
32
100
AcDbEntity
  8
1
  6
CENTER_DASH_DASH
 62
     1
100
AcDbLine
 10
618.9477732995451
 20
-332.5738364959997
 30
0.0
 11
618.9477732995451
 21
-341.2278908744388
 31
0.0
  0
LINE
  5
7C
330
32
100
AcDbEntity
  8
1
  6
CENTER_DASH_DASH
 62
     1
100
AcDbLine
 10
654.9477732995451
 20
-332.5738364959997
 30
0.0
 11
654.9477732995451
 21
-341.2278908744388
 31
0.0
  0
LINE
  5
7D
330
32
100
AcDbEntity
  8
1
  6
Continuous
 62
     3
100
AcDbLine
 10
613.0335597371718
 20
-334.6356172206779
 30
0.0
 11
660.861986861918
 21
-334.6356172206778
 31
0.0
  0
LINE
  5
7E
330
32
100
AcDbEntity
  8
1
  6
Continuous
 62
     3
100
AcDbLine
 10
643.9477732995447
 20
-346.5516970037775
 30
0.0
 11
643.9477732995447
 21
-361.6356172206779
 31
0.0
  0
LINE
  5
7F
330
32
100
AcDbEntity
  8
1
  6
Continuous
 62
     3
100
AcDbLine
 10
629.9477732995447
 20
-346.5516970037775
 30
0.0
 11
629.9477732995447
 21
-361.6356172206779
 31
0.0
  0
LINE
  5
80
330
32
100
AcDbEntity
  8
1
  6
Continuous
 62
     3
100
AcDbLine
 10
624.9477732995447
 20
-340.1356172206779
 30
0.0
 11
624.9477732995447
 21
-340.6356172206779
 31
0.0
  0
LINE
  5
81
330
32
100
AcDbEntity
  8
1
  6
Continuous
 62
     3
100
AcDbLine
 10
648.9477732995447
 20
-340.6356172206779
 30
0.0
 11
648.9477732995447
 21
-340.1356172206779
 31
0.0
  0
LINE
  5
82
330
32
100
AcDbEntity
  8
1
  6
Continuous
 62
     3
100
AcDbLine
 10
623.4477732995447
 20
-338.6356172206779
 30
0.0
 11
614.4477732995447
 21
-338.6356172206779
 31
0.0
  0
LINE
  5
83
330
32
100
AcDbEntity
  8
1
  6
Continuous
 62
     3
100
AcDbLine
 10
612.9477732995447
 20
-337.1356172206779
 30
0.0
 11
612.9477732995447
 21
-335.1356172206779
 31
0.0
  0
LINE
  5
84
330
32
100
AcDbEntity
  8
1
  6
Continuous
 62
     3
100
AcDbLine
 10
660.9477732995451
 20
-335.1356172206779
 30
0.0
 11
660.9477732995451
 21
-337.1356172206779
 31
0.0
  0
LINE
  5
85
330
32
100
AcDbEntity
  8
1
  6
Continuous
 62
     3
100
AcDbLine
 10
659.4477732995451
 20
-338.6356172206779
 30
0.0
 11
650.9175214328839
 21
-338.6356172206779
 31
0.0
  0
LINE
  5
86
330
32
100
AcDbEntity
  8
1
  6
Continuous
 62
     3
100
AcDbLine
 10
629.9477732995447
 20
-361.6356172206779
 30
0.0
 11
629.9477732995447
 21
-369.4698096833683
 31
0.0
  0
LINE
  5
87
330
32
100
AcDbEntity
  8
1
  6
Continuous
 62
     3
100
AcDbLine
 10
643.9477732995447
 20
-361.6356172206779
 30
0.0
 11
643.9477732995447
 21
-369.4698096833683
 31
0.0
  0
LINE
  5
88
330
32
100
AcDbEntity
  8
1
  6
Continuous
 62
     3
100
AcDbLine
 10
645.5720519591964
 20
-343.6356172206779
 30
0.0
 11
628.6447319591848
 21
-343.6356172206779
 31
0.0
  0
LINE
  5
89
330
32
100
AcDbEntity
  8
1
  6
Continuous
 62
     3
100
AcDbLine
 10
623.4477732995447
 20
-338.6356172206779
 30
0.0
 11
638.9477732995447
 21
-338.6356172206779
 31
0.0
  0
LINE
  5
8A
330
32
100
AcDbEntity
  8
1
  6
Continuous
 62
     3
100
AcDbLine
 10
650.9175214328839
 20
-338.6356172206779
 30
0.0
 11
650.4477732995447
 21
-338.6356172206779
 31
0.0
  0
LINE
  5
8B
330
32
100
AcDbEntity
  8
1
  6
Continuous
 62
     3
100
AcDbLine
 10
638.9477732995447
 20
-338.6356172206779
 30
0.0
 11
650.9175214328839
 21
-338.6356172206779
 31
0.0
  0
LINE
  5
8C
330
32
100
AcDbEntity
  8
1
  6
Continuous
 62
     3
100
AcDbLine
 10
632.2586624320002
 20
-368.1356172206779
 30
0.0
 11
641.6368841670897
 21
-368.1356172206779
 31
0.0
  0
LINE
  5
8D
330
32
100
AcDbEntity
  8
1
  6
DASH_CENTER
 62
     1
100
AcDbLine
 10
636.9477732995447
 20
-372.5903354451068
 30
0.0
 11
636.9477732995447
 21
-373.622900237652
 31
0.0
  0
LINE
  5
8E
330
32
100
AcDbEntity
  8
1
  6
DASH_CENTER
 62
     1
100
AcDbLine
 10
636.9477732995447
 20
-372.0748479899087
 30
0.0
 11
636.9477732995447
 21
-372.5903354451068
 31
0.0
  0
LINE
  5
8F
330
32
100
AcDbEntity
  8
1
  6
DASH_CENTER
 62
     1
100
AcDbLine
 10
636.9477732995447
 20
-373.622900237652
 30
0.0
 11
636.9477732995447
 21
-408.4437277987026
 31
0.0
  0
LINE
  5
90
330
32
100
AcDbEntity
  8
1
  6
Continuous
 62
     3
100
AcDbLine
 10
653.4477732995451
 20
-376.109337779049
 30
0.0
 11
654.4477732995447
 21
-375.5319875098595
 31
0.0
  0
LINE
  5
91
330
32
100
AcDbEntity
  8
1
  6
Continuous
 62
     3
100
AcDbLine
 10
654.4477732995447
 20
-395.7392469314964
 30
0.0
 11
653.4477732995451
 21
-395.1618966623067
 31
0.0
  0
LINE
  5
92
330
32
100
AcDbEntity
  8
1
  6
Continuous
 62
     3
100
AcDbLine
 10
641.3689349746583
 20
-402.1356172206779
 30
0.0
 11
653.4477732995451
 21
-395.1618966623067
 31
0.0
  0
LINE
  5
93
330
32
100
AcDbEntity
  8
1
  6
Continuous
 62
     3
100
AcDbLine
 10
653.4477732995451
 20
-395.1618966623067
 30
0.0
 11
653.4477732995451
 21
-376.109337779049
 31
0.0
  0
LINE
  5
94
330
32
100
AcDbEntity
  8
1
  6
Continuous
 62
     3
100
AcDbLine
 10
653.4477732995451
 20
-376.109337779049
 30
0.0
 11
641.3689349746583
 21
-369.1356172206779
 31
0.0
  0
LINE
  5
95
330
32
100
AcDbEntity
  8
1
  6
Continuous
 62
     3
100
AcDbLine
 10
632.5266116244316
 20
-402.1356172206779
 30
0.0
 11
641.3689349746583
 21
-402.1356172206779
 31
0.0
  0
LINE
  5
96
330
32
100
AcDbEntity
  8
1
  6
Continuous
 62
     3
100
AcDbLine
 10
620.4477732995447
 20
-395.1618966623067
 30
0.0
 11
632.5266116244316
 21
-402.1356172206779
 31
0.0
  0
LINE
  5
97
330
32
100
AcDbEntity
  8
1
  6
Continuous
 62
     3
100
AcDbLine
 10
620.4477732995447
 20
-395.1618966623067
 30
0.0
 11
619.4477732995447
 21
-395.7392469314964
 31
0.0
  0
LINE
  5
98
330
32
100
AcDbEntity
  8
1
  6
Continuous
 62
     3
100
AcDbLine
 10
620.4477732995447
 20
-376.109337779049
 30
0.0
 11
620.4477732995447
 21
-395.1618966623067
 31
0.0
  0
LINE
  5
99
330
32
100
AcDbEntity
  8
1
  6
Continuous
 62
     3
100
AcDbLine
 10
620.4477732995447
 20
-376.109337779049
 30
0.0
 11
619.4477732995447
 21
-375.5319875098595
 31
0.0
  0
LINE
  5
9A
330
32
100
AcDbEntity
  8
1
  6
Continuous
 62
     3
100
AcDbLine
 10
632.5266116244311
 20
-369.1356172206779
 30
0.0
 11
620.4477732995447
 21
-376.109337779049
 31
0.0
  0
LINE
  5
9B
330
32
100
AcDbEntity
  8
1
  6
Continuous
 62
     3
100
AcDbLine
 10
641.3689349746583
 20
-369.1356172206779
 30
0.0
 11
641.6368841670897
 21
-368.1356172206779
 31
0.0
  0
LINE
  5
9C
330
32
100
AcDbEntity
  8
1
  6
Continuous
 62
     3
100
AcDbLine
 10
632.5266116244311
 20
-369.1356172206779
 30
0.0
 11
632.2586624320002
 21
-368.1356172206779
 31
0.0
  0
LINE
  5
9D
330
32
100
AcDbEntity
  8
1
  6
Continuous
 62
     3
100
AcDbLine
 10
641.3689349746583
 20
-369.1356172206779
 30
0.0
 11
632.5266116244311
 21
-369.1356172206779
 31
0.0
  0
LINE
  5
9E
330
32
100
AcDbEntity
  8
1
  6
Continuous
 62
     3
100
AcDbLine
 10
619.4477732995447
 20
-375.5319875098595
 30
0.0
 11
619.4477732995447
 21
-395.7392469314964
 31
0.0
  0
LINE
  5
9F
330
32
100
AcDbEntity
  8
1
  6
Continuous
 62
     3
100
AcDbLine
 10
654.4477732995447
 20
-375.5319875098595
 30
0.0
 11
654.4477732995447
 21
-395.7392469314964
 31
0.0
  0
LINE
  5
A0
330
32
100
AcDbEntity
  8
1
  6
Continuous
 62
     3
100
AcDbLine
 10
654.4477732995447
 20
-395.7392469314964
 30
0.0
 11
641.6368841670897
 21
-403.1356172206779
 31
0.0
  0
LINE
  5
A1
330
32
100
AcDbEntity
  8
1
  6
Continuous
 62
     3
100
AcDbLine
 10
632.2586624320002
 20
-403.1356172206779
 30
0.0
 11
619.4477732995447
 21
-395.7392469314964
 31
0.0
  0
LINE
  5
A2
330
32
100
AcDbEntity
  8
1
  6
Continuous
 62
     3
100
AcDbLine
 10
632.2586624320002
 20
-403.1356172206779
 30
0.0
 11
641.6368841670897
 21
-403.1356172206779
 31
0.0
  0
LINE
  5
A3
330
32
100
AcDbEntity
  8
1
  6
Continuous
 62
     3
100
AcDbLine
 10
641.6368841670897
 20
-368.1356172206779
 30
0.0
 11
654.4477732995447
 21
-375.5319875098595
 31
0.0
  0
LINE
  5
A4
330
32
100
AcDbEntity
  8
1
  6
Continuous
 62
     3
100
AcDbLine
 10
619.4477732995447
 20
-375.5319875098595
 30
0.0
 11
632.2586624320002
 21
-368.1356172206779
 31
0.0
  0
LINE
  5
A5
330
32
100
AcDbEntity
  8
1
  6
DASH_CENTER
 62
     1
100
AcDbLine
 10
657.9477732995447
 20
-385.6356172206779
 30
0.0
 11
615.9477732995447
 21
-385.6356172206779
 31
0.0
  0
LINE
  5
A6
330
32
100
AcDbEntity
  8
1
  6
Continuous
 62
     3
100
AcDbLine
 10
632.2586624320002
 20
-403.1356172206779
 30
0.0
 11
632.5266116244316
 21
-402.1356172206779
 31
0.0
  0
LINE
  5
A7
330
32
100
AcDbEntity
  8
1
  6
Continuous
 62
     3
100
AcDbLine
 10
641.6368841670897
 20
-403.1356172206779
 30
0.0
 11
641.3689349746583
 21
-402.1356172206779
 31
0.0
  0
LINE
  5
A8
330
32
100
AcDbEntity
  8
1
  6
DASH_CENTER
 62
     1
100
AcDbLine
 10
636.9477732995447
 20
-328.4798304518278
 30
0.0
 11
636.9477732995447
 21
-372.0748479899087
 31
0.0
  0
LINE
  5
A9
330
32
100
AcDbEntity
  8
1
  6
DASH_CENTER
 62
     1
100
AcDbLine
 10
886.872994970257
 20
-328.4798304518278
 30
0.0
 11
886.872994970257
 21
-372.0748479899087
 31
0.0
  0
LINE
  5
AA
330
32
100
AcDbEntity
  8
1
  6
Continuous
 62
     3
100
AcDbLine
 10
891.5621058378019
 20
-403.1356172206779
 30
0.0
 11
891.2941566453706
 21
-402.1356172206779
 31
0.0
  0
LINE
  5
AB
330
32
100
AcDbEntity
  8
1
  6
Continuous
 62
     3
100
AcDbLine
 10
882.1838841027125
 20
-403.1356172206779
 30
0.0
 11
882.4518332951438
 21
-402.1356172206779
 31
0.0
  0
LINE
  5
AC
330
32
100
AcDbEntity
  8
1
  6
DASH_CENTER
 62
     1
100
AcDbLine
 10
907.872994970257
 20
-385.6356172206779
 30
0.0
 11
865.872994970257
 21
-385.6356172206779
 31
0.0
  0
LINE
  5
AD
330
32
100
AcDbEntity
  8
1
  6
Continuous
 62
     3
100
AcDbLine
 10
869.372994970257
 20
-375.5319875098595
 30
0.0
 11
882.1838841027125
 21
-368.1356172206779
 31
0.0
  0
LINE
  5
AE
330
32
100
AcDbEntity
  8
1
  6
Continuous
 62
     3
100
AcDbLine
 10
891.5621058378019
 20
-368.1356172206779
 30
0.0
 11
904.372994970257
 21
-375.5319875098595
 31
0.0
  0
LINE
  5
AF
330
32
100
AcDbEntity
  8
1
  6
Continuous
 62
     3
100
AcDbLine
 10
882.1838841027125
 20
-403.1356172206779
 30
0.0
 11
891.5621058378019
 21
-403.1356172206779
 31
0.0
  0
LINE
  5
B0
330
32
100
AcDbEntity
  8
1
  6
Continuous
 62
     3
100
AcDbLine
 10
882.1838841027125
 20
-403.1356172206779
 30
0.0
 11
869.372994970257
 21
-395.7392469314964
 31
0.0
  0
LINE
  5
B1
330
32
100
AcDbEntity
  8
1
  6
Continuous
 62
     3
100
AcDbLine
 10
904.372994970257
 20
-395.7392469314964
 30
0.0
 11
891.5621058378019
 21
-403.1356172206779
 31
0.0
  0
LINE
  5
B2
330
32
100
AcDbEntity
  8
1
  6
Continuous
 62
     3
100
AcDbLine
 10
904.372994970257
 20
-375.5319875098595
 30
0.0
 11
904.372994970257
 21
-395.7392469314964
 31
0.0
  0
LINE
  5
B3
330
32
100
AcDbEntity
  8
1
  6
Continuous
 62
     3
100
AcDbLine
 10
869.372994970257
 20
-375.5319875098595
 30
0.0
 11
869.372994970257
 21
-395.7392469314964
 31
0.0
  0
LINE
  5
B4
330
32
100
AcDbEntity
  8
1
  6
Continuous
 62
     3
100
AcDbLine
 10
891.2941566453706
 20
-369.1356172206779
 30
0.0
 11
882.4518332951434
 21
-369.1356172206779
 31
0.0
  0
LINE
  5
B5
330
32
100
AcDbEntity
  8
1
  6
Continuous
 62
     3
100
AcDbLine
 10
882.4518332951434
 20
-369.1356172206779
 30
0.0
 11
882.1838841027125
 21
-368.1356172206779
 31
0.0
  0
LINE
  5
B6
330
32
100
AcDbEntity
  8
1
  6
Continuous
 62
     3
100
AcDbLine
 10
891.2941566453706
 20
-369.1356172206779
 30
0.0
 11
891.5621058378019
 21
-368.1356172206779
 31
0.0
  0
LINE
  5
B7
330
32
100
AcDbEntity
  8
1
  6
Continuous
 62
     3
100
AcDbLine
 10
882.4518332951434
 20
-369.1356172206779
 30
0.0
 11
870.372994970257
 21
-376.109337779049
 31
0.0
  0
LINE
  5
B8
330
32
100
AcDbEntity
  8
1
  6
Continuous
 62
     3
100
AcDbLine
 10
870.372994970257
 20
-376.109337779049
 30
0.0
 11
869.372994970257
 21
-375.5319875098595
 31
0.0
  0
LINE
  5
B9
330
32
100
AcDbEntity
  8
1
  6
Continuous
 62
     3
100
AcDbLine
 10
870.372994970257
 20
-376.109337779049
 30
0.0
 11
870.372994970257
 21
-395.1618966623067
 31
0.0
  0
LINE
  5
BA
330
32
100
AcDbEntity
  8
1
  6
Continuous
 62
     3
100
AcDbLine
 10
870.372994970257
 20
-395.1618966623067
 30
0.0
 11
869.372994970257
 21
-395.7392469314964
 31
0.0
  0
LINE
  5
BB
330
32
100
AcDbEntity
  8
1
  6
Continuous
 62
     3
100
AcDbLine
 10
870.372994970257
 20
-395.1618966623067
 30
0.0
 11
882.4518332951438
 21
-402.1356172206779
 31
0.0
  0
LINE
  5
BC
330
32
100
AcDbEntity
  8
1
  6
Continuous
 62
     3
100
AcDbLine
 10
882.4518332951438
 20
-402.1356172206779
 30
0.0
 11
891.2941566453706
 21
-402.1356172206779
 31
0.0
  0
LINE
  5
BD
330
32
100
AcDbEntity
  8
1
  6
Continuous
 62
     3
100
AcDbLine
 10
903.3729949702574
 20
-376.109337779049
 30
0.0
 11
891.2941566453706
 21
-369.1356172206779
 31
0.0
  0
LINE
  5
BE
330
32
100
AcDbEntity
  8
1
  6
Continuous
 62
     3
100
AcDbLine
 10
903.3729949702574
 20
-395.1618966623067
 30
0.0
 11
903.3729949702574
 21
-376.109337779049
 31
0.0
  0
LINE
  5
BF
330
32
100
AcDbEntity
  8
1
  6
Continuous
 62
     3
100
AcDbLine
 10
891.2941566453706
 20
-402.1356172206779
 30
0.0
 11
903.3729949702574
 21
-395.1618966623067
 31
0.0
  0
LINE
  5
C0
330
32
100
AcDbEntity
  8
1
  6
Continuous
 62
     3
100
AcDbLine
 10
904.372994970257
 20
-395.7392469314964
 30
0.0
 11
903.3729949702574
 21
-395.1618966623067
 31
0.0
  0
LINE
  5
C1
330
32
100
AcDbEntity
  8
1
  6
Continuous
 62
     3
100
AcDbLine
 10
903.3729949702574
 20
-376.109337779049
 30
0.0
 11
904.372994970257
 21
-375.5319875098595
 31
0.0
  0
LINE
  5
C2
330
32
100
AcDbEntity
  8
1
  6
DASH_CENTER
 62
     1
100
AcDbLine
 10
886.872994970257
 20
-373.622900237652
 30
0.0
 11
886.872994970257
 21
-408.4437277987026
 31
0.0
  0
LINE
  5
C3
330
32
100
AcDbEntity
  8
1
  6
DASH_CENTER
 62
     1
100
AcDbLine
 10
886.872994970257
 20
-372.0748479899087
 30
0.0
 11
886.872994970257
 21
-372.5903354451068
 31
0.0
  0
LINE
  5
C4
330
32
100
AcDbEntity
  8
1
  6
DASH_CENTER
 62
     1
100
AcDbLine
 10
886.872994970257
 20
-372.5903354451068
 30
0.0
 11
886.872994970257
 21
-373.622900237652
 31
0.0
  0
LINE
  5
C5
330
32
100
AcDbEntity
  8
1
  6
Continuous
 62
     3
100
AcDbLine
 10
882.1838841027125
 20
-368.1356172206779
 30
0.0
 11
891.5621058378019
 21
-368.1356172206779
 31
0.0
  0
LINE
  5
C6
330
32
100
AcDbEntity
  8
1
  6
Continuous
 62
     3
100
AcDbLine
 10
888.872994970257
 20
-338.6356172206779
 30
0.0
 11
900.8427431035962
 21
-338.6356172206779
 31
0.0
  0
LINE
  5
C7
330
32
100
AcDbEntity
  8
1
  6
Continuous
 62
     3
100
AcDbLine
 10
884.872994970257
 20
-334.6356172206778
 30
0.0
 11
884.872994970257
 21
-343.6356172206779
 31
0.0
  0
LINE
  5
C8
330
32
100
AcDbEntity
  8
1
  6
Continuous
 62
     3
100
AcDbLine
 10
888.872994970257
 20
-343.6356172206779
 30
0.0
 11
888.872994970257
 21
-334.6356172206778
 31
0.0
  0
LINE
  5
C9
330
32
100
AcDbEntity
  8
1
  6
Continuous
 62
     3
100
AcDbLine
 10
900.8427431035962
 20
-338.6356172206779
 30
0.0
 11
900.372994970257
 21
-338.6356172206779
 31
0.0
  0
LINE
  5
CA
330
32
100
AcDbEntity
  8
1
  6
Continuous
 62
     3
100
AcDbLine
 10
873.372994970257
 20
-338.6356172206779
 30
0.0
 11
884.872994970257
 21
-338.6356172206779
 31
0.0
  0
LINE
  5
CB
330
32
100
AcDbEntity
  8
1
  6
Continuous
 62
     3
100
AcDbLine
 10
895.4972736299087
 20
-343.6356172206779
 30
0.0
 11
878.5699536298971
 21
-343.6356172206779
 31
0.0
  0
LINE
  5
CC
330
32
100
AcDbEntity
  8
1
  6
Continuous
 62
     3
100
AcDbLine
 10
893.872994970257
 20
-361.6356172206779
 30
0.0
 11
893.872994970257
 21
-369.4698096833683
 31
0.0
  0
LINE
  5
CD
330
32
100
AcDbEntity
  8
1
  6
Continuous
 62
     3
100
AcDbLine
 10
879.872994970257
 20
-361.6356172206779
 30
0.0
 11
879.872994970257
 21
-369.4698096833683
 31
0.0
  0
LINE
  5
CE
330
32
100
AcDbEntity
  8
1
  6
Continuous
 62
     3
100
AcDbLine
 10
909.3729949702574
 20
-338.6356172206779
 30
0.0
 11
900.8427431035962
 21
-338.6356172206779
 31
0.0
  0
LINE
  5
CF
330
32
100
AcDbEntity
  8
1
  6
Continuous
 62
     3
100
AcDbLine
 10
910.8729949702574
 20
-335.1356172206779
 30
0.0
 11
910.8729949702574
 21
-337.1356172206779
 31
0.0
  0
LINE
  5
D0
330
32
100
AcDbEntity
  8
1
  6
Continuous
 62
     3
100
AcDbLine
 10
862.872994970257
 20
-337.1356172206779
 30
0.0
 11
862.872994970257
 21
-335.1356172206779
 31
0.0
  0
LINE
  5
D1
330
32
100
AcDbEntity
  8
1
  6
Continuous
 62
     3
100
AcDbLine
 10
873.372994970257
 20
-338.6356172206779
 30
0.0
 11
864.372994970257
 21
-338.6356172206779
 31
0.0
  0
LINE
  5
D2
330
32
100
AcDbEntity
  8
1
  6
Continuous
 62
     3
100
AcDbLine
 10
898.872994970257
 20
-340.6356172206779
 30
0.0
 11
898.872994970257
 21
-340.1356172206779
 31
0.0
  0
LINE
  5
D3
330
32
100
AcDbEntity
  8
1
  6
Continuous
 62
     3
100
AcDbLine
 10
874.872994970257
 20
-340.1356172206779
 30
0.0
 11
874.872994970257
 21
-340.6356172206779
 31
0.0
  0
LINE
  5
D4
330
32
100
AcDbEntity
  8
1
  6
Continuous
 62
     3
100
AcDbLine
 10
879.872994970257
 20
-346.5516970037775
 30
0.0
 11
879.872994970257
 21
-361.6356172206779
 31
0.0
  0
LINE
  5
D5
330
32
100
AcDbEntity
  8
1
  6
Continuous
 62
     3
100
AcDbLine
 10
893.872994970257
 20
-346.5516970037775
 30
0.0
 11
893.872994970257
 21
-361.6356172206779
 31
0.0
  0
LINE
  5
D6
330
32
100
AcDbEntity
  8
1
  6
Continuous
 62
     3
100
AcDbLine
 10
862.9587814078841
 20
-334.6356172206779
 30
0.0
 11
910.7872085326303
 21
-334.6356172206778
 31
0.0
  0
LINE
  5
D7
330
32
100
AcDbEntity
  8
1
  6
CENTER_DASH_DASH
 62
     1
100
AcDbLine
 10
904.8729949702574
 20
-332.5738364959997
 30
0.0
 11
904.8729949702574
 21
-341.2278908744388
 31
0.0
  0
LINE
  5
D8
330
32
100
AcDbEntity
  8
1
  6
CENTER_DASH_DASH
 62
     1
100
AcDbLine
 10
868.8729949702574
 20
-332.5738364959997
 30
0.0
 11
868.8729949702574
 21
-341.2278908744388
 31
0.0
  0
LINE
  5
D9
330
32
100
AcDbEntity
  8
1
  6
Continuous
 62
     3
100
AcDbLine
 10
774.4209067102593
 20
-338.6356070182147
 30
0.0
 11
795.4209067102593
 21
-338.6356070182147
 31
0.0
  0
LINE
  5
DA
330
32
100
AcDbEntity
  8
1
  6
Continuous
 62
     3
100
AcDbLine
 10
772.9209067102593
 20
-337.1356070182147
 30
0.0
 11
772.9209067102593
 21
-340.6356070182147
 31
0.0
  0
LINE
  5
DB
330
32
100
AcDbEntity
  8
1
  6
Continuous
 62
     3
100
AcDbLine
 10
796.9209067102593
 20
-337.1356070182147
 30
0.0
 11
796.9209067102593
 21
-335.1356070182147
 31
0.0
  0
LINE
  5
DC
330
32
100
AcDbEntity
  8
1
  6
Continuous
 62
     3
100
AcDbLine
 10
796.9209067102593
 20
-340.6356070182147
 30
0.0
 11
796.9209067102593
 21
-337.1356070182147
 31
0.0
  0
LINE
  5
DD
330
32
100
AcDbEntity
  8
1
  6
Continuous
 62
     3
100
AcDbLine
 10
791.9209067102593
 20
-345.1356070182147
 30
0.0
 11
791.9209067102593
 21
-365.3358552096159
 31
0.0
  0
LINE
  5
DE
330
32
100
AcDbEntity
  8
1
  6
Continuous
 62
     3
100
AcDbLine
 10
777.9209067102593
 20
-345.1356070182147
 30
0.0
 11
777.9209067102593
 21
-364.1356070182147
 31
0.0
  0
LINE
  5
DF
330
32
100
AcDbEntity
  8
1
  6
Continuous
 62
     3
100
AcDbLine
 10
795.9209067102593
 20
-343.6356070182147
 30
0.0
 11
793.9209067102593
 21
-343.6356070182147
 31
0.0
  0
LINE
  5
E0
330
32
100
AcDbEntity
  8
1
  6
Continuous
 62
     3
100
AcDbLine
 10
798.9209067102593
 20
-335.1356070182147
 30
0.0
 11
798.9209067102593
 21
-340.6356070182147
 31
0.0
  0
LINE
  5
E1
330
32
100
AcDbEntity
  8
1
  6
Continuous
 62
     3
100
AcDbLine
 10
772.9209067102593
 20
-335.1356070182147
 30
0.0
 11
772.9209067102593
 21
-337.1356070182147
 31
0.0
  0
LINE
  5
E2
330
32
100
AcDbEntity
  8
1
  6
Continuous
 62
     3
100
AcDbLine
 10
775.9209067102593
 20
-343.6356070182147
 30
0.0
 11
776.4209067102593
 21
-343.6356070182147
 31
0.0
  0
LINE
  5
E3
330
32
100
AcDbEntity
  8
1
  6
Continuous
 62
     3
100
AcDbLine
 10
793.4209067102593
 20
-343.6356070182147
 30
0.0
 11
793.9209067102593
 21
-343.6356070182147
 31
0.0
  0
LINE
  5
E4
330
32
100
AcDbEntity
  8
1
  6
Continuous
 62
     3
100
AcDbLine
 10
763.3648106693649
 20
-403.1356172206779
 30
0.0
 11
763.5168804150098
 21
-403.1356172206779
 31
0.0
  0
LINE
  5
E5
330
32
100
AcDbEntity
  8
1
  6
Continuous
 62
     3
100
AcDbLine
 10
765.7529575178282
 20
-402.1356070182147
 30
0.0
 11
772.0209067102592
 21
-402.1356070182147
 31
0.0
  0
LINE
  5
E6
330
32
100
AcDbEntity
  8
1
  6
Continuous
 62
     3
100
AcDbLine
 10
794.5396700144697
 20
-400.3856070182147
 30
0.0
 11
780.5172294442423
 21
-400.3856070182147
 31
0.0
  0
LINE
  5
E7
330
32
100
AcDbEntity
  8
1
  6
Continuous
 62
     3
100
AcDbLine
 10
807.0209067102592
 20
-403.1356070182147
 30
0.0
 11
795.6644252861888
 21
-400.5137566942885
 31
0.0
  0
LINE
  5
E8
330
32
100
AcDbEntity
  8
1
  6
Continuous
 62
     3
100
AcDbLine
 10
807.9529272029668
 20
-403.1356070182147
 30
0.0
 11
812.193797057615
 21
-403.1356070182147
 31
0.0
  0
LINE
  5
E9
330
32
100
AcDbEntity
  8
1
  6
PHANTOM
 62
     4
100
AcDbLine
 10
777.3421609385546
 20
-395.7857479405169
 30
0.0
 11
792.3421609385546
 21
-395.7857479405169
 31
0.0
  0
LINE
  5
EA
330
32
100
AcDbEntity
  8
1
  6
Continuous
 62
     3
100
AcDbLine
 10
752.4421609385545
 20
-403.1356172206779
 30
0.0
 11
763.3648106693649
 21
-403.1356172206779
 31
0.0
  0
LINE
  5
EB
330
32
100
AcDbEntity
  8
1
  6
Continuous
 62
     3
100
AcDbLine
 10
763.9421609385545
 20
-395.7392469314963
 30
0.0
 11
763.9421609385545
 21
-402.1356172206779
 31
0.0
  0
LINE
  5
EC
330
32
100
AcDbEntity
  8
1
  6
Continuous
 62
     3
100
AcDbLine
 10
752.4421609385545
 20
-395.7392469314963
 30
0.0
 11
761.4421609385545
 21
-395.7392469314963
 31
0.0
  0
LINE
  5
ED
330
32
100
AcDbEntity
  8
1
  6
Continuous
 62
     3
100
AcDbLine
 10
752.4421609385545
 20
-395.7392469314963
 30
0.0
 11
752.4421609385545
 21
-375.5319875098593
 31
0.0
  0
LINE
  5
EE
330
32
100
AcDbEntity
  8
1
  6
Continuous
 62
     3
100
AcDbLine
 10
763.9421609385545
 20
-369.1356172206779
 30
0.0
 11
763.9421609385545
 21
-395.7392469314963
 31
0.0
  0
LINE
  5
EF
330
32
100
AcDbEntity
  8
1
  6
Continuous
 62
     3
100
AcDbLine
 10
752.4421609385545
 20
-375.5319875098593
 30
0.0
 11
761.4421609385545
 21
-375.5319875098593
 31
0.0
  0
LINE
  5
F0
330
32
100
AcDbEntity
  8
1
  6
Continuous
 62
     3
100
AcDbLine
 10
752.4421609385545
 20
-375.5319875098593
 30
0.0
 11
752.4421609385545
 21
-368.1356172206779
 31
0.0
  0
LINE
  5
F1
330
32
100
AcDbEntity
  8
1
  6
Continuous
 62
     3
100
AcDbLine
 10
806.9421609385545
 20
-403.1356172206779
 30
0.0
 11
806.9421609385545
 21
-368.1356172206779
 31
0.0
  0
LINE
  5
F2
330
32
100
AcDbEntity
  8
1
  6
Continuous
 62
     3
100
AcDbLine
 10
818.4421609385545
 20
-395.7392469314963
 30
0.0
 11
809.4421609385545
 21
-395.7392469314963
 31
0.0
  0
LINE
  5
F3
330
32
100
AcDbEntity
  8
1
  6
Continuous
 62
     3
100
AcDbLine
 10
818.4421609385545
 20
-395.7392469314963
 30
0.0
 11
818.4421609385545
 21
-403.1356172206779
 31
0.0
  0
LINE
  5
F4
330
32
100
AcDbEntity
  8
1
  6
Continuous
 62
     3
100
AcDbLine
 10
818.4421609385545
 20
-375.5319875098593
 30
0.0
 11
809.4421609385545
 21
-375.5319875098593
 31
0.0
  0
LINE
  5
F5
330
32
100
AcDbEntity
  8
1
  6
Continuous
 62
     3
100
AcDbLine
 10
818.4421609385545
 20
-375.5319875098593
 30
0.0
 11
818.4421609385545
 21
-395.7392469314963
 31
0.0
  0
LINE
  5
F6
330
32
100
AcDbEntity
  8
1
  6
Continuous
 62
     3
100
AcDbLine
 10
752.4421609385545
 20
-403.1356172206779
 30
0.0
 11
752.4421609385545
 21
-395.7392469314963
 31
0.0
  0
LINE
  5
F7
330
32
100
AcDbEntity
  8
1
  6
Continuous
 62
     3
100
AcDbLine
 10
818.4421609385545
 20
-368.1356172206779
 30
0.0
 11
818.4421609385545
 21
-375.5319875098593
 31
0.0
  0
LINE
  5
F8
330
32
100
AcDbEntity
  8
1
  6
DASH_CENTER
 62
     1
100
AcDbLine
 10
744.826024389633
 20
-385.6356172206779
 30
0.0
 11
793.3221609385546
 21
-385.6356172206779
 31
0.0
  0
LINE
  5
F9
330
32
100
AcDbEntity
  8
1
  6
DASH_CENTER
 62
     1
100
AcDbLine
 10
784.8421609385546
 20
-331.9655253894119
 30
0.0
 11
784.8421609385546
 21
-404.736006570348
 31
0.0
  0
LINE
  5
FA
330
32
100
AcDbEntity
  8
1
  6
Continuous
 62
     3
100
AcDbLine
 10
752.4421609385545
 20
-403.1356172206779
 30
0.0
 11
751.4421609385545
 21
-402.1356172206779
 31
0.0
  0
LINE
  5
FB
330
32
100
AcDbEntity
  8
1
  6
Continuous
 62
     3
100
AcDbLine
 10
752.4421609385545
 20
-368.1356172206779
 30
0.0
 11
751.4421609385545
 21
-369.1356172206779
 31
0.0
  0
LINE
  5
FC
330
32
100
AcDbEntity
  8
1
  6
Continuous
 62
     3
100
AcDbLine
 10
763.9421609385545
 20
-369.1356172206779
 30
0.0
 11
763.3648106693649
 21
-368.1356172206779
 31
0.0
  0
LINE
  5
FD
330
32
100
AcDbEntity
  8
1
  6
Continuous
 62
     3
100
AcDbLine
 10
772.8421609385546
 20
-369.1356172206779
 30
0.0
 11
763.9421609385545
 21
-369.1356172206779
 31
0.0
  0
LINE
  5
FE
330
32
100
AcDbEntity
  8
1
  6
Continuous
 62
     3
100
AcDbLine
 10
763.3648106693649
 20
-403.1356172206779
 30
0.0
 11
763.9421609385545
 21
-402.1356172206779
 31
0.0
  0
LINE
  5
FF
330
32
100
AcDbEntity
  8
1
  6
Continuous
 62
     3
100
AcDbLine
 10
818.4421609385545
 20
-403.1356172206779
 30
0.0
 11
806.9421609385545
 21
-403.1356172206779
 31
0.0
  0
LINE
  5
100
330
32
100
AcDbEntity
  8
1
  6
Continuous
 62
     3
100
AcDbLine
 10
806.9421609385545
 20
-368.1356172206779
 30
0.0
 11
818.4421609385545
 21
-368.1356172206779
 31
0.0
  0
LINE
  5
101
330
32
100
AcDbEntity
  8
1
  6
Continuous
 62
     3
100
AcDbLine
 10
752.4421609385545
 20
-368.1356172206779
 30
0.0
 11
763.3648106693649
 21
-368.1356172206779
 31
0.0
  0
LINE
  5
102
330
32
100
AcDbEntity
  8
1
  6
DASH_CENTER
 62
     1
100
AcDbLine
 10
793.3221609385546
 20
-385.6356172206779
 30
0.0
 11
825.0577548804586
 21
-385.6356172206779
 31
0.0
  0
LINE
  5
103
330
32
100
AcDbEntity
  8
1
  6
Continuous
 62
     3
100
AcDbLine
 10
806.9421609385545
 20
-368.1356172206779
 30
0.0
 11
797.9669162102737
 21
-370.2077157360052
 31
0.0
  0
LINE
  5
104
330
32
100
AcDbEntity
  8
1
  6
Continuous
 62
     3
100
AcDbLine
 10
818.4421609385545
 20
-403.1356172206779
 30
0.0
 11
819.4421609385545
 21
-402.1356172206779
 31
0.0
  0
LINE
  5
105
330
32
100
AcDbEntity
  8
1
  6
Continuous
 62
     3
100
AcDbLine
 10
818.4421609385545
 20
-368.1356172206779
 30
0.0
 11
819.4421609385545
 21
-369.1356172206779
 31
0.0
  0
LINE
  5
106
330
32
100
AcDbEntity
  8
0
  6
Continuous
 62
     2
100
AcDbLine
 10
780.8257421628805
 20
-382.4854865008388
 30
0.0
 11
783.6608667207001
 21
-385.635601854005
 31
0.0
  0
LINE
  5
107
330
32
100
AcDbEntity
  8
0
  6
Continuous
 62
     2
100
AcDbLine
 10
781.5345232960376
 20
-388.7857479405169
 30
0.0
 11
784.2908790195475
 21
-388.7857479405169
 31
0.0
  0
LINE
  5
108
330
32
100
AcDbEntity
  8
0
  6
Continuous
 62
     2
100
AcDbLine
 10
788.9373331818651
 20
-382.4854865008388
 30
0.0
 11
786.023455156409
 21
-382.4854865008388
 31
0.0
  0
LINE
  5
109
330
32
100
AcDbEntity
  8
0
  6
Continuous
 62
     2
100
AcDbLine
 10
780.8257421628805
 20
-382.4854865008388
 30
0.0
 11
783.6608667207001
 21
-382.4854865008388
 31
0.0
  0
LINE
  5
10A
330
32
100
AcDbEntity
  8
0
  6
Continuous
 62
     2
100
AcDbLine
 10
783.6608667207001
 20
-382.4854865008388
 30
0.0
 11
783.6608667207001
 21
-385.635601854005
 31
0.0
  0
LINE
  5
10B
330
32
100
AcDbEntity
  8
0
  6
Continuous
 62
     2
100
AcDbLine
 10
786.023455156409
 20
-382.4854865008388
 30
0.0
 11
786.023455156409
 21
-384.5330610911917
 31
0.0
  0
LINE
  5
10C
330
32
100
AcDbEntity
  8
0
  6
Continuous
 62
     2
100
AcDbLine
 10
788.9373331818651
 20
-382.4854865008388
 30
0.0
 11
784.2908790195475
 21
-388.7857479405169
 31
0.0
  0
LINE
  5
10D
330
32
100
AcDbEntity
  8
0
  6
Continuous
 62
     2
100
AcDbLine
 10
784.9209067102593
 20
-385.635601854005
 30
0.0
 11
783.8971655402925
 21
-385.635601854005
 31
0.0
  0
LINE
  5
10E
330
32
100
AcDbEntity
  8
0
  6
Continuous
 62
     2
100
AcDbLine
 10
781.5345232960376
 20
-388.7857479405169
 30
0.0
 11
783.8971655402925
 21
-385.635601854005
 31
0.0
  0
LINE
  5
10F
330
32
100
AcDbEntity
  8
1
  6
PHANTOM
 62
     4
100
AcDbLine
 10
780.3421609385546
 20
-375.4854865008388
 30
0.0
 11
789.3421609385546
 21
-375.4854865008388
 31
0.0
  0
LINE
  5
110
330
32
100
AcDbEntity
  8
1
  6
PHANTOM
 62
     4
100
AcDbLine
 10
789.3421609385546
 20
-375.4854865008388
 30
0.0
 11
789.3421609385546
 21
-380.4854865008388
 31
0.0
  0
LINE
  5
111
330
32
100
AcDbEntity
  8
1
  6
PHANTOM
 62
     4
100
AcDbLine
 10
789.3421609385546
 20
-380.4854865008388
 30
0.0
 11
780.3421609385546
 21
-380.4854865008388
 31
0.0
  0
LINE
  5
112
330
32
100
AcDbEntity
  8
1
  6
PHANTOM
 62
     4
100
AcDbLine
 10
780.3421609385546
 20
-380.4854865008388
 30
0.0
 11
780.3421609385546
 21
-375.4854865008388
 31
0.0
  0
LINE
  5
113
330
32
100
AcDbEntity
  8
1
  6
PHANTOM
 62
     4
100
AcDbLine
 10
777.3421609385546
 20
-395.7857479405169
 30
0.0
 11
777.3421609385546
 21
-390.7857479405169
 31
0.0
  0
LINE
  5
114
330
32
100
AcDbEntity
  8
1
  6
PHANTOM
 62
     4
100
AcDbLine
 10
792.3421609385546
 20
-390.7857479405169
 30
0.0
 11
792.3421609385546
 21
-395.7857479405169
 31
0.0
  0
LINE
  5
115
330
32
100
AcDbEntity
  8
1
  6
PHANTOM
 62
     4
100
AcDbLine
 10
777.3421609385546
 20
-390.7857479405169
 30
0.0
 11
792.3421609385546
 21
-390.7857479405169
 31
0.0
  0
LINE
  5
116
330
32
100
AcDbEntity
  8
1
  6
Continuous
 62
     3
100
AcDbLine
 10
819.4421609385545
 20
-369.1356172206779
 30
0.0
 11
819.4421609385545
 21
-402.1356172206779
 31
0.0
  0
LINE
  5
117
330
32
100
AcDbEntity
  8
1
  6
Continuous
 62
     3
100
AcDbLine
 10
751.4421609385545
 20
-402.1356172206779
 30
0.0
 11
751.4421609385545
 21
-369.1356172206779
 31
0.0
  0
LINE
  5
118
330
32
100
AcDbEntity
  8
1
  6
Continuous
 62
     3
100
AcDbLine
 10
819.4421609385545
 20
-395.1618966623066
 30
0.0
 11
818.4421609385545
 21
-395.7392469314963
 31
0.0
  0
LINE
  5
119
330
32
100
AcDbEntity
  8
1
  6
Continuous
 62
     3
100
AcDbLine
 10
819.4421609385545
 20
-376.1093377790489
 30
0.0
 11
818.4421609385545
 21
-375.5319875098593
 31
0.0
  0
LINE
  5
11A
330
32
100
AcDbEntity
  8
1
  6
Continuous
 62
     3
100
AcDbLine
 10
751.4421609385545
 20
-376.1093377790489
 30
0.0
 11
752.4421609385545
 21
-375.5319875098593
 31
0.0
  0
LINE
  5
11B
330
32
100
AcDbEntity
  8
1
  6
Continuous
 62
     3
100
AcDbLine
 10
751.4421609385545
 20
-395.1618966623066
 30
0.0
 11
752.4421609385545
 21
-395.7392469314963
 31
0.0
  0
LINE
  5
11C
330
32
100
AcDbEntity
  8
1
  6
Continuous
 62
     3
100
AcDbLine
 10
773.0066931478859
 20
-334.6356070182147
 30
0.0
 11
798.8351202726321
 21
-334.6356070182147
 31
0.0
  0
LINE
  5
11D
330
32
100
AcDbEntity
  8
1
  6
Continuous
 62
     3
100
AcDbLine
 10
970.3800356361799
 20
-334.4894029694962
 30
0.0
 11
996.2084627609261
 21
-334.4894029694962
 31
0.0
  0
LINE
  5
11E
330
32
100
AcDbEntity
  8
1
  6
Continuous
 62
     3
100
AcDbLine
 10
1016.772994970258
 20
-395.5930428827778
 30
0.0
 11
1017.772994970257
 21
-395.015692613588
 31
0.0
  0
LINE
  5
11F
330
32
100
AcDbEntity
  8
1
  6
Continuous
 62
     3
100
AcDbLine
 10
1016.772994970258
 20
-375.3857834611407
 30
0.0
 11
1017.772994970257
 21
-375.9631337303303
 31
0.0
  0
LINE
  5
120
330
32
100
AcDbEntity
  8
1
  6
Continuous
 62
     3
100
AcDbLine
 10
950.7729949702575
 20
-375.3857834611407
 30
0.0
 11
949.7729949702575
 21
-375.9631337303303
 31
0.0
  0
LINE
  5
121
330
32
100
AcDbEntity
  8
1
  6
Continuous
 62
     3
100
AcDbLine
 10
950.7729949702575
 20
-395.5930428827778
 30
0.0
 11
949.7729949702575
 21
-395.015692613588
 31
0.0
  0
LINE
  5
122
330
32
100
AcDbEntity
  8
1
  6
Continuous
 62
     3
100
AcDbLine
 10
1017.772994970257
 20
-368.9894131719593
 30
0.0
 11
1017.772994970257
 21
-401.9894131719593
 31
0.0
  0
LINE
  5
123
330
32
100
AcDbEntity
  8
1
  6
Continuous
 62
     3
100
AcDbLine
 10
949.7729949702575
 20
-401.9894131719593
 30
0.0
 11
949.7729949702575
 21
-368.9894131719593
 31
0.0
  0
LINE
  5
124
330
32
100
AcDbEntity
  8
1
  6
Continuous
 62
     3
100
AcDbLine
 10
949.7729949702575
 20
-368.9894131719593
 30
0.0
 11
950.7729949702575
 21
-367.9894131719593
 31
0.0
  0
LINE
  5
125
330
32
100
AcDbEntity
  8
1
  6
Continuous
 62
     3
100
AcDbLine
 10
949.7729949702575
 20
-401.9894131719593
 30
0.0
 11
950.7729949702575
 21
-402.9894131719593
 31
0.0
  0
LINE
  5
126
330
32
100
AcDbEntity
  8
1
  6
Continuous
 62
     3
100
AcDbLine
 10
971.2482396985383
 20
-370.0615116872866
 30
0.0
 11
962.2729949702575
 21
-367.9894131719593
 31
0.0
  0
LINE
  5
127
330
32
100
AcDbEntity
  8
1
  6
DASH_CENTER
 62
     1
100
AcDbLine
 10
944.1574010283534
 20
-385.4894131719593
 30
0.0
 11
975.8929949702574
 21
-385.4894131719593
 31
0.0
  0
LINE
  5
128
330
32
100
AcDbEntity
  8
1
  6
Continuous
 62
     3
100
AcDbLine
 10
1005.850345239447
 20
-367.9894131719593
 30
0.0
 11
1016.772994970258
 21
-367.9894131719593
 31
0.0
  0
LINE
  5
129
330
32
100
AcDbEntity
  8
1
  6
Continuous
 62
     3
100
AcDbLine
 10
950.7729949702575
 20
-367.9894131719593
 30
0.0
 11
962.2729949702575
 21
-367.9894131719593
 31
0.0
  0
LINE
  5
12A
330
32
100
AcDbEntity
  8
1
  6
Continuous
 62
     3
100
AcDbLine
 10
962.2729949702575
 20
-402.9894131719593
 30
0.0
 11
950.7729949702575
 21
-402.9894131719593
 31
0.0
  0
LINE
  5
12B
330
32
100
AcDbEntity
  8
1
  6
Continuous
 62
     3
100
AcDbLine
 10
1005.272994970258
 20
-401.9894131719593
 30
0.0
 11
1005.850345239447
 21
-402.9894131719593
 31
0.0
  0
LINE
  5
12C
330
32
100
AcDbEntity
  8
1
  6
Continuous
 62
     3
100
AcDbLine
 10
1005.272994970258
 20
-368.9894131719593
 30
0.0
 11
996.3729949702574
 21
-368.9894131719593
 31
0.0
  0
LINE
  5
12D
330
32
100
AcDbEntity
  8
1
  6
Continuous
 62
     3
100
AcDbLine
 10
1005.850345239447
 20
-367.9894131719593
 30
0.0
 11
1005.272994970258
 21
-368.9894131719593
 31
0.0
  0
LINE
  5
12E
330
32
100
AcDbEntity
  8
1
  6
Continuous
 62
     3
100
AcDbLine
 10
1017.772994970257
 20
-368.9894131719593
 30
0.0
 11
1016.772994970258
 21
-367.9894131719593
 31
0.0
  0
LINE
  5
12F
330
32
100
AcDbEntity
  8
1
  6
Continuous
 62
     3
100
AcDbLine
 10
1017.772994970257
 20
-401.9894131719593
 30
0.0
 11
1016.772994970258
 21
-402.9894131719593
 31
0.0
  0
LINE
  5
130
330
32
100
AcDbEntity
  8
1
  6
DASH_CENTER
 62
     1
100
AcDbLine
 10
984.372994970257
 20
-404.5898025216295
 30
0.0
 11
984.372994970257
 21
-331.8193213406933
 31
0.0
  0
LINE
  5
131
330
32
100
AcDbEntity
  8
1
  6
DASH_CENTER
 62
     1
100
AcDbLine
 10
975.8929949702574
 20
-385.4894131719593
 30
0.0
 11
1024.389131519179
 21
-385.4894131719593
 31
0.0
  0
LINE
  5
132
330
32
100
AcDbEntity
  8
1
  6
Continuous
 62
     3
100
AcDbLine
 10
950.7729949702575
 20
-375.3857834611407
 30
0.0
 11
950.7729949702575
 21
-367.9894131719593
 31
0.0
  0
LINE
  5
133
330
32
100
AcDbEntity
  8
1
  6
Continuous
 62
     3
100
AcDbLine
 10
1016.772994970258
 20
-395.5930428827778
 30
0.0
 11
1016.772994970258
 21
-402.9894131719593
 31
0.0
  0
LINE
  5
134
330
32
100
AcDbEntity
  8
1
  6
Continuous
 62
     3
100
AcDbLine
 10
950.7729949702575
 20
-395.5930428827778
 30
0.0
 11
950.7729949702575
 21
-375.3857834611407
 31
0.0
  0
LINE
  5
135
330
32
100
AcDbEntity
  8
1
  6
Continuous
 62
     3
100
AcDbLine
 10
959.7729949702575
 20
-375.3857834611407
 30
0.0
 11
950.7729949702575
 21
-375.3857834611407
 31
0.0
  0
LINE
  5
136
330
32
100
AcDbEntity
  8
1
  6
Continuous
 62
     3
100
AcDbLine
 10
950.7729949702575
 20
-402.9894131719593
 30
0.0
 11
950.7729949702575
 21
-395.5930428827778
 31
0.0
  0
LINE
  5
137
330
32
100
AcDbEntity
  8
1
  6
Continuous
 62
     3
100
AcDbLine
 10
959.7729949702575
 20
-395.5930428827778
 30
0.0
 11
950.7729949702575
 21
-395.5930428827778
 31
0.0
  0
LINE
  5
138
330
32
100
AcDbEntity
  8
1
  6
Continuous
 62
     3
100
AcDbLine
 10
962.2729949702575
 20
-367.9894131719593
 30
0.0
 11
962.2729949702575
 21
-402.9894131719593
 31
0.0
  0
LINE
  5
139
330
32
100
AcDbEntity
  8
1
  6
Continuous
 62
     3
100
AcDbLine
 10
1016.772994970258
 20
-367.9894131719593
 30
0.0
 11
1016.772994970258
 21
-375.3857834611407
 31
0.0
  0
LINE
  5
13A
330
32
100
AcDbEntity
  8
1
  6
Continuous
 62
     3
100
AcDbLine
 10
1007.772994970258
 20
-375.3857834611407
 30
0.0
 11
1016.772994970258
 21
-375.3857834611407
 31
0.0
  0
LINE
  5
13B
330
32
100
AcDbEntity
  8
1
  6
Continuous
 62
     3
100
AcDbLine
 10
1005.272994970258
 20
-395.5930428827778
 30
0.0
 11
1005.272994970258
 21
-368.9894131719593
 31
0.0
  0
LINE
  5
13C
330
32
100
AcDbEntity
  8
1
  6
Continuous
 62
     3
100
AcDbLine
 10
1016.772994970258
 20
-375.3857834611407
 30
0.0
 11
1016.772994970258
 21
-395.5930428827778
 31
0.0
  0
LINE
  5
13D
330
32
100
AcDbEntity
  8
1
  6
Continuous
 62
     3
100
AcDbLine
 10
1007.772994970258
 20
-395.5930428827778
 30
0.0
 11
1016.772994970258
 21
-395.5930428827778
 31
0.0
  0
LINE
  5
13E
330
32
100
AcDbEntity
  8
1
  6
Continuous
 62
     3
100
AcDbLine
 10
1005.272994970258
 20
-401.9894131719593
 30
0.0
 11
1005.272994970258
 21
-395.5930428827778
 31
0.0
  0
LINE
  5
13F
330
32
100
AcDbEntity
  8
1
  6
Continuous
 62
     3
100
AcDbLine
 10
1005.850345239447
 20
-402.9894131719593
 30
0.0
 11
1016.772994970258
 21
-402.9894131719593
 31
0.0
  0
LINE
  5
140
330
32
100
AcDbEntity
  8
1
  6
Continuous
 62
     3
100
AcDbLine
 10
957.021358851197
 20
-402.9894029694962
 30
0.0
 11
961.2622287058453
 21
-402.9894029694962
 31
0.0
  0
LINE
  5
141
330
32
100
AcDbEntity
  8
1
  6
Continuous
 62
     3
100
AcDbLine
 10
973.5507306226232
 20
-400.3675526455699
 30
0.0
 11
962.1942491985528
 21
-402.9894029694962
 31
0.0
  0
LINE
  5
142
330
32
100
AcDbEntity
  8
1
  6
Continuous
 62
     3
100
AcDbLine
 10
988.6979264645697
 20
-400.2394029694962
 30
0.0
 11
974.6754858943423
 21
-400.2394029694962
 31
0.0
  0
LINE
  5
143
330
32
100
AcDbEntity
  8
1
  6
Continuous
 62
     3
100
AcDbLine
 10
997.1942491985528
 20
-401.9894029694962
 30
0.0
 11
1003.462198390984
 21
-401.9894029694962
 31
0.0
  0
LINE
  5
144
330
32
100
AcDbEntity
  8
1
  6
Continuous
 62
     3
100
AcDbLine
 10
1005.698275493802
 20
-402.9894131719593
 30
0.0
 11
1005.850345239447
 21
-402.9894131719593
 31
0.0
  0
LINE
  5
145
330
32
100
AcDbEntity
  8
1
  6
Continuous
 62
     3
100
AcDbLine
 10
975.2942491985527
 20
-343.4894029694962
 30
0.0
 11
975.7942491985527
 21
-343.4894029694962
 31
0.0
  0
LINE
  5
146
330
32
100
AcDbEntity
  8
1
  6
Continuous
 62
     3
100
AcDbLine
 10
992.7942491985527
 20
-343.4894029694962
 30
0.0
 11
993.2942491985527
 21
-343.4894029694962
 31
0.0
  0
LINE
  5
147
330
32
100
AcDbEntity
  8
1
  6
Continuous
 62
     3
100
AcDbLine
 10
996.2942491985527
 20
-336.9894029694962
 30
0.0
 11
996.2942491985527
 21
-334.9894029694962
 31
0.0
  0
LINE
  5
148
330
32
100
AcDbEntity
  8
1
  6
Continuous
 62
     3
100
AcDbLine
 10
970.2942491985527
 20
-340.4894029694962
 30
0.0
 11
970.2942491985527
 21
-334.9894029694962
 31
0.0
  0
LINE
  5
149
330
32
100
AcDbEntity
  8
1
  6
Continuous
 62
     3
100
AcDbLine
 10
975.2942491985527
 20
-343.4894029694962
 30
0.0
 11
973.2942491985527
 21
-343.4894029694962
 31
0.0
  0
LINE
  5
14A
330
32
100
AcDbEntity
  8
1
  6
Continuous
 62
     3
100
AcDbLine
 10
991.2942491985527
 20
-363.9894029694962
 30
0.0
 11
991.2942491985527
 21
-344.9894029694962
 31
0.0
  0
LINE
  5
14B
330
32
100
AcDbEntity
  8
1
  6
Continuous
 62
     3
100
AcDbLine
 10
977.2942491985527
 20
-365.1896511608973
 30
0.0
 11
977.2942491985527
 21
-344.9894029694962
 31
0.0
  0
LINE
  5
14C
330
32
100
AcDbEntity
  8
1
  6
Continuous
 62
     3
100
AcDbLine
 10
972.2942491985527
 20
-336.9894029694962
 30
0.0
 11
972.2942491985527
 21
-340.4894029694962
 31
0.0
  0
LINE
  5
14D
330
32
100
AcDbEntity
  8
1
  6
Continuous
 62
     3
100
AcDbLine
 10
972.2942491985527
 20
-334.9894029694962
 30
0.0
 11
972.2942491985527
 21
-336.9894029694962
 31
0.0
  0
LINE
  5
14E
330
32
100
AcDbEntity
  8
1
  6
Continuous
 62
     3
100
AcDbLine
 10
996.2942491985527
 20
-340.4894029694962
 30
0.0
 11
996.2942491985527
 21
-336.9894029694962
 31
0.0
  0
LINE
  5
14F
330
32
100
AcDbEntity
  8
1
  6
Continuous
 62
     3
100
AcDbLine
 10
973.7942491985527
 20
-338.4894029694962
 30
0.0
 11
994.7942491985527
 21
-338.4894029694962
 31
0.0
  0
ARC
  5
150
330
32
100
AcDbEntity
  8
1
  6
DASHED
 62
     2
100
AcDbCircle
 10
772.0209067102592
 20
-174.6402222516763
 30
0.0
 40
16.5
100
AcDbArc
 50
-90.0
 51
-66.72293644951301
  0
ARC
  5
151
330
32
100
AcDbEntity
  8
1
  6
DASHED
 62
     2
100
AcDbCircle
 10
772.0209067102592
 20
-174.6402222516763
 30
0.0
 40
16.5
100
AcDbArc
 50
-90.0
 51
-66.72293644951301
  0
ARC
  5
152
330
32
100
AcDbEntity
  8
1
  6
DASHED
 62
     2
100
AcDbCircle
 10
772.0209067102592
 20
-174.6402222516763
 30
0.0
 40
16.5
100
AcDbArc
 50
-90.0
 51
-66.72293644951301
  0
ARC
  5
153
330
32
100
AcDbEntity
  8
1
  6
DASHED
 62
     2
100
AcDbCircle
 10
772.0209067102592
 20
-174.6402222516763
 30
0.0
 40
16.5
100
AcDbArc
 50
66.7229364495129
 51
90.0
  0
ARC
  5
154
330
32
100
AcDbEntity
  8
1
  6
DASHED
 62
     2
100
AcDbCircle
 10
780.5172294442423
 20
-154.8902222516763
 30
0.0
 40
4.999999999999956
100
AcDbArc
 50
-113.2770635504846
 51
-90.0
  0
ARC
  5
155
330
32
100
AcDbEntity
  8
1
  6
DASHED
 62
     2
100
AcDbCircle
 10
780.5172294442423
 20
-154.8902222516763
 30
0.0
 40
4.999999999999956
100
AcDbArc
 50
-113.2770635504846
 51
-90.0
  0
ARC
  5
156
330
32
100
AcDbEntity
  8
1
  6
DASHED
 62
     2
100
AcDbCircle
 10
780.5172294442423
 20
-194.3902222516763
 30
0.0
 40
5.0
100
AcDbArc
 50
90.0
 51
113.277063550485
  0
ARC
  5
157
330
32
100
AcDbEntity
  8
1
  6
Continuous
 62
     3
100
AcDbCircle
 10
646.9477732995447
 20
-346.5516970037775
 30
0.0
 40
3.000000000000036
100
AcDbArc
 50
99.59406822686034
 51
180.0
  0
ARC
  5
158
330
32
100
AcDbEntity
  8
1
  6
Continuous
 62
     3
100
AcDbCircle
 10
626.9477732995447
 20
-346.5516970037775
 30
0.0
 40
3.0
100
AcDbArc
 50
0.0
 51
80.40593177313966
  0
ARC
  5
159
330
32
100
AcDbEntity
  8
1
  6
Continuous
 62
     3
100
AcDbCircle
 10
876.872994970257
 20
-346.5516970037775
 30
0.0
 40
3.0
100
AcDbArc
 50
0.0
 51
80.40593177313966
  0
ARC
  5
15A
330
32
100
AcDbEntity
  8
1
  6
Continuous
 62
     3
100
AcDbCircle
 10
896.872994970257
 20
-346.5516970037775
 30
0.0
 40
3.000000000000036
100
AcDbArc
 50
99.59406822686034
 51
180.0
  0
ARC
  5
15B
330
32
100
AcDbEntity
  8
1
  6
Continuous
 62
     3
100
AcDbCircle
 10
774.4209067102593
 20
-337.1356070182147
 30
0.0
 40
1.5
100
AcDbArc
 50
180.0
 51
-90.0
  0
ARC
  5
15C
330
32
100
AcDbEntity
  8
1
  6
Continuous
 62
     3
100
AcDbCircle
 10
795.4209067102593
 20
-337.1356070182147
 30
0.0
 40
1.5
100
AcDbArc
 50
-90.0
 51
0.0
  0
ARC
  5
15D
330
32
100
AcDbEntity
  8
1
  6
Continuous
 62
     3
100
AcDbCircle
 10
772.0209067102592
 20
-385.6356070182147
 30
0.0
 40
16.5
100
AcDbArc
 50
-90.0
 51
-66.72293644951297
  0
ARC
  5
15E
330
32
100
AcDbEntity
  8
1
  6
Continuous
 62
     3
100
AcDbCircle
 10
780.5172294442423
 20
-405.3856070182147
 30
0.0
 40
5.0
100
AcDbArc
 50
90.0
 51
113.2770635504848
  0
ARC
  5
15F
330
32
100
AcDbEntity
  8
1
  6
Continuous
 62
     3
100
AcDbCircle
 10
819.133419629492
 20
-403.1356172206779
 30
0.0
 40
12.19125869093751
100
AcDbArc
 50
142.6491202543976
 51
175.5897496744901
  0
ARC
  5
160
330
32
100
AcDbEntity
  8
1
  6
Continuous
 62
     3
100
AcDbCircle
 10
819.133419629492
 20
-368.1356172206779
 30
0.0
 40
12.19125869093758
100
AcDbArc
 50
-175.5897496744909
 51
-142.6491202543983
  0
ARC
  5
161
330
32
100
AcDbEntity
  8
1
  6
Continuous
 62
     3
100
AcDbCircle
 10
828.608827605221
 20
-385.6356172206779
 30
0.0
 40
21.66666666666661
100
AcDbArc
 50
152.2042275039715
 51
-152.2042275039719
  0
ARC
  5
162
330
32
100
AcDbEntity
  8
1
  6
Continuous
 62
     3
100
AcDbCircle
 10
751.750902247617
 20
-368.1356172206779
 30
0.0
 40
12.19125869093741
100
AcDbArc
 50
-37.35087974560175
 51
-4.41025032550909
  0
ARC
  5
163
330
32
100
AcDbEntity
  8
1
  6
Continuous
 62
     3
100
AcDbCircle
 10
751.750902247617
 20
-403.1356172206779
 30
0.0
 40
12.19125869093759
100
AcDbArc
 50
4.41025032550988
 51
37.35087974560238
  0
ARC
  5
164
330
32
100
AcDbEntity
  8
1
  6
Continuous
 62
     3
100
AcDbCircle
 10
742.275494271888
 20
-385.6356172206779
 30
0.0
 40
21.66666666666653
100
AcDbArc
 50
-27.79577249602813
 51
27.79577249602853
  0
ARC
  5
165
330
32
100
AcDbEntity
  8
0
  6
Continuous
 62
     2
100
AcDbCircle
 10
784.9209067102593
 20
-384.5330610911917
 30
0.0
 40
1.102545927023016
100
AcDbArc
 50
-90.0
 51
0.0
  0
ARC
  5
166
330
32
100
AcDbEntity
  8
1
  6
Continuous
 62
     3
100
AcDbCircle
 10
796.8421609385546
 20
-365.335865412079
 30
0.0
 40
5.0
100
AcDbArc
 50
180.0
 51
-77.00000000000262
  0
ARC
  5
167
330
32
100
AcDbEntity
  8
1
  6
Continuous
 62
     3
100
AcDbCircle
 10
972.3729949702574
 20
-365.1896613633604
 30
0.0
 40
4.999999999999968
100
AcDbArc
 50
-102.9999999999974
 51
0.0
  0
ARC
  5
168
330
32
100
AcDbEntity
  8
1
  6
Continuous
 62
     3
100
AcDbCircle
 10
1026.939661636924
 20
-385.4894131719593
 30
0.0
 40
21.66666666666621
100
AcDbArc
 50
152.2042275039709
 51
-152.2042275039712
  0
ARC
  5
169
330
32
100
AcDbEntity
  8
1
  6
Continuous
 62
     3
100
AcDbCircle
 10
1017.464253661195
 20
-402.9894131719593
 30
0.0
 40
12.19125869093712
100
AcDbArc
 50
142.6491202543966
 51
175.5897496744901
  0
ARC
  5
16A
330
32
100
AcDbEntity
  8
1
  6
Continuous
 62
     3
100
AcDbCircle
 10
1017.464253661195
 20
-367.9894131719593
 30
0.0
 40
12.19125869093747
100
AcDbArc
 50
-175.5897496744906
 51
-142.649120254397
  0
ARC
  5
16B
330
32
100
AcDbEntity
  8
1
  6
Continuous
 62
     3
100
AcDbCircle
 10
940.606328303591
 20
-385.4894131719593
 30
0.0
 40
21.66666666666655
100
AcDbArc
 50
-27.79577249602826
 51
27.79577249602853
  0
ARC
  5
16C
330
32
100
AcDbEntity
  8
1
  6
Continuous
 62
     3
100
AcDbCircle
 10
950.08173627932
 20
-367.9894131719593
 30
0.0
 40
12.19125869093741
100
AcDbArc
 50
-37.35087974560175
 51
-4.41025032550935
  0
ARC
  5
16D
330
32
100
AcDbEntity
  8
1
  6
Continuous
 62
     3
100
AcDbCircle
 10
950.08173627932
 20
-402.9894131719593
 30
0.0
 40
12.19125869093759
100
AcDbArc
 50
4.41025032550988
 51
37.35087974560217
  0
ARC
  5
16E
330
32
100
AcDbEntity
  8
1
  6
Continuous
 62
     3
100
AcDbCircle
 10
988.6979264645697
 20
-405.2394029694962
 30
0.0
 40
4.999999999999956
100
AcDbArc
 50
66.72293644951543
 51
90.0
  0
ARC
  5
16F
330
32
100
AcDbEntity
  8
1
  6
Continuous
 62
     3
100
AcDbCircle
 10
997.1942491985528
 20
-385.4894029694962
 30
0.0
 40
16.5
100
AcDbArc
 50
-113.2770635504871
 51
-90.0
  0
ARC
  5
170
330
32
100
AcDbEntity
  8
1
  6
Continuous
 62
     3
100
AcDbCircle
 10
973.7942491985527
 20
-336.9894029694962
 30
0.0
 40
1.5
100
AcDbArc
 50
180.0
 51
-90.0
  0
ARC
  5
171
330
32
100
AcDbEntity
  8
1
  6
Continuous
 62
     3
100
AcDbCircle
 10
994.7942491985527
 20
-336.9894029694962
 30
0.0
 40
1.5
100
AcDbArc
 50
-90.0
 51
0.0
  0
CIRCLE
  5
172
330
32
100
AcDbEntity
  8
1
  6
Continuous
 62
     3
100
AcDbCircle
 10
636.9477732995447
 20
-385.6356172206779
 30
0.0
 40
13.04528177557108
  0
CIRCLE
  5
173
330
32
100
AcDbEntity
  8
1
  6
Continuous
 62
     3
100
AcDbCircle
 10
636.9477732995447
 20
-385.6356172206779
 30
0.0
 40
12.01271698302588
  0
CIRCLE
  5
174
330
32
100
AcDbEntity
  8
1
  6
Continuous
 62
     3
100
AcDbCircle
 10
886.872994970257
 20
-385.6356172206779
 30
0.0
 40
12.01271698302588
  0
CIRCLE
  5
175
330
32
100
AcDbEntity
  8
1
  6
Continuous
 62
     3
100
AcDbCircle
 10
886.872994970257
 20
-385.6356172206779
 30
0.0
 40
13.04528177557108
  0
ARC
  5
176
330
32
100
AcDbEntity
  8
1
  6
DASHED
 62
     2
100
AcDbCircle
 10
794.5396700144697
 20
-154.8902222516763
 30
0.0
 40
5.0
100
AcDbArc
 50
-90.0
 51
-77.00000000000262
  0
ARC
  5
177
330
32
100
AcDbEntity
  8
1
  6
DASHED
 62
     2
100
AcDbCircle
 10
794.5396700144697
 20
-154.8902222516763
 30
0.0
 40
5.0
100
AcDbArc
 50
-90.0
 51
-77.00000000000262
  0
ARC
  5
178
330
32
100
AcDbEntity
  8
1
  6
DASHED
 62
     2
100
AcDbCircle
 10
794.5396700144697
 20
-194.3902222516763
 30
0.0
 40
4.999999999999968
100
AcDbArc
 50
77.00000000000262
 51
90.0
  0
ARC
  5
179
330
32
100
AcDbEntity
  8
1
  6
DASHED
 62
     2
100
AcDbCircle
 10
794.5396700144697
 20
-194.3902222516763
 30
0.0
 40
4.999999999999968
100
AcDbArc
 50
77.00000000000262
 51
90.0
  0
ARC
  5
17A
330
32
100
AcDbEntity
  8
1
  6
Continuous
 62
     3
100
AcDbCircle
 10
645.9477732995447
 20
-340.6356172206779
 30
0.0
 40
2.999999999999981
100
AcDbArc
 50
-80.40593177313947
 51
0.0
  0
ARC
  5
17B
330
32
100
AcDbEntity
  8
1
  6
Continuous
 62
     3
100
AcDbCircle
 10
627.9477732995447
 20
-340.6356172206779
 30
0.0
 40
3.0
100
AcDbArc
 50
180.0
 51
-99.59406822686053
  0
ARC
  5
17C
330
32
100
AcDbEntity
  8
1
  6
Continuous
 62
     3
100
AcDbCircle
 10
623.4477732995447
 20
-340.1356172206779
 30
0.0
 40
1.5
100
AcDbArc
 50
0.0
 51
90.0
  0
ARC
  5
17D
330
32
100
AcDbEntity
  8
1
  6
Continuous
 62
     3
100
AcDbCircle
 10
650.4477732995447
 20
-340.1356172206779
 30
0.0
 40
1.5
100
AcDbArc
 50
90.0
 51
180.0
  0
ARC
  5
17E
330
32
100
AcDbEntity
  8
1
  6
Continuous
 62
     3
100
AcDbCircle
 10
659.4477732995451
 20
-337.1356172206779
 30
0.0
 40
1.5
100
AcDbArc
 50
-90.0
 51
0.0
  0
ARC
  5
17F
330
32
100
AcDbEntity
  8
1
  6
Continuous
 62
     3
100
AcDbCircle
 10
614.4477732995447
 20
-335.1356172206779
 30
0.0
 40
1.499999999999796
100
AcDbArc
 50
160.5287793655066
 51
180.0
  0
ARC
  5
180
330
32
100
AcDbEntity
  8
1
  6
Continuous
 62
     3
100
AcDbCircle
 10
614.4477732995447
 20
-337.1356172206779
 30
0.0
 40
1.5
100
AcDbArc
 50
180.0
 51
-90.0
  0
ARC
  5
181
330
32
100
AcDbEntity
  8
1
  6
Continuous
 62
     3
100
AcDbCircle
 10
659.4477732995451
 20
-335.1356172206779
 30
0.0
 40
1.5
100
AcDbArc
 50
0.0
 51
19.47122063449753
  0
ARC
  5
182
330
32
100
AcDbEntity
  8
1
  6
Continuous
 62
     3
100
AcDbCircle
 10
909.3729949702574
 20
-335.1356172206779
 30
0.0
 40
1.5
100
AcDbArc
 50
0.0
 51
19.47122063449753
  0
ARC
  5
183
330
32
100
AcDbEntity
  8
1
  6
Continuous
 62
     3
100
AcDbCircle
 10
864.372994970257
 20
-337.1356172206779
 30
0.0
 40
1.5
100
AcDbArc
 50
180.0
 51
-90.0
  0
ARC
  5
184
330
32
100
AcDbEntity
  8
1
  6
Continuous
 62
     3
100
AcDbCircle
 10
864.372994970257
 20
-335.1356172206779
 30
0.0
 40
1.499999999999796
100
AcDbArc
 50
160.5287793655066
 51
180.0
  0
ARC
  5
185
330
32
100
AcDbEntity
  8
1
  6
Continuous
 62
     3
100
AcDbCircle
 10
909.3729949702574
 20
-337.1356172206779
 30
0.0
 40
1.5
100
AcDbArc
 50
-90.0
 51
0.0
  0
ARC
  5
186
330
32
100
AcDbEntity
  8
1
  6
Continuous
 62
     3
100
AcDbCircle
 10
900.372994970257
 20
-340.1356172206779
 30
0.0
 40
1.5
100
AcDbArc
 50
90.0
 51
180.0
  0
ARC
  5
187
330
32
100
AcDbEntity
  8
1
  6
Continuous
 62
     3
100
AcDbCircle
 10
873.372994970257
 20
-340.1356172206779
 30
0.0
 40
1.5
100
AcDbArc
 50
0.0
 51
90.0
  0
ARC
  5
188
330
32
100
AcDbEntity
  8
1
  6
Continuous
 62
     3
100
AcDbCircle
 10
877.872994970257
 20
-340.6356172206779
 30
0.0
 40
3.0
100
AcDbArc
 50
180.0
 51
-99.59406822686053
  0
ARC
  5
189
330
32
100
AcDbEntity
  8
1
  6
Continuous
 62
     3
100
AcDbCircle
 10
895.872994970257
 20
-340.6356172206779
 30
0.0
 40
2.999999999999981
100
AcDbArc
 50
-80.40593177313947
 51
0.0
  0
ARC
  5
18A
330
32
100
AcDbEntity
  8
1
  6
Continuous
 62
     3
100
AcDbCircle
 10
776.4209067102593
 20
-345.1356070182147
 30
0.0
 40
1.5
100
AcDbArc
 50
0.0
 51
90.0
  0
ARC
  5
18B
330
32
100
AcDbEntity
  8
1
  6
Continuous
 62
     3
100
AcDbCircle
 10
795.9209067102593
 20
-340.6356070182147
 30
0.0
 40
3.0
100
AcDbArc
 50
-90.0
 51
0.0
  0
ARC
  5
18C
330
32
100
AcDbEntity
  8
1
  6
Continuous
 62
     3
100
AcDbCircle
 10
775.9209067102593
 20
-340.6356070182147
 30
0.0
 40
3.0
100
AcDbArc
 50
180.0
 51
-90.0
  0
ARC
  5
18D
330
32
100
AcDbEntity
  8
1
  6
Continuous
 62
     3
100
AcDbCircle
 10
774.4209067102593
 20
-335.1356070182147
 30
0.0
 40
1.500000000000225
100
AcDbArc
 50
160.5287793655124
 51
180.0
  0
ARC
  5
18E
330
32
100
AcDbEntity
  8
1
  6
Continuous
 62
     3
100
AcDbCircle
 10
793.4209067102593
 20
-345.1356070182147
 30
0.0
 40
1.5
100
AcDbArc
 50
90.0
 51
180.0
  0
ARC
  5
18F
330
32
100
AcDbEntity
  8
1
  6
Continuous
 62
     3
100
AcDbCircle
 10
793.9209067102593
 20
-340.6356070182147
 30
0.0
 40
3.0
100
AcDbArc
 50
-90.0
 51
0.0
  0
ARC
  5
190
330
32
100
AcDbEntity
  8
1
  6
Continuous
 62
     3
100
AcDbCircle
 10
765.7529575178282
 20
-405.1356070182147
 30
0.0
 40
3.0
100
AcDbArc
 50
90.0
 51
138.1899465260091
  0
ARC
  5
191
330
32
100
AcDbEntity
  8
1
  6
Continuous
 62
     3
100
AcDbCircle
 10
794.5396700144697
 20
-405.3856070182147
 30
0.0
 40
5.000000000000023
100
AcDbArc
 50
77.00000000000277
 51
90.0
  0
ARC
  5
192
330
32
100
AcDbEntity
  8
1
  6
Continuous
 62
     3
100
AcDbCircle
 10
794.5396700144697
 20
-405.3856070182147
 30
0.0
 40
5.000000000000023
100
AcDbArc
 50
77.00000000000277
 51
90.0
  0
ARC
  5
193
330
32
100
AcDbEntity
  8
1
  6
Continuous
 62
     3
100
AcDbCircle
 10
772.8421609385546
 20
-364.1356172206779
 30
0.0
 40
5.0
100
AcDbArc
 50
-90.0
 51
0.0
  0
ARC
  5
194
330
32
100
AcDbEntity
  8
1
  6
Continuous
 62
     3
100
AcDbCircle
 10
797.4209067102593
 20
-335.1356070182147
 30
0.0
 40
1.5
100
AcDbArc
 50
0.0
 51
19.47122063449344
  0
ARC
  5
195
330
32
100
AcDbEntity
  8
1
  6
Continuous
 62
     3
100
AcDbCircle
 10
795.4209067102593
 20
-335.1356070182147
 30
0.0
 40
1.5
100
AcDbArc
 50
0.0
 51
19.47122063449344
  0
ARC
  5
196
330
32
100
AcDbEntity
  8
1
  6
Continuous
 62
     3
100
AcDbCircle
 10
973.7942491985527
 20
-334.9894029694962
 30
0.0
 40
1.499999999999796
100
AcDbArc
 50
160.5287793655066
 51
180.0
  0
ARC
  5
197
330
32
100
AcDbEntity
  8
1
  6
Continuous
 62
     3
100
AcDbCircle
 10
971.7942491985527
 20
-334.9894029694962
 30
0.0
 40
1.499999999999796
100
AcDbArc
 50
160.5287793655066
 51
180.0
  0
ARC
  5
198
330
32
100
AcDbEntity
  8
1
  6
Continuous
 62
     3
100
AcDbCircle
 10
996.3729949702574
 20
-363.9894131719593
 30
0.0
 40
5.0
100
AcDbArc
 50
180.0
 51
-90.0
  0
ARC
  5
199
330
32
100
AcDbEntity
  8
1
  6
Continuous
 62
     3
100
AcDbCircle
 10
974.6754858943423
 20
-405.2394029694962
 30
0.0
 40
5.0
100
AcDbArc
 50
90.0
 51
102.9999999999971
  0
ARC
  5
19A
330
32
100
AcDbEntity
  8
1
  6
Continuous
 62
     3
100
AcDbCircle
 10
974.6754858943423
 20
-405.2394029694962
 30
0.0
 40
5.0
100
AcDbArc
 50
90.0
 51
102.9999999999971
  0
ARC
  5
19B
330
32
100
AcDbEntity
  8
1
  6
Continuous
 62
     3
100
AcDbCircle
 10
1003.462198390984
 20
-404.9894029694962
 30
0.0
 40
2.999999999999814
100
AcDbArc
 50
41.81005347399609
 51
90.0
  0
ARC
  5
19C
330
32
100
AcDbEntity
  8
1
  6
Continuous
 62
     3
100
AcDbCircle
 10
975.2942491985527
 20
-340.4894029694962
 30
0.0
 40
3.0
100
AcDbArc
 50
180.0
 51
-90.0
  0
ARC
  5
19D
330
32
100
AcDbEntity
  8
1
  6
Continuous
 62
     3
100
AcDbCircle
 10
975.7942491985527
 20
-344.9894029694962
 30
0.0
 40
1.5
100
AcDbArc
 50
0.0
 51
90.0
  0
ARC
  5
19E
330
32
100
AcDbEntity
  8
1
  6
Continuous
 62
     3
100
AcDbCircle
 10
994.7942491985527
 20
-334.9894029694962
 30
0.0
 40
1.5
100
AcDbArc
 50
0.0
 51
19.47122063448765
  0
ARC
  5
19F
330
32
100
AcDbEntity
  8
1
  6
Continuous
 62
     3
100
AcDbCircle
 10
993.2942491985527
 20
-340.4894029694962
 30
0.0
 40
3.0
100
AcDbArc
 50
-90.0
 51
0.0
  0
ARC
  5
1A0
330
32
100
AcDbEntity
  8
1
  6
Continuous
 62
     3
100
AcDbCircle
 10
973.2942491985527
 20
-340.4894029694962
 30
0.0
 40
3.0
100
AcDbArc
 50
180.0
 51
-90.0
  0
ARC
  5
1A1
330
32
100
AcDbEntity
  8
1
  6
Continuous
 62
     3
100
AcDbCircle
 10
992.7942491985527
 20
-344.9894029694962
 30
0.0
 40
1.5
100
AcDbArc
 50
90.0
 51
180.0
  0
TEXT
  5
1A3
330
32
100
AcDbEntity
  8
1
 62
     2
100
AcDbText
 10
780.5421609385544
 20
-380.4854865008388
 30
0.0
 40
5.0
  1
20
 41
1.045
  7
CONVERTER_1
100
AcDbText
  0
TEXT
  5
1A4
330
32
100
AcDbEntity
  8
1
 62
     2
100
AcDbText
 10
777.7421609385547
 20
-395.7857479405169
 30
0.0
 40
5.0
  1
20K
 41
1.045
  7
CONVERTER_1
100
AcDbText
  0
ENDBLK
  5
34
330
32
100
AcDbEntity
  8
0
100
AcDbBlockEnd
  0
BLOCK
  5
36
330
35
100
AcDbEntity
  8
0
100
AcDbBlockBegin
  2
7
 70
     0
 71
     0
 10
612.4477732995447
 20
-335.6356070182147
 30
0.0
  3
7
  1

  0
LINE
  5
1A5
330
35
100
AcDbEntity
  8
1
  6
DASH_CENTER
 62
     1
100
AcDbLine
 10
636.9477732995447
 20
-330.1488417011445
 30
0.0
 11
636.9477732995447
 21
-335.6356070182147
 31
0.0
  0
LINE
  5
1A6
330
35
100
AcDbEntity
  8
1
  6
Continuous
 62
     3
100
AcDbLine
 10
612.4477732995447
 20
-334.6356070182147
 30
0.0
 11
612.4477732995447
 21
-333.6356070182147
 31
0.0
  0
LINE
  5
1A7
330
35
100
AcDbEntity
  8
1
  6
Continuous
 62
     3
100
AcDbLine
 10
612.4477732995447
 20
-333.6356070182147
 30
0.0
 11
661.4477732995447
 21
-333.6356070182147
 31
0.0
  0
LINE
  5
1A8
330
35
100
AcDbEntity
  8
1
  6
Continuous
 62
     3
100
AcDbLine
 10
661.4477732995447
 20
-333.6356070182147
 30
0.0
 11
661.4477732995447
 21
-334.6356070182147
 31
0.0
  0
LINE
  5
1A9
330
35
100
AcDbEntity
  8
1
  6
Continuous
 62
     3
100
AcDbLine
 10
612.4477732995447
 20
-334.6356070182147
 30
0.0
 11
661.4477732995447
 21
-334.6356070182147
 31
0.0
  0
LINE
  5
1AA
330
35
100
AcDbEntity
  8
1
  6
Continuous
 62
     3
100
AcDbLine
 10
862.372994970257
 20
-334.6356070182147
 30
0.0
 11
911.372994970257
 21
-334.6356070182147
 31
0.0
  0
LINE
  5
1AB
330
35
100
AcDbEntity
  8
1
  6
Continuous
 62
     3
100
AcDbLine
 10
911.372994970257
 20
-333.6356070182147
 30
0.0
 11
911.372994970257
 21
-334.6356070182147
 31
0.0
  0
LINE
  5
1AC
330
35
100
AcDbEntity
  8
1
  6
Continuous
 62
     3
100
AcDbLine
 10
862.372994970257
 20
-333.6356070182147
 30
0.0
 11
911.372994970257
 21
-333.6356070182147
 31
0.0
  0
LINE
  5
1AD
330
35
100
AcDbEntity
  8
1
  6
Continuous
 62
     3
100
AcDbLine
 10
862.372994970257
 20
-334.6356070182147
 30
0.0
 11
862.372994970257
 21
-333.6356070182147
 31
0.0
  0
LINE
  5
1AE
330
35
100
AcDbEntity
  8
1
  6
DASH_CENTER
 62
     1
100
AcDbLine
 10
886.872994970257
 20
-330.1488417011445
 30
0.0
 11
886.872994970257
 21
-335.6356070182147
 31
0.0
  0
LINE
  5
1AF
330
35
100
AcDbEntity
  8
1
  6
DASH_CENTER
 62
     1
100
AcDbLine
 10
784.8421609385546
 20
-330.1488417011445
 30
0.0
 11
784.8421609385546
 21
-335.6356070182147
 31
0.0
  0
LINE
  5
1B0
330
35
100
AcDbEntity
  8
1
  6
Continuous
 62
     3
100
AcDbLine
 10
773.3421609385546
 20
-334.6356070182147
 30
0.0
 11
773.3421609385546
 21
-333.6356070182147
 31
0.0
  0
LINE
  5
1B1
330
35
100
AcDbEntity
  8
1
  6
Continuous
 62
     3
100
AcDbLine
 10
773.3421609385546
 20
-333.6356070182147
 30
0.0
 11
796.3421609385546
 21
-333.6356070182147
 31
0.0
  0
LINE
  5
1B2
330
35
100
AcDbEntity
  8
1
  6
Continuous
 62
     3
100
AcDbLine
 10
796.3421609385546
 20
-333.6356070182147
 30
0.0
 11
796.3421609385546
 21
-334.6356070182147
 31
0.0
  0
LINE
  5
1B3
330
35
100
AcDbEntity
  8
1
  6
Continuous
 62
     3
100
AcDbLine
 10
773.3421609385546
 20
-334.6356070182147
 30
0.0
 11
796.3421609385546
 21
-334.6356070182147
 31
0.0
  0
LINE
  5
1B4
330
35
100
AcDbEntity
  8
1
  6
Continuous
 62
     3
100
AcDbLine
 10
972.872994970257
 20
-334.4894029694962
 30
0.0
 11
995.872994970257
 21
-334.4894029694962
 31
0.0
  0
LINE
  5
1B5
330
35
100
AcDbEntity
  8
1
  6
Continuous
 62
     3
100
AcDbLine
 10
995.872994970257
 20
-333.4894029694962
 30
0.0
 11
995.872994970257
 21
-334.4894029694962
 31
0.0
  0
LINE
  5
1B6
330
35
100
AcDbEntity
  8
1
  6
Continuous
 62
     3
100
AcDbLine
 10
972.872994970257
 20
-333.4894029694962
 30
0.0
 11
995.872994970257
 21
-333.4894029694962
 31
0.0
  0
LINE
  5
1B7
330
35
100
AcDbEntity
  8
1
  6
Continuous
 62
     3
100
AcDbLine
 10
972.872994970257
 20
-334.4894029694962
 30
0.0
 11
972.872994970257
 21
-333.4894029694962
 31
0.0
  0
LINE
  5
1B8
330
35
100
AcDbEntity
  8
1
  6
DASH_CENTER
 62
     1
100
AcDbLine
 10
984.372994970257
 20
-330.0026376524259
 30
0.0
 11
984.372994970257
 21
-335.4894029694962
 31
0.0
  0
ENDBLK
  5
37
330
35
100
AcDbEntity
  8
0
100
AcDbBlockEnd
  0
BLOCK
  5
39
330
38
100
AcDbEntity
  8
0
100
AcDbBlockBegin
  2
3
 70
     0
 71
     0
 10
613.9477732995449
 20
-347.3739443588877
 30
0.0
  3
3
  1

  0
LINE
  5
1B9
330
38
100
AcDbEntity
  8
1
  6
Continuous
 62
     3
100
AcDbLine
 10
649.9477732995451
 20
-338.6356172206779
 30
0.0
 11
659.9477732995451
 21
-338.6356172206779
 31
0.0
  0
LINE
  5
1BA
330
38
100
AcDbEntity
  8
1
  6
DOT_CENTER
 62
     1
100
AcDbLine
 10
654.9477732995451
 20
-334.3673259097147
 30
0.0
 11
654.9477732995451
 21
-347.3739443588877
 31
0.0
  0
LINE
  5
1BB
330
38
100
AcDbEntity
  8
1
  6
Continuous
 62
     3
100
AcDbLine
 10
655.9477732995451
 20
-339.6356172206779
 30
0.0
 11
659.9477732995451
 21
-339.6356172206779
 31
0.0
  0
LINE
  5
1BC
330
38
100
AcDbEntity
  8
1
  6
Continuous
 62
     3
100
AcDbLine
 10
654.9477732995451
 20
-340.6356172206779
 30
0.0
 11
653.9477732995451
 21
-340.6356172206779
 31
0.0
  0
LINE
  5
1BD
330
38
100
AcDbEntity
  8
1
  6
Continuous
 62
     3
100
AcDbLine
 10
654.9477732995451
 20
-340.6356172206779
 30
0.0
 11
655.9477732995451
 21
-339.6356172206779
 31
0.0
  0
LINE
  5
1BE
330
38
100
AcDbEntity
  8
1
  6
Continuous
 62
     3
100
AcDbLine
 10
653.9477732995451
 20
-340.6356172206779
 30
0.0
 11
650.4477732995451
 21
-340.6356172206779
 31
0.0
  0
LINE
  5
1BF
330
38
100
AcDbEntity
  8
1
  6
Continuous
 62
     3
100
AcDbLine
 10
654.9477732995451
 20
-339.6356172206779
 30
0.0
 11
655.9477732995451
 21
-339.6356172206779
 31
0.0
  0
LINE
  5
1C0
330
38
100
AcDbEntity
  8
1
  6
DASH_CENTER
 62
     3
100
AcDbLine
 10
654.9477732995451
 20
-339.6356172206779
 30
0.0
 11
654.9477732995451
 21
-340.6356172206779
 31
0.0
  0
LINE
  5
1C1
330
38
100
AcDbEntity
  8
1
  6
Continuous
 62
     3
100
AcDbLine
 10
654.9477732995451
 20
-339.6356172206779
 30
0.0
 11
653.9477732995451
 21
-340.6356172206779
 31
0.0
  0
LINE
  5
1C2
330
38
100
AcDbEntity
  8
1
  6
Continuous
 62
     3
100
AcDbLine
 10
659.9477732995451
 20
-339.6356172206779
 30
0.0
 11
659.9477732995451
 21
-338.6356172206779
 31
0.0
  0
LINE
  5
1C3
330
38
100
AcDbEntity
  8
1
  6
Continuous
 62
     3
100
AcDbLine
 10
649.9477732995451
 20
-339.6356172206779
 30
0.0
 11
654.9477732995451
 21
-339.6356172206779
 31
0.0
  0
LINE
  5
1C4
330
38
100
AcDbEntity
  8
1
  6
Continuous
 62
     3
100
AcDbLine
 10
649.9477732995451
 20
-338.6356172206779
 30
0.0
 11
649.9477732995451
 21
-339.6356172206779
 31
0.0
  0
LINE
  5
1C5
330
38
100
AcDbEntity
  8
1
  6
Continuous
 62
     3
100
AcDbLine
 10
650.4477732995451
 20
-340.6356172206779
 30
0.0
 11
650.4477732995451
 21
-339.6356172206779
 31
0.0
  0
LINE
  5
1C6
330
38
100
AcDbEntity
  8
1
  6
Continuous
 62
     3
100
AcDbLine
 10
659.4477732995451
 20
-340.6356172206779
 30
0.0
 11
659.4477732995451
 21
-339.6356172206779
 31
0.0
  0
LINE
  5
1C7
330
38
100
AcDbEntity
  8
1
  6
Continuous
 62
     3
100
AcDbLine
 10
659.4477732995451
 20
-345.6356172206779
 30
0.0
 11
659.4477732995451
 21
-340.6356172206779
 31
0.0
  0
LINE
  5
1C8
330
38
100
AcDbEntity
  8
1
  6
Continuous
 62
     3
100
AcDbLine
 10
650.4477732995451
 20
-345.6356172206779
 30
0.0
 11
659.4477732995451
 21
-345.6356172206779
 31
0.0
  0
LINE
  5
1C9
330
38
100
AcDbEntity
  8
1
  6
Continuous
 62
     3
100
AcDbLine
 10
650.4477732995451
 20
-340.6356172206779
 30
0.0
 11
650.4477732995451
 21
-345.6356172206779
 31
0.0
  0
LINE
  5
1CA
330
38
100
AcDbEntity
  8
1
  6
Continuous
 62
     3
100
AcDbLine
 10
659.4477732995451
 20
-340.6356172206779
 30
0.0
 11
654.9477732995451
 21
-340.6356172206779
 31
0.0
  0
LINE
  5
1CB
330
38
100
AcDbEntity
  8
1
  6
Continuous
 62
     3
100
AcDbLine
 10
623.4477732995449
 20
-340.6356172206779
 30
0.0
 11
618.9477732995449
 21
-340.6356172206779
 31
0.0
  0
LINE
  5
1CC
330
38
100
AcDbEntity
  8
1
  6
Continuous
 62
     3
100
AcDbLine
 10
614.4477732995449
 20
-340.6356172206779
 30
0.0
 11
614.4477732995449
 21
-345.6356172206779
 31
0.0
  0
LINE
  5
1CD
330
38
100
AcDbEntity
  8
1
  6
Continuous
 62
     3
100
AcDbLine
 10
614.4477732995449
 20
-345.6356172206779
 30
0.0
 11
623.4477732995449
 21
-345.6356172206779
 31
0.0
  0
LINE
  5
1CE
330
38
100
AcDbEntity
  8
1
  6
Continuous
 62
     3
100
AcDbLine
 10
623.4477732995449
 20
-345.6356172206779
 30
0.0
 11
623.4477732995449
 21
-340.6356172206779
 31
0.0
  0
LINE
  5
1CF
330
38
100
AcDbEntity
  8
1
  6
Continuous
 62
     3
100
AcDbLine
 10
623.4477732995449
 20
-340.6356172206779
 30
0.0
 11
623.4477732995449
 21
-339.6356172206779
 31
0.0
  0
LINE
  5
1D0
330
38
100
AcDbEntity
  8
1
  6
Continuous
 62
     3
100
AcDbLine
 10
614.4477732995449
 20
-340.6356172206779
 30
0.0
 11
614.4477732995449
 21
-339.6356172206779
 31
0.0
  0
LINE
  5
1D1
330
38
100
AcDbEntity
  8
1
  6
Continuous
 62
     3
100
AcDbLine
 10
613.9477732995449
 20
-338.6356172206779
 30
0.0
 11
613.9477732995449
 21
-339.6356172206779
 31
0.0
  0
LINE
  5
1D2
330
38
100
AcDbEntity
  8
1
  6
Continuous
 62
     3
100
AcDbLine
 10
613.9477732995449
 20
-339.6356172206779
 30
0.0
 11
618.9477732995449
 21
-339.6356172206779
 31
0.0
  0
LINE
  5
1D3
330
38
100
AcDbEntity
  8
1
  6
Continuous
 62
     3
100
AcDbLine
 10
623.9477732995449
 20
-339.6356172206779
 30
0.0
 11
623.9477732995449
 21
-338.6356172206779
 31
0.0
  0
LINE
  5
1D4
330
38
100
AcDbEntity
  8
1
  6
Continuous
 62
     3
100
AcDbLine
 10
618.9477732995449
 20
-339.6356172206779
 30
0.0
 11
617.9477732995449
 21
-340.6356172206779
 31
0.0
  0
LINE
  5
1D5
330
38
100
AcDbEntity
  8
1
  6
DASH_CENTER
 62
     3
100
AcDbLine
 10
618.9477732995449
 20
-339.6356172206779
 30
0.0
 11
618.9477732995449
 21
-340.6356172206779
 31
0.0
  0
LINE
  5
1D6
330
38
100
AcDbEntity
  8
1
  6
Continuous
 62
     3
100
AcDbLine
 10
618.9477732995449
 20
-339.6356172206779
 30
0.0
 11
619.9477732995449
 21
-339.6356172206779
 31
0.0
  0
LINE
  5
1D7
330
38
100
AcDbEntity
  8
1
  6
Continuous
 62
     3
100
AcDbLine
 10
617.9477732995449
 20
-340.6356172206779
 30
0.0
 11
614.4477732995449
 21
-340.6356172206779
 31
0.0
  0
LINE
  5
1D8
330
38
100
AcDbEntity
  8
1
  6
Continuous
 62
     3
100
AcDbLine
 10
618.9477732995449
 20
-340.6356172206779
 30
0.0
 11
619.9477732995449
 21
-339.6356172206779
 31
0.0
  0
LINE
  5
1D9
330
38
100
AcDbEntity
  8
1
  6
Continuous
 62
     3
100
AcDbLine
 10
618.9477732995449
 20
-340.6356172206779
 30
0.0
 11
617.9477732995449
 21
-340.6356172206779
 31
0.0
  0
LINE
  5
1DA
330
38
100
AcDbEntity
  8
1
  6
Continuous
 62
     3
100
AcDbLine
 10
619.9477732995449
 20
-339.6356172206779
 30
0.0
 11
623.9477732995449
 21
-339.6356172206779
 31
0.0
  0
LINE
  5
1DB
330
38
100
AcDbEntity
  8
1
  6
DOT_CENTER
 62
     1
100
AcDbLine
 10
618.9477732995449
 20
-334.3673259097147
 30
0.0
 11
618.9477732995449
 21
-347.3739443588877
 31
0.0
  0
LINE
  5
1DC
330
38
100
AcDbEntity
  8
1
  6
Continuous
 62
     3
100
AcDbLine
 10
613.9477732995449
 20
-338.6356172206779
 30
0.0
 11
623.9477732995449
 21
-338.6356172206779
 31
0.0
  0
LINE
  5
1DD
330
38
100
AcDbEntity
  8
1
  6
Continuous
 62
     3
100
AcDbLine
 10
863.8729949702572
 20
-338.6356172206779
 30
0.0
 11
873.8729949702572
 21
-338.6356172206779
 31
0.0
  0
LINE
  5
1DE
330
38
100
AcDbEntity
  8
1
  6
DOT_CENTER
 62
     1
100
AcDbLine
 10
868.8729949702572
 20
-334.3673259097147
 30
0.0
 11
868.8729949702572
 21
-347.3739443588877
 31
0.0
  0
LINE
  5
1DF
330
38
100
AcDbEntity
  8
1
  6
Continuous
 62
     3
100
AcDbLine
 10
869.8729949702572
 20
-339.6356172206779
 30
0.0
 11
873.8729949702572
 21
-339.6356172206779
 31
0.0
  0
LINE
  5
1E0
330
38
100
AcDbEntity
  8
1
  6
Continuous
 62
     3
100
AcDbLine
 10
868.8729949702572
 20
-340.6356172206779
 30
0.0
 11
867.8729949702572
 21
-340.6356172206779
 31
0.0
  0
LINE
  5
1E1
330
38
100
AcDbEntity
  8
1
  6
Continuous
 62
     3
100
AcDbLine
 10
868.8729949702572
 20
-340.6356172206779
 30
0.0
 11
869.8729949702572
 21
-339.6356172206779
 31
0.0
  0
LINE
  5
1E2
330
38
100
AcDbEntity
  8
1
  6
Continuous
 62
     3
100
AcDbLine
 10
867.8729949702572
 20
-340.6356172206779
 30
0.0
 11
864.3729949702572
 21
-340.6356172206779
 31
0.0
  0
LINE
  5
1E3
330
38
100
AcDbEntity
  8
1
  6
Continuous
 62
     3
100
AcDbLine
 10
868.8729949702572
 20
-339.6356172206779
 30
0.0
 11
869.8729949702572
 21
-339.6356172206779
 31
0.0
  0
LINE
  5
1E4
330
38
100
AcDbEntity
  8
1
  6
DASH_CENTER
 62
     3
100
AcDbLine
 10
868.8729949702572
 20
-339.6356172206779
 30
0.0
 11
868.8729949702572
 21
-340.6356172206779
 31
0.0
  0
LINE
  5
1E5
330
38
100
AcDbEntity
  8
1
  6
Continuous
 62
     3
100
AcDbLine
 10
868.8729949702572
 20
-339.6356172206779
 30
0.0
 11
867.8729949702572
 21
-340.6356172206779
 31
0.0
  0
LINE
  5
1E6
330
38
100
AcDbEntity
  8
1
  6
Continuous
 62
     3
100
AcDbLine
 10
873.8729949702572
 20
-339.6356172206779
 30
0.0
 11
873.8729949702572
 21
-338.6356172206779
 31
0.0
  0
LINE
  5
1E7
330
38
100
AcDbEntity
  8
1
  6
Continuous
 62
     3
100
AcDbLine
 10
863.8729949702572
 20
-339.6356172206779
 30
0.0
 11
868.8729949702572
 21
-339.6356172206779
 31
0.0
  0
LINE
  5
1E8
330
38
100
AcDbEntity
  8
1
  6
Continuous
 62
     3
100
AcDbLine
 10
863.8729949702572
 20
-338.6356172206779
 30
0.0
 11
863.8729949702572
 21
-339.6356172206779
 31
0.0
  0
LINE
  5
1E9
330
38
100
AcDbEntity
  8
1
  6
Continuous
 62
     3
100
AcDbLine
 10
864.3729949702572
 20
-340.6356172206779
 30
0.0
 11
864.3729949702572
 21
-339.6356172206779
 31
0.0
  0
LINE
  5
1EA
330
38
100
AcDbEntity
  8
1
  6
Continuous
 62
     3
100
AcDbLine
 10
873.3729949702572
 20
-340.6356172206779
 30
0.0
 11
873.3729949702572
 21
-339.6356172206779
 31
0.0
  0
LINE
  5
1EB
330
38
100
AcDbEntity
  8
1
  6
Continuous
 62
     3
100
AcDbLine
 10
873.3729949702572
 20
-345.6356172206779
 30
0.0
 11
873.3729949702572
 21
-340.6356172206779
 31
0.0
  0
LINE
  5
1EC
330
38
100
AcDbEntity
  8
1
  6
Continuous
 62
     3
100
AcDbLine
 10
864.3729949702572
 20
-345.6356172206779
 30
0.0
 11
873.3729949702572
 21
-345.6356172206779
 31
0.0
  0
LINE
  5
1ED
330
38
100
AcDbEntity
  8
1
  6
Continuous
 62
     3
100
AcDbLine
 10
864.3729949702572
 20
-340.6356172206779
 30
0.0
 11
864.3729949702572
 21
-345.6356172206779
 31
0.0
  0
LINE
  5
1EE
330
38
100
AcDbEntity
  8
1
  6
Continuous
 62
     3
100
AcDbLine
 10
873.3729949702572
 20
-340.6356172206779
 30
0.0
 11
868.8729949702572
 21
-340.6356172206779
 31
0.0
  0
LINE
  5
1EF
330
38
100
AcDbEntity
  8
1
  6
Continuous
 62
     3
100
AcDbLine
 10
909.3729949702574
 20
-340.6356172206779
 30
0.0
 11
904.8729949702574
 21
-340.6356172206779
 31
0.0
  0
LINE
  5
1F0
330
38
100
AcDbEntity
  8
1
  6
Continuous
 62
     3
100
AcDbLine
 10
900.3729949702574
 20
-340.6356172206779
 30
0.0
 11
900.3729949702574
 21
-345.6356172206779
 31
0.0
  0
LINE
  5
1F1
330
38
100
AcDbEntity
  8
1
  6
Continuous
 62
     3
100
AcDbLine
 10
900.3729949702574
 20
-345.6356172206779
 30
0.0
 11
909.3729949702574
 21
-345.6356172206779
 31
0.0
  0
LINE
  5
1F2
330
38
100
AcDbEntity
  8
1
  6
Continuous
 62
     3
100
AcDbLine
 10
909.3729949702574
 20
-345.6356172206779
 30
0.0
 11
909.3729949702574
 21
-340.6356172206779
 31
0.0
  0
LINE
  5
1F3
330
38
100
AcDbEntity
  8
1
  6
Continuous
 62
     3
100
AcDbLine
 10
909.3729949702574
 20
-340.6356172206779
 30
0.0
 11
909.3729949702574
 21
-339.6356172206779
 31
0.0
  0
LINE
  5
1F4
330
38
100
AcDbEntity
  8
1
  6
Continuous
 62
     3
100
AcDbLine
 10
900.3729949702574
 20
-340.6356172206779
 30
0.0
 11
900.3729949702574
 21
-339.6356172206779
 31
0.0
  0
LINE
  5
1F5
330
38
100
AcDbEntity
  8
1
  6
Continuous
 62
     3
100
AcDbLine
 10
899.8729949702574
 20
-338.6356172206779
 30
0.0
 11
899.8729949702574
 21
-339.6356172206779
 31
0.0
  0
LINE
  5
1F6
330
38
100
AcDbEntity
  8
1
  6
Continuous
 62
     3
100
AcDbLine
 10
899.8729949702574
 20
-339.6356172206779
 30
0.0
 11
904.8729949702574
 21
-339.6356172206779
 31
0.0
  0
LINE
  5
1F7
330
38
100
AcDbEntity
  8
1
  6
Continuous
 62
     3
100
AcDbLine
 10
909.8729949702574
 20
-339.6356172206779
 30
0.0
 11
909.8729949702574
 21
-338.6356172206779
 31
0.0
  0
LINE
  5
1F8
330
38
100
AcDbEntity
  8
1
  6
Continuous
 62
     3
100
AcDbLine
 10
904.8729949702574
 20
-339.6356172206779
 30
0.0
 11
903.8729949702574
 21
-340.6356172206779
 31
0.0
  0
LINE
  5
1F9
330
38
100
AcDbEntity
  8
1
  6
DASH_CENTER
 62
     3
100
AcDbLine
 10
904.8729949702574
 20
-339.6356172206779
 30
0.0
 11
904.8729949702574
 21
-340.6356172206779
 31
0.0
  0
LINE
  5
1FA
330
38
100
AcDbEntity
  8
1
  6
Continuous
 62
     3
100
AcDbLine
 10
904.8729949702574
 20
-339.6356172206779
 30
0.0
 11
905.8729949702574
 21
-339.6356172206779
 31
0.0
  0
LINE
  5
1FB
330
38
100
AcDbEntity
  8
1
  6
Continuous
 62
     3
100
AcDbLine
 10
903.8729949702574
 20
-340.6356172206779
 30
0.0
 11
900.3729949702574
 21
-340.6356172206779
 31
0.0
  0
LINE
  5
1FC
330
38
100
AcDbEntity
  8
1
  6
Continuous
 62
     3
100
AcDbLine
 10
904.8729949702574
 20
-340.6356172206779
 30
0.0
 11
905.8729949702574
 21
-339.6356172206779
 31
0.0
  0
LINE
  5
1FD
330
38
100
AcDbEntity
  8
1
  6
Continuous
 62
     3
100
AcDbLine
 10
904.8729949702574
 20
-340.6356172206779
 30
0.0
 11
903.8729949702574
 21
-340.6356172206779
 31
0.0
  0
LINE
  5
1FE
330
38
100
AcDbEntity
  8
1
  6
Continuous
 62
     3
100
AcDbLine
 10
905.8729949702574
 20
-339.6356172206779
 30
0.0
 11
909.8729949702574
 21
-339.6356172206779
 31
0.0
  0
LINE
  5
1FF
330
38
100
AcDbEntity
  8
1
  6
DOT_CENTER
 62
     1
100
AcDbLine
 10
904.8729949702574
 20
-334.3673259097147
 30
0.0
 11
904.8729949702574
 21
-347.3739443588877
 31
0.0
  0
LINE
  5
200
330
38
100
AcDbEntity
  8
1
  6
Continuous
 62
     3
100
AcDbLine
 10
899.8729949702574
 20
-338.6356172206779
 30
0.0
 11
909.8729949702574
 21
-338.6356172206779
 31
0.0
  0
LINE
  5
201
330
38
100
AcDbEntity
  8
1
  6
Continuous
 62
     3
100
AcDbLine
 10
779.8421609385546
 20
-338.6356172206779
 30
0.0
 11
789.8421609385546
 21
-338.6356172206779
 31
0.0
  0
LINE
  5
202
330
38
100
AcDbEntity
  8
1
  6
DOT_CENTER
 62
     1
100
AcDbLine
 10
784.8421609385546
 20
-334.3673259097147
 30
0.0
 11
784.8421609385546
 21
-347.3739443588877
 31
0.0
  0
LINE
  5
203
330
38
100
AcDbEntity
  8
1
  6
Continuous
 62
     3
100
AcDbLine
 10
785.8421609385546
 20
-339.6356172206779
 30
0.0
 11
789.8421609385546
 21
-339.6356172206779
 31
0.0
  0
LINE
  5
204
330
38
100
AcDbEntity
  8
1
  6
Continuous
 62
     3
100
AcDbLine
 10
784.8421609385546
 20
-340.6356172206779
 30
0.0
 11
783.8421609385546
 21
-340.6356172206779
 31
0.0
  0
LINE
  5
205
330
38
100
AcDbEntity
  8
1
  6
Continuous
 62
     3
100
AcDbLine
 10
784.8421609385546
 20
-340.6356172206779
 30
0.0
 11
785.8421609385546
 21
-339.6356172206779
 31
0.0
  0
LINE
  5
206
330
38
100
AcDbEntity
  8
1
  6
Continuous
 62
     3
100
AcDbLine
 10
783.8421609385546
 20
-340.6356172206779
 30
0.0
 11
780.3421609385546
 21
-340.6356172206779
 31
0.0
  0
LINE
  5
207
330
38
100
AcDbEntity
  8
1
  6
Continuous
 62
     3
100
AcDbLine
 10
784.8421609385546
 20
-339.6356172206779
 30
0.0
 11
785.8421609385546
 21
-339.6356172206779
 31
0.0
  0
LINE
  5
208
330
38
100
AcDbEntity
  8
1
  6
DASH_CENTER
 62
     3
100
AcDbLine
 10
784.8421609385546
 20
-339.6356172206779
 30
0.0
 11
784.8421609385546
 21
-340.6356172206779
 31
0.0
  0
LINE
  5
209
330
38
100
AcDbEntity
  8
1
  6
Continuous
 62
     3
100
AcDbLine
 10
784.8421609385546
 20
-339.6356172206779
 30
0.0
 11
783.8421609385546
 21
-340.6356172206779
 31
0.0
  0
LINE
  5
20A
330
38
100
AcDbEntity
  8
1
  6
Continuous
 62
     3
100
AcDbLine
 10
789.8421609385546
 20
-339.6356172206779
 30
0.0
 11
789.8421609385546
 21
-338.6356172206779
 31
0.0
  0
LINE
  5
20B
330
38
100
AcDbEntity
  8
1
  6
Continuous
 62
     3
100
AcDbLine
 10
779.8421609385546
 20
-339.6356172206779
 30
0.0
 11
784.8421609385546
 21
-339.6356172206779
 31
0.0
  0
LINE
  5
20C
330
38
100
AcDbEntity
  8
1
  6
Continuous
 62
     3
100
AcDbLine
 10
779.8421609385546
 20
-338.6356172206779
 30
0.0
 11
779.8421609385546
 21
-339.6356172206779
 31
0.0
  0
LINE
  5
20D
330
38
100
AcDbEntity
  8
1
  6
Continuous
 62
     3
100
AcDbLine
 10
780.3421609385546
 20
-340.6356172206779
 30
0.0
 11
780.3421609385546
 21
-339.6356172206779
 31
0.0
  0
LINE
  5
20E
330
38
100
AcDbEntity
  8
1
  6
Continuous
 62
     3
100
AcDbLine
 10
789.3421609385546
 20
-340.6356172206779
 30
0.0
 11
789.3421609385546
 21
-339.6356172206779
 31
0.0
  0
LINE
  5
20F
330
38
100
AcDbEntity
  8
1
  6
Continuous
 62
     3
100
AcDbLine
 10
789.3421609385546
 20
-345.6356172206779
 30
0.0
 11
789.3421609385546
 21
-340.6356172206779
 31
0.0
  0
LINE
  5
210
330
38
100
AcDbEntity
  8
1
  6
Continuous
 62
     3
100
AcDbLine
 10
780.3421609385546
 20
-345.6356172206779
 30
0.0
 11
789.3421609385546
 21
-345.6356172206779
 31
0.0
  0
LINE
  5
211
330
38
100
AcDbEntity
  8
1
  6
Continuous
 62
     3
100
AcDbLine
 10
780.3421609385546
 20
-340.6356172206779
 30
0.0
 11
780.3421609385546
 21
-345.6356172206779
 31
0.0
  0
LINE
  5
212
330
38
100
AcDbEntity
  8
1
  6
Continuous
 62
     3
100
AcDbLine
 10
789.3421609385546
 20
-340.6356172206779
 30
0.0
 11
784.8421609385546
 21
-340.6356172206779
 31
0.0
  0
LINE
  5
213
330
38
100
AcDbEntity
  8
1
  6
Continuous
 62
     3
100
AcDbLine
 10
988.872994970257
 20
-340.4894131719593
 30
0.0
 11
984.372994970257
 21
-340.4894131719593
 31
0.0
  0
LINE
  5
214
330
38
100
AcDbEntity
  8
1
  6
Continuous
 62
     3
100
AcDbLine
 10
979.872994970257
 20
-340.4894131719593
 30
0.0
 11
979.872994970257
 21
-345.4894131719593
 31
0.0
  0
LINE
  5
215
330
38
100
AcDbEntity
  8
1
  6
Continuous
 62
     3
100
AcDbLine
 10
979.872994970257
 20
-345.4894131719593
 30
0.0
 11
988.872994970257
 21
-345.4894131719593
 31
0.0
  0
LINE
  5
216
330
38
100
AcDbEntity
  8
1
  6
Continuous
 62
     3
100
AcDbLine
 10
988.872994970257
 20
-345.4894131719593
 30
0.0
 11
988.872994970257
 21
-340.4894131719593
 31
0.0
  0
LINE
  5
217
330
38
100
AcDbEntity
  8
1
  6
Continuous
 62
     3
100
AcDbLine
 10
988.872994970257
 20
-340.4894131719593
 30
0.0
 11
988.872994970257
 21
-339.4894131719593
 31
0.0
  0
LINE
  5
218
330
38
100
AcDbEntity
  8
1
  6
Continuous
 62
     3
100
AcDbLine
 10
979.872994970257
 20
-340.4894131719593
 30
0.0
 11
979.872994970257
 21
-339.4894131719593
 31
0.0
  0
LINE
  5
219
330
38
100
AcDbEntity
  8
1
  6
Continuous
 62
     3
100
AcDbLine
 10
979.372994970257
 20
-338.4894131719593
 30
0.0
 11
979.372994970257
 21
-339.4894131719593
 31
0.0
  0
LINE
  5
21A
330
38
100
AcDbEntity
  8
1
  6
Continuous
 62
     3
100
AcDbLine
 10
979.372994970257
 20
-339.4894131719593
 30
0.0
 11
984.372994970257
 21
-339.4894131719593
 31
0.0
  0
LINE
  5
21B
330
38
100
AcDbEntity
  8
1
  6
Continuous
 62
     3
100
AcDbLine
 10
989.372994970257
 20
-339.4894131719593
 30
0.0
 11
989.372994970257
 21
-338.4894131719593
 31
0.0
  0
LINE
  5
21C
330
38
100
AcDbEntity
  8
1
  6
Continuous
 62
     3
100
AcDbLine
 10
984.372994970257
 20
-339.4894131719593
 30
0.0
 11
983.372994970257
 21
-340.4894131719593
 31
0.0
  0
LINE
  5
21D
330
38
100
AcDbEntity
  8
1
  6
DASH_CENTER
 62
     3
100
AcDbLine
 10
984.372994970257
 20
-339.4894131719593
 30
0.0
 11
984.372994970257
 21
-340.4894131719593
 31
0.0
  0
LINE
  5
21E
330
38
100
AcDbEntity
  8
1
  6
Continuous
 62
     3
100
AcDbLine
 10
984.372994970257
 20
-339.4894131719593
 30
0.0
 11
985.372994970257
 21
-339.4894131719593
 31
0.0
  0
LINE
  5
21F
330
38
100
AcDbEntity
  8
1
  6
Continuous
 62
     3
100
AcDbLine
 10
983.372994970257
 20
-340.4894131719593
 30
0.0
 11
979.872994970257
 21
-340.4894131719593
 31
0.0
  0
LINE
  5
220
330
38
100
AcDbEntity
  8
1
  6
Continuous
 62
     3
100
AcDbLine
 10
984.372994970257
 20
-340.4894131719593
 30
0.0
 11
985.372994970257
 21
-339.4894131719593
 31
0.0
  0
LINE
  5
221
330
38
100
AcDbEntity
  8
1
  6
Continuous
 62
     3
100
AcDbLine
 10
984.372994970257
 20
-340.4894131719593
 30
0.0
 11
983.372994970257
 21
-340.4894131719593
 31
0.0
  0
LINE
  5
222
330
38
100
AcDbEntity
  8
1
  6
Continuous
 62
     3
100
AcDbLine
 10
985.372994970257
 20
-339.4894131719593
 30
0.0
 11
989.372994970257
 21
-339.4894131719593
 31
0.0
  0
LINE
  5
223
330
38
100
AcDbEntity
  8
1
  6
DOT_CENTER
 62
     1
100
AcDbLine
 10
984.372994970257
 20
-334.2211218609961
 30
0.0
 11
984.372994970257
 21
-347.2277403101691
 31
0.0
  0
LINE
  5
224
330
38
100
AcDbEntity
  8
1
  6
Continuous
 62
     3
100
AcDbLine
 10
979.372994970257
 20
-338.4894131719593
 30
0.0
 11
989.372994970257
 21
-338.4894131719593
 31
0.0
  0
ENDBLK
  5
3A
330
38
100
AcDbEntity
  8
0
100
AcDbBlockEnd
  0
BLOCK
  5
3C
330
3B
100
AcDbEntity
  8
0
100
AcDbBlockBegin
  2
2-2
 70
     0
 71
     0
 10
599.9477732995447
 20
-337.6696805778882
 30
0.0
  3
2-2
  1

  0
LINE
  5
225
330
3B
100
AcDbEntity
  8
1
  6
DOT_CENTER
 62
     1
100
AcDbLine
 10
652.8260445804031
 20
-312.7356070182146
 30
0.0
 11
666.0623793131171
 21
-312.7356070182146
 31
0.0
  0
LINE
  5
226
330
3B
100
AcDbEntity
  8
1
  6
DOT_CENTER
 62
     1
100
AcDbLine
 10
644.9477732995447
 20
-315.995256840369
 30
0.0
 11
644.9477732995447
 21
-324.7927216705297
 31
0.0
  0
LINE
  5
227
330
3B
100
AcDbEntity
  8
1
  6
Continuous
 62
     3
100
AcDbLine
 10
705.8421609385546
 20
-315.7356070182148
 30
0.0
 11
705.8421609385546
 21
-311.8356070182147
 31
0.0
  0
LINE
  5
228
330
3B
100
AcDbEntity
  8
1
  6
Continuous
 62
     3
100
AcDbLine
 10
706.8421609385546
 20
-311.8356070182147
 30
0.0
 11
706.8421609385546
 21
-315.7356070182148
 31
0.0
  0
LINE
  5
229
330
3B
100
AcDbEntity
  8
1
  6
Continuous
 62
     2
100
AcDbLine
 10
664.6477732995445
 20
-312.7356070182146
 30
0.0
 11
664.9477732995447
 21
-312.7356070182146
 31
0.0
  0
LINE
  5
22A
330
3B
100
AcDbEntity
  8
1
  6
Continuous
 62
     2
100
AcDbLine
 10
654.2477732995449
 20
-312.7356070182146
 30
0.0
 11
653.9477732995447
 21
-312.7356070182146
 31
0.0
  0
LINE
  5
22B
330
3B
100
AcDbEntity
  8
1
  6
Continuous
 62
     4
100
AcDbLine
 10
644.4477732995447
 20
-330.7356070182146
 30
0.0
 11
645.4477732995447
 21
-330.7356070182146
 31
0.0
  0
LINE
  5
22C
330
3B
100
AcDbEntity
  8
1
  6
Continuous
 62
     4
100
AcDbLine
 10
645.9477732995447
 20
-329.7356070182146
 30
0.0
 11
643.9477732995447
 21
-329.7356070182146
 31
0.0
  0
LINE
  5
22D
330
3B
100
AcDbEntity
  8
1
  6
Continuous
 62
     4
100
AcDbLine
 10
642.9477732995447
 20
-328.7356070182146
 30
0.0
 11
646.9477732995447
 21
-328.7356070182146
 31
0.0
  0
LINE
  5
22E
330
3B
100
AcDbEntity
  8
1
  6
Continuous
 62
     4
100
AcDbLine
 10
644.9477732995447
 20
-325.5356070182146
 30
0.0
 11
644.9477732995447
 21
-328.7356070182146
 31
0.0
  0
LINE
  5
22F
330
3B
100
AcDbEntity
  8
1
  6
DASH_CENTER
 62
     1
100
AcDbLine
 10
659.4477732995447
 20
-318.2356070182146
 30
0.0
 11
659.4477732995447
 21
-317.9356070182145
 31
0.0
  0
LINE
  5
230
330
3B
100
AcDbEntity
  8
1
  6
DOT_CENTER
 62
     1
100
AcDbLine
 10
640.8908331535004
 20
-320.5356070182146
 30
0.0
 11
649.2950093449131
 21
-320.5356070182146
 31
0.0
  0
LINE
  5
231
330
3B
100
AcDbEntity
  8
1
  6
Continuous
 62
     3
100
AcDbLine
 10
599.9477732995447
 20
-315.5356070182146
 30
0.0
 11
601.9477732995447
 21
-315.5356070182146
 31
0.0
  0
LINE
  5
232
330
3B
100
AcDbEntity
  8
1
  6
Continuous
 62
     3
100
AcDbLine
 10
601.9477732995447
 20
-315.5356070182146
 30
0.0
 11
602.7250675671789
 21
-328.8718801412321
 31
0.0
  0
LINE
  5
233
330
3B
100
AcDbEntity
  8
1
  6
Continuous
 62
     3
100
AcDbLine
 10
671.1704790319104
 20
-328.8718801412321
 30
0.0
 11
671.9477732995447
 21
-315.5356070182146
 31
0.0
  0
LINE
  5
234
330
3B
100
AcDbEntity
  8
1
  6
Continuous
 62
     3
100
AcDbLine
 10
671.9477732995447
 20
-315.5356070182146
 30
0.0
 11
673.9477732995447
 21
-315.5356070182146
 31
0.0
  0
LINE
  5
235
330
3B
100
AcDbEntity
  8
1
  6
Continuous
 62
     3
100
AcDbLine
 10
673.9477732995447
 20
-315.5356070182146
 30
0.0
 11
673.9477732995447
 21
-311.2356070182146
 31
0.0
  0
LINE
  5
236
330
3B
100
AcDbEntity
  8
1
  6
Continuous
 62
     3
100
AcDbLine
 10
599.9477732995447
 20
-315.5356070182146
 30
0.0
 11
599.9477732995447
 21
-311.2356070182146
 31
0.0
  0
LINE
  5
237
330
3B
100
AcDbEntity
  8
1
  6
Continuous
 62
     3
100
AcDbLine
 10
671.9477732995447
 20
-315.5356070182146
 30
0.0
 11
668.0646172693519
 21
-315.5356070182144
 31
0.0
  0
LINE
  5
238
330
3B
100
AcDbEntity
  8
1
  6
Continuous
 62
     3
100
AcDbLine
 10
613.9477732995447
 20
-332.6356070182147
 30
0.0
 11
606.7180833461785
 21
-332.6356070182147
 31
0.0
  0
LINE
  5
239
330
3B
100
AcDbEntity
  8
1
  6
Continuous
 62
     3
100
AcDbLine
 10
667.1774632529109
 20
-332.6356070182147
 30
0.0
 11
649.9477732995447
 21
-332.6356070182147
 31
0.0
  0
LINE
  5
23A
330
3B
100
AcDbEntity
  8
1
  6
DASH_CENTER
 62
     1
100
AcDbLine
 10
636.9477732995447
 20
-307.7356070182146
 30
0.0
 11
636.9477732995447
 21
-335.9506252209354
 31
0.0
  0
LINE
  5
23B
330
3B
100
AcDbEntity
  8
1
  6
Continuous
 62
     3
100
AcDbLine
 10
613.9477732995447
 20
-333.6356070182147
 30
0.0
 11
613.9477732995447
 21
-332.6356070182147
 31
0.0
  0
LINE
  5
23C
330
3B
100
AcDbEntity
  8
1
  6
Continuous
 62
     3
100
AcDbLine
 10
623.9477732995447
 20
-333.6356070182147
 30
0.0
 11
613.9477732995447
 21
-333.6356070182147
 31
0.0
  0
LINE
  5
23D
330
3B
100
AcDbEntity
  8
1
  6
Continuous
 62
     3
100
AcDbLine
 10
623.9477732995447
 20
-332.6356070182147
 30
0.0
 11
623.9477732995447
 21
-333.6356070182147
 31
0.0
  0
LINE
  5
23E
330
3B
100
AcDbEntity
  8
1
  6
Continuous
 62
     3
100
AcDbLine
 10
623.9477732995447
 20
-332.6356070182147
 30
0.0
 11
613.9477732995447
 21
-332.6356070182147
 31
0.0
  0
LINE
  5
23F
330
3B
100
AcDbEntity
  8
1
  6
DASH_CENTER
 62
     1
100
AcDbLine
 10
618.9477732995447
 20
-335.3951147887534
 30
0.0
 11
618.9477732995447
 21
-330.7635356978855
 31
0.0
  0
LINE
  5
240
330
3B
100
AcDbEntity
  8
1
  6
Continuous
 62
     3
100
AcDbLine
 10
626.9477732995447
 20
-333.6356070182147
 30
0.0
 11
626.9477732995447
 21
-332.6356070182147
 31
0.0
  0
LINE
  5
241
330
3B
100
AcDbEntity
  8
1
  6
Continuous
 62
     3
100
AcDbLine
 10
623.9477732995447
 20
-332.6356070182147
 30
0.0
 11
626.9477732995447
 21
-332.6356070182147
 31
0.0
  0
LINE
  5
242
330
3B
100
AcDbEntity
  8
1
  6
Continuous
 62
     3
100
AcDbLine
 10
646.9477732995447
 20
-333.6356070182147
 30
0.0
 11
626.9477732995447
 21
-333.6356070182147
 31
0.0
  0
LINE
  5
243
330
3B
100
AcDbEntity
  8
1
  6
Continuous
 62
     3
100
AcDbLine
 10
646.9477732995447
 20
-332.6356070182147
 30
0.0
 11
646.9477732995447
 21
-333.6356070182147
 31
0.0
  0
LINE
  5
244
330
3B
100
AcDbEntity
  8
1
  6
Continuous
 62
     3
100
AcDbLine
 10
626.9477732995447
 20
-332.6356070182147
 30
0.0
 11
639.9477732995447
 21
-332.6356070182147
 31
0.0
  0
LINE
  5
245
330
3B
100
AcDbEntity
  8
1
  6
Continuous
 62
     3
100
AcDbLine
 10
649.9477732995447
 20
-333.6356070182147
 30
0.0
 11
649.9477732995447
 21
-332.6356070182147
 31
0.0
  0
LINE
  5
246
330
3B
100
AcDbEntity
  8
1
  6
Continuous
 62
     3
100
AcDbLine
 10
646.9477732995447
 20
-332.6356070182147
 30
0.0
 11
649.9477732995447
 21
-332.6356070182147
 31
0.0
  0
LINE
  5
247
330
3B
100
AcDbEntity
  8
1
  6
Continuous
 62
     3
100
AcDbLine
 10
659.9477732995447
 20
-333.6356070182147
 30
0.0
 11
649.9477732995447
 21
-333.6356070182147
 31
0.0
  0
LINE
  5
248
330
3B
100
AcDbEntity
  8
1
  6
Continuous
 62
     3
100
AcDbLine
 10
659.9477732995447
 20
-332.6264631267069
 30
0.0
 11
659.9477732995447
 21
-333.6356070182147
 31
0.0
  0
LINE
  5
249
330
3B
100
AcDbEntity
  8
1
  6
DASH_CENTER
 62
     1
100
AcDbLine
 10
654.9477732995447
 20
-335.6107683659815
 30
0.0
 11
654.9477732995447
 21
-331.2727400625628
 31
0.0
  0
LINE
  5
24A
330
3B
100
AcDbEntity
  8
1
  6
Continuous
 62
     3
100
AcDbLine
 10
650.8309293297375
 20
-315.5356070182146
 30
0.0
 11
649.9477732995447
 21
-315.5356070182146
 31
0.0
  0
LINE
  5
24B
330
3B
100
AcDbEntity
  8
1
  6
DASH_CENTER
 62
     1
100
AcDbLine
 10
659.4477732995447
 20
-323.7111055068887
 30
0.0
 11
659.4477732995447
 21
-318.2356070182146
 31
0.0
  0
LINE
  5
24C
330
3B
100
AcDbEntity
  8
1
  6
Continuous
 62
     3
100
AcDbLine
 10
639.9477732995447
 20
-315.5356070182146
 30
0.0
 11
639.9477732995447
 21
-332.6356070182147
 31
0.0
  0
LINE
  5
24D
330
3B
100
AcDbEntity
  8
1
  6
Continuous
 62
     3
100
AcDbLine
 10
639.9477732995447
 20
-315.5356070182146
 30
0.0
 11
601.9477732995447
 21
-315.5356070182146
 31
0.0
  0
LINE
  5
24E
330
3B
100
AcDbEntity
  8
1
  6
Continuous
 62
     3
100
AcDbLine
 10
639.9477732995447
 20
-332.6356070182147
 30
0.0
 11
646.9477732995447
 21
-332.6356070182147
 31
0.0
  0
LINE
  5
24F
330
3B
100
AcDbEntity
  8
1
  6
Continuous
 62
     3
100
AcDbLine
 10
649.9477732995447
 20
-332.6356070182147
 30
0.0
 11
649.9477732995447
 21
-315.5356070182146
 31
0.0
  0
LINE
  5
250
330
3B
100
AcDbEntity
  8
1
  6
Continuous
 62
     3
100
AcDbLine
 10
649.9477732995447
 20
-315.5356070182146
 30
0.0
 11
639.9477732995447
 21
-315.5356070182146
 31
0.0
  0
LINE
  5
251
330
3B
100
AcDbEntity
  8
1
  6
DASH_CENTER
 62
     1
100
AcDbLine
 10
659.4477732995447
 20
-317.9356070182145
 30
0.0
 11
659.4477732995447
 21
-306.7356070182146
 31
0.0
  0
LINE
  5
252
330
3B
100
AcDbEntity
  8
1
  6
Continuous
 62
     3
100
AcDbLine
 10
922.872994970257
 20
-312.7356070182151
 30
0.0
 11
911.372994970257
 21
-312.7356070182151
 31
0.0
  0
LINE
  5
253
330
3B
100
AcDbEntity
  8
1
  6
Continuous
 62
     3
100
AcDbLine
 10
862.3729949702572
 20
-312.7356070182151
 30
0.0
 11
849.8729949702572
 21
-312.7356070182151
 31
0.0
  0
LINE
  5
254
330
3B
100
AcDbEntity
  8
1
  6
Continuous
 62
     3
100
AcDbLine
 10
849.8729949702572
 20
-315.7356070182151
 30
0.0
 11
849.8729949702572
 21
-312.7356070182151
 31
0.0
  0
LINE
  5
255
330
3B
100
AcDbEntity
  8
1
  6
Continuous
 62
     3
100
AcDbLine
 10
850.8729949702572
 20
-315.7356070182151
 30
0.0
 11
849.8729949702572
 21
-315.7356070182151
 31
0.0
  0
LINE
  5
256
330
3B
100
AcDbEntity
  8
1
  6
Continuous
 62
     3
100
AcDbLine
 10
923.872994970257
 20
-315.7356070182151
 30
0.0
 11
923.872994970257
 21
-312.7356070182153
 31
0.0
  0
LINE
  5
257
330
3B
100
AcDbEntity
  8
1
  6
Continuous
 62
     3
100
AcDbLine
 10
922.872994970257
 20
-315.7356070182151
 30
0.0
 11
923.872994970257
 21
-315.7356070182151
 31
0.0
  0
LINE
  5
258
330
3B
100
AcDbEntity
  8
1
  6
Continuous
 62
     3
100
AcDbLine
 10
921.872994970257
 20
-315.7356070182151
 30
0.0
 11
912.872994970257
 21
-315.7356070182151
 31
0.0
  0
LINE
  5
259
330
3B
100
AcDbEntity
  8
1
  6
Continuous
 62
     3
100
AcDbLine
 10
921.872994970257
 20
-315.7356070182151
 30
0.0
 11
922.872994970257
 21
-315.7356070182151
 31
0.0
  0
LINE
  5
25A
330
3B
100
AcDbEntity
  8
1
  6
Continuous
 62
     3
100
AcDbLine
 10
921.0957007026227
 20
-328.8718801412325
 30
0.0
 11
921.872994970257
 21
-315.7356070182151
 31
0.0
  0
LINE
  5
25B
330
3B
100
AcDbEntity
  8
1
  6
Continuous
 62
     3
100
AcDbLine
 10
851.8729949702572
 20
-315.7356070182151
 30
0.0
 11
852.6502892378915
 21
-328.8718801412325
 31
0.0
  0
LINE
  5
25C
330
3B
100
AcDbEntity
  8
1
  6
Continuous
 62
     3
100
AcDbLine
 10
850.8729949702572
 20
-315.7356070182151
 30
0.0
 11
851.8729949702572
 21
-315.7356070182151
 31
0.0
  0
LINE
  5
25D
330
3B
100
AcDbEntity
  8
1
  6
Continuous
 62
     3
100
AcDbLine
 10
912.872994970257
 20
-315.7356070182151
 30
0.0
 11
860.8729949702572
 21
-315.7356070182146
 31
0.0
  0
LINE
  5
25E
330
3B
100
AcDbEntity
  8
1
  6
Continuous
 62
     3
100
AcDbLine
 10
860.8729949702572
 20
-315.7356070182146
 30
0.0
 11
851.8729949702572
 21
-315.7356070182151
 31
0.0
  0
LINE
  5
25F
330
3B
100
AcDbEntity
  8
1
  6
Continuous
 62
     3
100
AcDbLine
 10
912.872994970257
 20
-315.7356070182151
 30
0.0
 11
912.5957007026227
 21
-328.8718801412325
 31
0.0
  0
LINE
  5
260
330
3B
100
AcDbEntity
  8
1
  6
Continuous
 62
     3
100
AcDbLine
 10
860.8729949702572
 20
-315.7356070182146
 30
0.0
 11
861.1502892378915
 21
-328.8718801412325
 31
0.0
  0
LINE
  5
261
330
3B
100
AcDbEntity
  8
1
  6
Continuous
 62
     3
100
AcDbLine
 10
864.143305016891
 20
-332.6356070182147
 30
0.0
 11
873.872994970257
 21
-332.6356070182147
 31
0.0
  0
LINE
  5
262
330
3B
100
AcDbEntity
  8
1
  6
Continuous
 62
     3
100
AcDbLine
 10
917.1026849236232
 20
-332.6356070182147
 30
0.0
 11
909.872994970257
 21
-332.6356070182147
 31
0.0
  0
LINE
  5
263
330
3B
100
AcDbEntity
  8
1
  6
Continuous
 62
     3
100
AcDbLine
 10
856.643305016891
 20
-332.6356070182147
 30
0.0
 11
864.143305016891
 21
-332.6356070182147
 31
0.0
  0
LINE
  5
264
330
3B
100
AcDbEntity
  8
1
  6
DASH_CENTER
 62
     1
100
AcDbLine
 10
886.872994970257
 20
-335.9506252209359
 30
0.0
 11
886.872994970257
 21
-309.7356070182151
 31
0.0
  0
LINE
  5
265
330
3B
100
AcDbEntity
  8
1
  6
Continuous
 62
     3
100
AcDbLine
 10
909.872994970257
 20
-332.6356070182147
 30
0.0
 11
909.872994970257
 21
-333.6356070182147
 31
0.0
  0
LINE
  5
266
330
3B
100
AcDbEntity
  8
1
  6
Continuous
 62
     3
100
AcDbLine
 10
909.872994970257
 20
-332.6356070182147
 30
0.0
 11
909.6026849236232
 21
-332.6356070182147
 31
0.0
  0
LINE
  5
267
330
3B
100
AcDbEntity
  8
1
  6
Continuous
 62
     3
100
AcDbLine
 10
909.872994970257
 20
-333.6356070182147
 30
0.0
 11
899.872994970257
 21
-333.6356070182147
 31
0.0
  0
LINE
  5
268
330
3B
100
AcDbEntity
  8
1
  6
Continuous
 62
     3
100
AcDbLine
 10
899.872994970257
 20
-333.6356070182147
 30
0.0
 11
899.872994970257
 21
-332.6356070182147
 31
0.0
  0
LINE
  5
269
330
3B
100
AcDbEntity
  8
1
  6
Continuous
 62
     3
100
AcDbLine
 10
899.872994970257
 20
-332.6356070182147
 30
0.0
 11
909.6026849236232
 21
-332.6356070182147
 31
0.0
  0
LINE
  5
26A
330
3B
100
AcDbEntity
  8
1
  6
DASH_CENTER
 62
     1
100
AcDbLine
 10
904.872994970257
 20
-330.7635356978859
 30
0.0
 11
904.872994970257
 21
-335.3951147887539
 31
0.0
  0
LINE
  5
26B
330
3B
100
AcDbEntity
  8
1
  6
Continuous
 62
     3
100
AcDbLine
 10
896.872994970257
 20
-332.6356070182147
 30
0.0
 11
896.872994970257
 21
-333.6356070182147
 31
0.0
  0
LINE
  5
26C
330
3B
100
AcDbEntity
  8
1
  6
Continuous
 62
     3
100
AcDbLine
 10
896.872994970257
 20
-332.6356070182147
 30
0.0
 11
899.872994970257
 21
-332.6356070182147
 31
0.0
  0
LINE
  5
26D
330
3B
100
AcDbEntity
  8
1
  6
Continuous
 62
     3
100
AcDbLine
 10
896.872994970257
 20
-333.6356070182147
 30
0.0
 11
876.872994970257
 21
-333.6356070182147
 31
0.0
  0
LINE
  5
26E
330
3B
100
AcDbEntity
  8
1
  6
Continuous
 62
     3
100
AcDbLine
 10
876.872994970257
 20
-333.6356070182147
 30
0.0
 11
876.872994970257
 21
-332.6356070182147
 31
0.0
  0
LINE
  5
26F
330
3B
100
AcDbEntity
  8
1
  6
Continuous
 62
     3
100
AcDbLine
 10
876.872994970257
 20
-332.6356070182147
 30
0.0
 11
896.872994970257
 21
-332.6356070182147
 31
0.0
  0
LINE
  5
270
330
3B
100
AcDbEntity
  8
1
  6
Continuous
 62
     3
100
AcDbLine
 10
873.872994970257
 20
-332.6356070182147
 30
0.0
 11
873.872994970257
 21
-333.6356070182147
 31
0.0
  0
LINE
  5
271
330
3B
100
AcDbEntity
  8
1
  6
Continuous
 62
     3
100
AcDbLine
 10
873.872994970257
 20
-332.6356070182147
 30
0.0
 11
876.872994970257
 21
-332.6356070182147
 31
0.0
  0
LINE
  5
272
330
3B
100
AcDbEntity
  8
1
  6
Continuous
 62
     3
100
AcDbLine
 10
873.872994970257
 20
-333.6356070182147
 30
0.0
 11
863.8729949702572
 21
-333.6356070182147
 31
0.0
  0
LINE
  5
273
330
3B
100
AcDbEntity
  8
1
  6
Continuous
 62
     3
100
AcDbLine
 10
863.8729949702572
 20
-333.6356070182147
 30
0.0
 11
863.8729949702572
 21
-332.6264631267069
 31
0.0
  0
LINE
  5
274
330
3B
100
AcDbEntity
  8
1
  6
DASH_CENTER
 62
     1
100
AcDbLine
 10
868.8729949702572
 20
-331.2727400625628
 30
0.0
 11
868.8729949702572
 21
-335.6107683659817
 31
0.0
  0
LINE
  5
275
330
3B
100
AcDbEntity
  8
1
  6
Continuous
 62
     3
100
AcDbLine
 10
807.3421609385546
 20
-306.9356070181689
 30
0.0
 11
807.3421609385546
 21
-301.7356070182148
 31
0.0
  0
LINE
  5
276
330
3B
100
AcDbEntity
  8
1
  6
Continuous
 62
     3
100
AcDbLine
 10
815.3421609385546
 20
-312.7356070182146
 30
0.0
 11
815.3421609385546
 21
-315.7356070182148
 31
0.0
  0
LINE
  5
277
330
3B
100
AcDbEntity
  8
1
  6
Continuous
 62
     3
100
AcDbLine
 10
815.3421609385546
 20
-315.7356070182148
 30
0.0
 11
814.3421609385546
 21
-315.7356070182148
 31
0.0
  0
LINE
  5
278
330
3B
100
AcDbEntity
  8
1
  6
Continuous
 62
     3
100
AcDbLine
 10
714.3451195184362
 20
-324.2356070182148
 30
0.0
 11
714.6194552061884
 21
-328.8718801412324
 31
0.0
  0
LINE
  5
279
330
3B
100
AcDbEntity
  8
1
  6
Continuous
 62
     3
100
AcDbLine
 10
712.8421609385546
 20
-324.2356070182148
 30
0.0
 11
714.3451195184362
 21
-324.2356070182148
 31
0.0
  0
LINE
  5
27A
330
3B
100
AcDbEntity
  8
1
  6
DASH_CENTER
 62
     1
100
AcDbLine
 10
784.8421609385546
 20
-307.7356070182146
 30
0.0
 11
784.8421609385546
 21
-337.6696805778882
 31
0.0
  0
LINE
  5
27B
330
3B
100
AcDbEntity
  8
1
  6
Continuous
 62
     3
100
AcDbLine
 10
813.3421609385546
 20
-315.7356070182148
 30
0.0
 11
806.3421609385546
 21
-315.7356070182148
 31
0.0
  0
LINE
  5
27C
330
3B
100
AcDbEntity
  8
1
  6
Continuous
 62
     3
100
AcDbLine
 10
779.8421609385546
 20
-332.6356070182147
 30
0.0
 11
789.8421609385546
 21
-332.6356070182147
 31
0.0
  0
LINE
  5
27D
330
3B
100
AcDbEntity
  8
1
  6
Continuous
 62
     3
100
AcDbLine
 10
779.8421609385546
 20
-333.6356070182147
 30
0.0
 11
774.8421609385546
 21
-333.6356070182147
 31
0.0
  0
LINE
  5
27E
330
3B
100
AcDbEntity
  8
1
  6
Continuous
 62
     3
100
AcDbLine
 10
779.8421609385546
 20
-333.6356070182147
 30
0.0
 11
779.8421609385546
 21
-332.6356070182147
 31
0.0
  0
LINE
  5
27F
330
3B
100
AcDbEntity
  8
1
  6
Continuous
 62
     3
100
AcDbLine
 10
789.8421609385546
 20
-333.6356070182147
 30
0.0
 11
779.8421609385546
 21
-333.6356070182147
 31
0.0
  0
LINE
  5
280
330
3B
100
AcDbEntity
  8
1
  6
Continuous
 62
     3
100
AcDbLine
 10
789.8421609385546
 20
-332.6356070182147
 30
0.0
 11
794.8421609385546
 21
-332.6356070182147
 31
0.0
  0
LINE
  5
281
330
3B
100
AcDbEntity
  8
1
  6
Continuous
 62
     3
100
AcDbLine
 10
789.8421609385546
 20
-332.6356070182147
 30
0.0
 11
789.8421609385546
 21
-333.6356070182147
 31
0.0
  0
LINE
  5
282
330
3B
100
AcDbEntity
  8
1
  6
Continuous
 62
     3
100
AcDbLine
 10
806.3421609385546
 20
-315.7356070182148
 30
0.0
 11
804.8421609385546
 21
-315.7356070182148
 31
0.0
  0
LINE
  5
283
330
3B
100
AcDbEntity
  8
1
  6
Continuous
 62
     3
100
AcDbLine
 10
808.8421609385546
 20
-305.0356070182147
 30
0.0
 11
808.8421609385546
 21
-306.9356070181689
 31
0.0
  0
LINE
  5
284
330
3B
100
AcDbEntity
  8
1
  6
Continuous
 62
     3
100
AcDbLine
 10
807.3421609385546
 20
-301.7356070182148
 30
0.0
 11
808.3421609385546
 21
-301.7356070182146
 31
0.0
  0
LINE
  5
285
330
3B
100
AcDbEntity
  8
1
  6
Continuous
 62
     3
100
AcDbLine
 10
800.0718508919204
 20
-332.6356070182147
 30
0.0
 11
808.5718508919204
 21
-332.6356070182147
 31
0.0
  0
LINE
  5
286
330
3B
100
AcDbEntity
  8
1
  6
Continuous
 62
     3
100
AcDbLine
 10
804.8421609385546
 20
-315.7356070182148
 30
0.0
 11
714.8421609385546
 21
-315.7356070182148
 31
0.0
  0
LINE
  5
287
330
3B
100
AcDbEntity
  8
1
  6
Continuous
 62
     3
100
AcDbLine
 10
804.8421609385546
 20
-315.7356070182148
 30
0.0
 11
804.0648666709203
 21
-328.8718801412324
 31
0.0
  0
LINE
  5
288
330
3B
100
AcDbEntity
  8
1
  6
Continuous
 62
     3
100
AcDbLine
 10
774.8421609385546
 20
-332.6356070182147
 30
0.0
 11
779.8421609385546
 21
-332.6356070182147
 31
0.0
  0
LINE
  5
289
330
3B
100
AcDbEntity
  8
1
  6
Continuous
 62
     3
100
AcDbLine
 10
794.8421609385546
 20
-333.6356070182147
 30
0.0
 11
789.8421609385546
 21
-333.6356070182147
 31
0.0
  0
LINE
  5
28A
330
3B
100
AcDbEntity
  8
1
  6
Continuous
 62
     3
100
AcDbLine
 10
794.8421609385546
 20
-332.6356070182147
 30
0.0
 11
800.0718508919204
 21
-332.6356070182147
 31
0.0
  0
LINE
  5
28B
330
3B
100
AcDbEntity
  8
1
  6
Continuous
 62
     3
100
AcDbLine
 10
794.8421609385546
 20
-333.6356070182147
 30
0.0
 11
794.8421609385546
 21
-332.6356070182147
 31
0.0
  0
LINE
  5
28C
330
3B
100
AcDbEntity
  8
1
  6
Continuous
 62
     3
100
AcDbLine
 10
774.8421609385546
 20
-332.6356070182147
 30
0.0
 11
774.8421609385546
 21
-333.6356070182147
 31
0.0
  0
LINE
  5
28D
330
3B
100
AcDbEntity
  8
1
  6
Continuous
 62
     3
100
AcDbLine
 10
713.8421609385546
 20
-315.7356070182148
 30
0.0
 11
714.8421609385546
 21
-315.7356070182148
 31
0.0
  0
LINE
  5
28E
330
3B
100
AcDbEntity
  8
1
  6
Continuous
 62
     3
100
AcDbLine
 10
711.8421609385546
 20
-315.7356070182148
 30
0.0
 11
711.8421609385546
 21
-311.2356070182148
 31
0.0
  0
LINE
  5
28F
330
3B
100
AcDbEntity
  8
1
  6
Continuous
 62
     3
100
AcDbLine
 10
713.8421609385546
 20
-315.7356070182148
 30
0.0
 11
711.8421609385546
 21
-315.7356070182148
 31
0.0
  0
LINE
  5
290
330
3B
100
AcDbEntity
  8
1
  6
Continuous
 62
     3
100
AcDbLine
 10
813.3421609385546
 20
-315.7356070182148
 30
0.0
 11
814.3421609385546
 21
-315.7356070182148
 31
0.0
  0
LINE
  5
291
330
3B
100
AcDbEntity
  8
1
  6
Continuous
 62
     3
100
AcDbLine
 10
718.6124709851879
 20
-332.6356070182147
 30
0.0
 11
774.8421609385546
 21
-332.6356070182147
 31
0.0
  0
LINE
  5
292
330
3B
100
AcDbEntity
  8
1
  6
Continuous
 62
     3
100
AcDbLine
 10
713.8421609385546
 20
-315.7356070182148
 30
0.0
 11
714.3451195184362
 21
-324.2356070182148
 31
0.0
  0
LINE
  5
293
330
3B
100
AcDbEntity
  8
1
  6
Continuous
 62
     3
100
AcDbLine
 10
813.3421609385546
 20
-315.7356070182148
 30
0.0
 11
812.5648666709203
 21
-328.8718801412324
 31
0.0
  0
LINE
  5
294
330
3B
100
AcDbEntity
  8
1
  6
Continuous
 62
     3
100
AcDbLine
 10
808.3421609385546
 20
-301.7356070182146
 30
0.0
 11
809.8421609385546
 21
-304.5356070182147
 31
0.0
  0
LINE
  5
295
330
3B
100
AcDbEntity
  8
1
  6
Continuous
 62
     3
100
AcDbLine
 10
809.8421609385546
 20
-304.5356070182147
 30
0.0
 11
809.8421609385546
 21
-305.0356070182147
 31
0.0
  0
LINE
  5
296
330
3B
100
AcDbEntity
  8
1
  6
Continuous
 62
     3
100
AcDbLine
 10
809.8421609385546
 20
-305.0356070182147
 30
0.0
 11
808.8421609385546
 21
-305.0356070182147
 31
0.0
  0
LINE
  5
297
330
3B
100
AcDbEntity
  8
1
  6
Continuous
 62
     3
100
AcDbLine
 10
706.8421609385546
 20
-315.7356070182148
 30
0.0
 11
706.8421609385546
 21
-324.2356070182148
 31
0.0
  0
LINE
  5
298
330
3B
100
AcDbEntity
  8
1
  6
Continuous
 62
     3
100
AcDbLine
 10
706.8421609385546
 20
-324.2356070182148
 30
0.0
 11
712.8421609385546
 21
-324.2356070182148
 31
0.0
  0
LINE
  5
299
330
3B
100
AcDbEntity
  8
1
  6
Continuous
 62
     3
100
AcDbLine
 10
706.8421609385546
 20
-315.7356070182148
 30
0.0
 11
705.8421609385546
 21
-315.7356070182148
 31
0.0
  0
LINE
  5
29A
330
3B
100
AcDbEntity
  8
1
  6
Continuous
 62
     3
100
AcDbLine
 10
1063.372994970257
 20
-315.5894029694962
 30
0.0
 11
1062.596545633705
 21
-315.5894029694962
 31
0.0
  0
LINE
  5
29B
330
3B
100
AcDbEntity
  8
1
  6
Continuous
 62
     3
100
AcDbLine
 10
1056.372994970257
 20
-324.0894029694962
 30
0.0
 11
1062.372994970257
 21
-324.0894029694962
 31
0.0
  0
LINE
  5
29C
330
3B
100
AcDbEntity
  8
1
  6
Continuous
 62
     3
100
AcDbLine
 10
1062.372994970257
 20
-324.0894029694962
 30
0.0
 11
1062.372994970257
 21
-315.5894029694962
 31
0.0
  0
LINE
  5
29D
330
3B
100
AcDbEntity
  8
1
  6
Continuous
 62
     3
100
AcDbLine
 10
960.372994970257
 20
-304.8894029694961
 30
0.0
 11
959.372994970257
 21
-304.8894029694961
 31
0.0
  0
LINE
  5
29E
330
3B
100
AcDbEntity
  8
1
  6
Continuous
 62
     3
100
AcDbLine
 10
959.372994970257
 20
-304.8894029694961
 30
0.0
 11
959.372994970257
 21
-304.3894029694961
 31
0.0
  0
LINE
  5
29F
330
3B
100
AcDbEntity
  8
1
  6
Continuous
 62
     3
100
AcDbLine
 10
959.372994970257
 20
-304.3894029694961
 30
0.0
 11
960.872994970257
 21
-301.589402969496
 31
0.0
  0
LINE
  5
2A0
330
3B
100
AcDbEntity
  8
1
  6
Continuous
 62
     3
100
AcDbLine
 10
956.6502892378912
 20
-328.7256760925138
 30
0.0
 11
955.872994970257
 21
-315.5894029694962
 31
0.0
  0
LINE
  5
2A1
330
3B
100
AcDbEntity
  8
1
  6
Continuous
 62
     3
100
AcDbLine
 10
1054.870036390375
 20
-324.0894029694962
 30
0.0
 11
1055.372994970257
 21
-315.5894029694962
 31
0.0
  0
LINE
  5
2A2
330
3B
100
AcDbEntity
  8
1
  6
Continuous
 62
     3
100
AcDbLine
 10
994.372994970257
 20
-332.4894029694962
 30
0.0
 11
1050.602684923624
 21
-332.4894029694962
 31
0.0
  0
LINE
  5
2A3
330
3B
100
AcDbEntity
  8
1
  6
Continuous
 62
     3
100
AcDbLine
 10
954.872994970257
 20
-315.5894029694962
 30
0.0
 11
955.872994970257
 21
-315.5894029694962
 31
0.0
  0
LINE
  5
2A4
330
3B
100
AcDbEntity
  8
1
  6
Continuous
 62
     3
100
AcDbLine
 10
1057.372994970257
 20
-315.5894029694962
 30
0.0
 11
1055.372994970257
 21
-315.5894029694962
 31
0.0
  0
LINE
  5
2A5
330
3B
100
AcDbEntity
  8
1
  6
Continuous
 62
     3
100
AcDbLine
 10
1057.372994970257
 20
-311.0894029694962
 30
0.0
 11
1057.372994970257
 21
-315.5894029694962
 31
0.0
  0
LINE
  5
2A6
330
3B
100
AcDbEntity
  8
1
  6
Continuous
 62
     3
100
AcDbLine
 10
1054.372994970257
 20
-315.5894029694962
 30
0.0
 11
1055.372994970257
 21
-315.5894029694962
 31
0.0
  0
LINE
  5
2A7
330
3B
100
AcDbEntity
  8
1
  6
Continuous
 62
     3
100
AcDbLine
 10
994.372994970257
 20
-333.4894029694962
 30
0.0
 11
994.372994970257
 21
-332.4894029694962
 31
0.0
  0
LINE
  5
2A8
330
3B
100
AcDbEntity
  8
1
  6
Continuous
 62
     3
100
AcDbLine
 10
974.372994970257
 20
-332.4894029694962
 30
0.0
 11
974.372994970257
 21
-333.4894029694962
 31
0.0
  0
LINE
  5
2A9
330
3B
100
AcDbEntity
  8
1
  6
Continuous
 62
     3
100
AcDbLine
 10
969.1433050168912
 20
-332.4894029694962
 30
0.0
 11
974.372994970257
 21
-332.4894029694962
 31
0.0
  0
LINE
  5
2AA
330
3B
100
AcDbEntity
  8
1
  6
Continuous
 62
     3
100
AcDbLine
 10
979.372994970257
 20
-333.4894029694962
 30
0.0
 11
974.372994970257
 21
-333.4894029694962
 31
0.0
  0
LINE
  5
2AB
330
3B
100
AcDbEntity
  8
1
  6
Continuous
 62
     3
100
AcDbLine
 10
989.372994970257
 20
-332.4894029694962
 30
0.0
 11
994.372994970257
 21
-332.4894029694962
 31
0.0
  0
LINE
  5
2AC
330
3B
100
AcDbEntity
  8
1
  6
Continuous
 62
     3
100
AcDbLine
 10
965.1502892378912
 20
-328.7256760925138
 30
0.0
 11
964.372994970257
 21
-315.5894029694962
 31
0.0
  0
LINE
  5
2AD
330
3B
100
AcDbEntity
  8
1
  6
Continuous
 62
     3
100
AcDbLine
 10
1054.372994970257
 20
-315.5894029694962
 30
0.0
 11
964.372994970257
 21
-315.5894029694962
 31
0.0
  0
LINE
  5
2AE
330
3B
100
AcDbEntity
  8
1
  6
Continuous
 62
     3
100
AcDbLine
 10
960.6433050168912
 20
-332.4894029694962
 30
0.0
 11
969.1433050168912
 21
-332.4894029694962
 31
0.0
  0
LINE
  5
2AF
330
3B
100
AcDbEntity
  8
1
  6
Continuous
 62
     3
100
AcDbLine
 10
960.872994970257
 20
-301.589402969496
 30
0.0
 11
961.872994970257
 21
-301.5894029694962
 31
0.0
  0
LINE
  5
2B0
330
3B
100
AcDbEntity
  8
1
  6
Continuous
 62
     3
100
AcDbLine
 10
960.372994970257
 20
-306.7894029694504
 30
0.0
 11
960.372994970257
 21
-304.8894029694961
 31
0.0
  0
LINE
  5
2B1
330
3B
100
AcDbEntity
  8
1
  6
Continuous
 62
     3
100
AcDbLine
 10
964.372994970257
 20
-315.5894029694962
 30
0.0
 11
962.872994970257
 21
-315.5894029694962
 31
0.0
  0
LINE
  5
2B2
330
3B
100
AcDbEntity
  8
1
  6
Continuous
 62
     3
100
AcDbLine
 10
979.372994970257
 20
-333.4894029694962
 30
0.0
 11
979.372994970257
 21
-332.4894029694962
 31
0.0
  0
LINE
  5
2B3
330
3B
100
AcDbEntity
  8
1
  6
Continuous
 62
     3
100
AcDbLine
 10
974.372994970257
 20
-332.4894029694962
 30
0.0
 11
979.372994970257
 21
-332.4894029694962
 31
0.0
  0
LINE
  5
2B4
330
3B
100
AcDbEntity
  8
1
  6
Continuous
 62
     3
100
AcDbLine
 10
989.372994970257
 20
-333.4894029694962
 30
0.0
 11
979.372994970257
 21
-333.4894029694962
 31
0.0
  0
LINE
  5
2B5
330
3B
100
AcDbEntity
  8
1
  6
Continuous
 62
     3
100
AcDbLine
 10
989.372994970257
 20
-332.4894029694962
 30
0.0
 11
989.372994970257
 21
-333.4894029694962
 31
0.0
  0
LINE
  5
2B6
330
3B
100
AcDbEntity
  8
1
  6
Continuous
 62
     3
100
AcDbLine
 10
994.372994970257
 20
-333.4894029694962
 30
0.0
 11
989.372994970257
 21
-333.4894029694962
 31
0.0
  0
LINE
  5
2B7
330
3B
100
AcDbEntity
  8
1
  6
Continuous
 62
     3
100
AcDbLine
 10
979.372994970257
 20
-332.4894029694962
 30
0.0
 11
989.372994970257
 21
-332.4894029694962
 31
0.0
  0
LINE
  5
2B8
330
3B
100
AcDbEntity
  8
1
  6
Continuous
 62
     3
100
AcDbLine
 10
962.872994970257
 20
-315.5894029694962
 30
0.0
 11
955.872994970257
 21
-315.5894029694962
 31
0.0
  0
LINE
  5
2B9
330
3B
100
AcDbEntity
  8
1
  6
DASH_CENTER
 62
     1
100
AcDbLine
 10
984.372994970257
 20
-337.5234765291696
 30
0.0
 11
984.372994970257
 21
-307.589402969496
 31
0.0
  0
LINE
  5
2BA
330
3B
100
AcDbEntity
  8
1
  6
Continuous
 62
     3
100
AcDbLine
 10
1054.870036390375
 20
-324.0894029694962
 30
0.0
 11
1056.372994970257
 21
-324.0894029694962
 31
0.0
  0
LINE
  5
2BB
330
3B
100
AcDbEntity
  8
1
  6
Continuous
 62
     3
100
AcDbLine
 10
1054.595700702623
 20
-328.7256760925138
 30
0.0
 11
1054.870036390375
 21
-324.0894029694962
 31
0.0
  0
LINE
  5
2BC
330
3B
100
AcDbEntity
  8
1
  6
Continuous
 62
     3
100
AcDbLine
 10
954.872994970257
 20
-315.5894029694962
 30
0.0
 11
953.872994970257
 21
-315.5894029694962
 31
0.0
  0
LINE
  5
2BD
330
3B
100
AcDbEntity
  8
1
  6
Continuous
 62
     3
100
AcDbLine
 10
953.872994970257
 20
-315.5894029694962
 30
0.0
 11
953.872994970257
 21
-312.589402969496
 31
0.0
  0
LINE
  5
2BE
330
3B
100
AcDbEntity
  8
1
  6
Continuous
 62
     3
100
AcDbLine
 10
961.872994970257
 20
-301.5894029694962
 30
0.0
 11
961.872994970257
 21
-306.7894029694504
 31
0.0
  0
LINE
  5
2BF
330
3B
100
AcDbEntity
  8
1
  6
Continuous
 62
     3
100
AcDbLine
 10
1063.372994970257
 20
-312.5894029694669
 30
0.0
 11
1063.372994970257
 21
-315.5894029694962
 31
0.0
  0
LINE
  5
2C0
330
3B
100
AcDbEntity
  8
1
  6
Continuous
 62
     3
100
AcDbLine
 10
1057.372994970257
 20
-315.5894029694962
 30
0.0
 11
1062.596545633705
 21
-315.5894029694962
 31
0.0
  0
LINE
  5
2C1
330
3B
100
AcDbEntity
  8
1
  6
Continuous
 62
     3
100
AcDbLine
 10
1062.596545633705
 20
-315.5894029694962
 30
0.0
 11
1062.372994970257
 21
-315.5894029694962
 31
0.0
  0
ARC
  5
2C2
330
3B
100
AcDbEntity
  8
1
  6
Continuous
 62
     2
100
AcDbCircle
 10
659.4477732995447
 20
-312.7356070182146
 30
0.0
 40
5.199999999999932
100
AcDbArc
 50
-90.0
 51
0.0
  0
ARC
  5
2C3
330
3B
100
AcDbEntity
  8
1
  6
Continuous
 62
     2
100
AcDbCircle
 10
659.4477732995447
 20
-312.7356070182146
 30
0.0
 40
5.199999999999818
100
AcDbArc
 50
180.0
 51
-90.0
  0
ARC
  5
2C4
330
3B
100
AcDbEntity
  8
1
  6
Continuous
 62
     3
100
AcDbCircle
 10
659.4477732995447
 20
-312.7356070182146
 30
0.0
 40
5.5
100
AcDbArc
 50
-90.0
 51
0.0
  0
ARC
  5
2C5
330
3B
100
AcDbEntity
  8
1
  6
Continuous
 62
     3
100
AcDbCircle
 10
659.4477732995447
 20
-312.7356070182146
 30
0.0
 40
5.5
100
AcDbArc
 50
180.0
 51
-90.0
  0
ARC
  5
2C6
330
3B
100
AcDbEntity
  8
1
  6
Continuous
 62
     3
100
AcDbCircle
 10
659.4477732995447
 20
-312.7356070182146
 30
0.0
 40
8.499999999999803
100
AcDbArc
 50
-155.0989376296321
 51
-90.0
  0
ARC
  5
2C7
330
3B
100
AcDbEntity
  8
1
  6
Continuous
 62
     3
100
AcDbCircle
 10
659.4477732995447
 20
-312.7356070182146
 30
0.0
 40
8.5
100
AcDbArc
 50
-90.0
 51
-24.90106237036791
  0
ARC
  5
2C8
330
3B
100
AcDbEntity
  8
1
  6
Continuous
 62
     2
100
AcDbCircle
 10
659.4477732995447
 20
-312.7356070182146
 30
0.0
 40
8.5
100
AcDbArc
 50
180.0
 51
0.0
  0
CIRCLE
  5
2C9
330
3B
100
AcDbEntity
  8
1
  6
Continuous
 62
     3
100
AcDbCircle
 10
644.9477732995447
 20
-320.5356070182146
 30
0.0
 40
3.800000000000011
  0
CIRCLE
  5
2CA
330
3B
100
AcDbEntity
  8
1
  6
Continuous
 62
     3
100
AcDbCircle
 10
644.9477732995447
 20
-320.5356070182146
 30
0.0
 40
2.350000000000136
  0
ARC
  5
2CB
330
3B
100
AcDbEntity
  8
1
  6
Continuous
 62
     3
100
AcDbCircle
 10
667.1774632529109
 20
-328.6356070182147
 30
0.0
 40
4.0
100
AcDbArc
 50
-90.0
 51
-3.38633432877885
  0
ARC
  5
2CC
330
3B
100
AcDbEntity
  8
1
  6
Continuous
 62
     3
100
AcDbCircle
 10
606.7180833461785
 20
-328.6356070182147
 30
0.0
 40
3.999999999999928
100
AcDbArc
 50
-176.6136656712212
 51
-90.0
  0
ARC
  5
2CD
330
3B
100
AcDbEntity
  8
1
  6
Continuous
 62
     3
100
AcDbCircle
 10
650.6742594393777
 20
-316.6356070182145
 30
0.0
 40
1.111101010055111
100
AcDbArc
 50
16.79510421405387
 51
81.89404184370953
  0
ARC
  5
2CE
330
3B
100
AcDbEntity
  8
1
  6
Continuous
 62
     3
100
AcDbCircle
 10
668.2212871597121
 20
-316.6356070182145
 30
0.0
 40
1.111101010055194
100
AcDbArc
 50
98.10595815631245
 51
163.2048957859529
  0
ARC
  5
2CF
330
3B
100
AcDbEntity
  8
1
  6
Continuous
 62
     3
100
AcDbCircle
 10
856.643305016891
 20
-328.6356070182147
 30
0.0
 40
3.999999999999951
100
AcDbArc
 50
-176.6136656712154
 51
-90.0
  0
ARC
  5
2D0
330
3B
100
AcDbEntity
  8
1
  6
Continuous
 62
     3
100
AcDbCircle
 10
917.1026849236232
 20
-328.6356070182147
 30
0.0
 40
4.0
100
AcDbArc
 50
-90.0
 51
-3.38633432878454
  0
ARC
  5
2D1
330
3B
100
AcDbEntity
  8
1
  6
Continuous
 62
     3
100
AcDbCircle
 10
908.6026849236232
 20
-328.6356070182147
 30
0.0
 40
4.0
100
AcDbArc
 50
-90.0
 51
-3.38633432878454
  0
ARC
  5
2D2
330
3B
100
AcDbEntity
  8
1
  6
Continuous
 62
     3
100
AcDbCircle
 10
864.143305016891
 20
-328.6356070182147
 30
0.0
 40
4.000000000000035
100
AcDbArc
 50
-93.87485926596999
 51
-90.0
  0
ARC
  5
2D3
330
3B
100
AcDbEntity
  8
1
  6
Continuous
 62
     3
100
AcDbCircle
 10
865.143305016891
 20
-328.6356070182147
 30
0.0
 40
3.999999999999951
100
AcDbArc
 50
-176.6136656712154
 51
-93.87485926596999
  0
ARC
  5
2D4
330
3B
100
AcDbEntity
  8
1
  6
Continuous
 62
     3
100
AcDbCircle
 10
800.0718508919204
 20
-328.6356070182147
 30
0.0
 40
4.0
100
AcDbArc
 50
-90.0
 51
-3.38633432878253
  0
ARC
  5
2D5
330
3B
100
AcDbEntity
  8
1
  6
Continuous
 62
     3
100
AcDbCircle
 10
808.5718508919204
 20
-328.6356070182147
 30
0.0
 40
4.0
100
AcDbArc
 50
-90.0
 51
-3.38633432878253
  0
ARC
  5
2D6
330
3B
100
AcDbEntity
  8
1
  6
Continuous
 62
     3
100
AcDbCircle
 10
718.6124709851879
 20
-328.6356070182147
 30
0.0
 40
3.999999999999945
100
AcDbArc
 50
-176.6136656712171
 51
-90.0
  0
ARC
  5
2D7
330
3B
100
AcDbEntity
  8
1
  6
Continuous
 62
     3
100
AcDbCircle
 10
1050.602684923624
 20
-328.4894029694962
 30
0.0
 40
4.0
100
AcDbArc
 50
-90.0
 51
-3.38633432878268
  0
ARC
  5
2D8
330
3B
100
AcDbEntity
  8
1
  6
Continuous
 62
     3
100
AcDbCircle
 10
960.6433050168912
 20
-328.4894029694962
 30
0.0
 40
4.000000000000395
100
AcDbArc
 50
-176.6136656712183
 51
-90.0
  0
ARC
  5
2D9
330
3B
100
AcDbEntity
  8
1
  6
Continuous
 62
     3
100
AcDbCircle
 10
969.1433050168912
 20
-328.4894029694962
 30
0.0
 40
4.000000000000395
100
AcDbArc
 50
-176.6136656712183
 51
-90.0
  0
ENDBLK
  5
3D
330
3B
100
AcDbEntity
  8
0
100
AcDbBlockEnd
  0
BLOCK
  5
3F
330
3E
100
AcDbEntity
  8
0
100
AcDbBlockBegin
  2
2-8
 70
     0
 71
     0
 10
707.3421609385541
 20
-198.1055995188729
 30
0.0
  3
2-8
  1

  0
LINE
  5
2DA
330
3E
100
AcDbEntity
  8
1
  6
Continuous
 62
     2
100
AcDbLine
 10
711.8270851790463
 20
-173.1553082136476
 30
0.0
 11
708.8572366980624
 21
-176.1251566946312
 31
0.0
  0
LINE
  5
2DB
330
3E
100
AcDbEntity
  8
1
  6
Continuous
 62
     2
100
AcDbLine
 10
708.8572366980624
 20
-173.1553082136476
 30
0.0
 11
711.8270851790463
 21
-176.1251566946311
 31
0.0
  0
CIRCLE
  5
2DC
330
3E
100
AcDbEntity
  8
1
  6
Continuous
 62
     3
100
AcDbCircle
 10
710.3421609385545
 20
-174.6402324541395
 30
0.0
 40
3.000000000000366
  0
ENDBLK
  5
40
330
3E
100
AcDbEntity
  8
0
100
AcDbBlockEnd
  0
BLOCK
  5
42
330
41
100
AcDbEntity
  8
0
100
AcDbBlockBegin
  2
2-7
 70
     0
 71
     0
 10
1195.721322552743
 20
19.43342576393476
 30
0.0
  3
2-7
  1

  0
LINE
  5
2DD
102
{ACAD_REACTORS
330
2F5
330
2F5
102
}
330
41
100
AcDbEntity
  8
1
  6
Continuous
 62
     2
100
AcDbLine
 10
785.5921609381978
 20
-312.2356070182148
 30
0.0
 11
785.5921609381978
 21
-313.7356070182148
 31
0.0
  0
LINE
  5
2DE
102
{ACAD_REACTORS
330
2F5
330
2F5
102
}
330
41
100
AcDbEntity
  8
1
  6
Continuous
 62
     2
100
AcDbLine
 10
770.5921609381978
 20
-312.2356070182148
 30
0.0
 11
785.5921609381978
 21
-312.2356070182148
 31
0.0
  0
LINE
  5
2DF
102
{ACAD_REACTORS
330
2F5
330
2F5
102
}
330
41
100
AcDbEntity
  8
1
  6
Continuous
 62
     2
100
AcDbLine
 10
770.5921609381978
 20
-310.2356070182148
 30
0.0
 11
770.5921609381978
 21
-312.2356070182148
 31
0.0
  0
LINE
  5
2E0
102
{ACAD_REACTORS
330
2F5
330
2F5
102
}
330
41
100
AcDbEntity
  8
1
  6
Continuous
 62
     2
100
AcDbLine
 10
785.5921609381978
 20
-310.2356070182148
 30
0.0
 11
770.5921609381978
 21
-310.2356070182148
 31
0.0
  0
LINE
  5
2E1
102
{ACAD_REACTORS
330
2F5
330
2F5
102
}
330
41
100
AcDbEntity
  8
1
  6
Continuous
 62
     2
100
AcDbLine
 10
785.5921609381978
 20
-308.7356070182148
 30
0.0
 11
785.5921609381978
 21
-310.2356070182148
 31
0.0
  0
LINE
  5
2E2
102
{ACAD_REACTORS
330
2F5
330
2F5
102
}
330
41
100
AcDbEntity
  8
1
  6
Continuous
 62
     2
100
AcDbLine
 10
790.5921609381978
 20
-311.2356070182148
 30
0.0
 11
785.5921609381978
 21
-313.7356070182148
 31
0.0
  0
LINE
  5
2E3
102
{ACAD_REACTORS
330
2F5
330
2F5
102
}
330
41
100
AcDbEntity
  8
1
  6
Continuous
 62
     2
100
AcDbLine
 10
785.5921609381978
 20
-308.7356070182148
 30
0.0
 11
790.5921609381978
 21
-311.2356070182148
 31
0.0
  0
LINE
  5
2E4
330
41
100
AcDbEntity
  8
1
  6
Continuous
 62
     3
100
AcDbLine
 10
800.5921609381978
 20
-305.7356070182148
 30
0.0
 11
800.5921609381978
 21
-266.7356070182148
 31
0.0
  0
LINE
  5
2E5
330
41
100
AcDbEntity
  8
1
  6
Continuous
 62
     3
100
AcDbLine
 10
720.5921609381978
 20
-305.7356070182148
 30
0.0
 11
720.5921609381978
 21
-314.7356070182148
 31
0.0
  0
LINE
  5
2E6
330
41
100
AcDbEntity
  8
1
  6
LONG_DASHED
 62
     2
100
AcDbLine
 10
720.5921609381978
 20
-305.7356070182148
 30
0.0
 11
800.5921609381978
 21
-305.7356070182148
 31
0.0
  0
LINE
  5
2E7
330
41
100
AcDbEntity
  8
1
  6
Continuous
 62
     3
100
AcDbLine
 10
726.5921609381978
 20
-315.7356070182148
 30
0.0
 11
799.5921609381978
 21
-315.7356070182148
 31
0.0
  0
LINE
  5
2E8
330
41
100
AcDbEntity
  8
1
  6
Continuous
 62
     3
100
AcDbLine
 10
726.5921609381978
 20
-265.7356070182148
 30
0.0
 11
721.5921609381978
 21
-265.7356070182148
 31
0.0
  0
LINE
  5
2E9
330
41
100
AcDbEntity
  8
1
  6
Continuous
 62
     3
100
AcDbLine
 10
726.5921609381978
 20
-265.7356070182148
 30
0.0
 11
726.5921609381978
 21
-315.7356070182148
 31
0.0
  0
LINE
  5
2EA
330
41
100
AcDbEntity
  8
1
  6
Continuous
 62
     3
100
AcDbLine
 10
800.5921609381978
 20
-314.7356070182148
 30
0.0
 11
800.5921609381978
 21
-305.7356070182148
 31
0.0
  0
LINE
  5
2EB
330
41
100
AcDbEntity
  8
1
  6
Continuous
 62
     3
100
AcDbLine
 10
721.5921609381978
 20
-315.7356070182148
 30
0.0
 11
726.5921609381978
 21
-315.7356070182148
 31
0.0
  0
LINE
  5
2EC
330
41
100
AcDbEntity
  8
1
  6
Continuous
 62
     3
100
AcDbLine
 10
720.5921609381978
 20
-266.7356070182148
 30
0.0
 11
720.5921609381978
 21
-305.7356070182148
 31
0.0
  0
LINE
  5
2ED
330
41
100
AcDbEntity
  8
1
  6
Continuous
 62
     3
100
AcDbLine
 10
799.5921609381978
 20
-265.7356070182148
 30
0.0
 11
726.5921609381978
 21
-265.7356070182148
 31
0.0
  0
LINE
  5
2EE
330
41
100
AcDbEntity
  8
1
  6
Continuous
 62
     2
100
AcDbLine
 10
744.1235778284859
 20
-305.1949089267457
 30
0.0
 11
744.1235778284859
 21
-305.657057574719
 31
0.0
  0
ARC
  5
2EF
330
41
100
AcDbEntity
  8
1
  6
Continuous
 62
     3
100
AcDbCircle
 10
799.5921609381978
 20
-314.7356070182148
 30
0.0
 40
1.0
100
AcDbArc
 50
-90.0
 51
0.0
  0
ARC
  5
2F0
330
41
100
AcDbEntity
  8
1
  6
Continuous
 62
     3
100
AcDbCircle
 10
799.5921609381978
 20
-266.7356070182148
 30
0.0
 40
1.0
100
AcDbArc
 50
0.0
 51
90.0
  0
ARC
  5
2F1
330
41
100
AcDbEntity
  8
1
  6
Continuous
 62
     3
100
AcDbCircle
 10
721.5921609381978
 20
-314.7356070182148
 30
0.0
 40
1.0
100
AcDbArc
 50
180.0
 51
-90.0
  0
ARC
  5
2F2
330
41
100
AcDbEntity
  8
1
  6
Continuous
 62
     3
100
AcDbCircle
 10
721.5921609381978
 20
-266.7356070182148
 30
0.0
 40
1.0
100
AcDbArc
 50
90.0
 51
180.0
  0
TEXT
  5
2F4
330
41
100
AcDbEntity
  8
1
 62
     3
100
AcDbText
 10
745.5923694752248
 20
-313.7356070182148
 30
0.0
 40
5.0
  1
%%d~‚õ•«Œ*
 41
0.9
  7
CONVERTER_2
100
AcDbText
  0
HATCH
  5
2F5
330
41
100
AcDbEntity
  8
1
  6
Continuous
 62
     2
100
AcDbHatch
 10
0.0
 20
0.0
 30
0.0
210
0.0
220
0.0
230
1.0
  2
SOLID
 70
     1
 71
     1
 91
        1
 92
        1
 93
        7
 72
     1
 10
770.5921609381978
 20
-310.2356070182148
 11
770.5921609381978
 21
-312.2356070182148
 72
     1
 10
770.5921609381978
 20
-312.2356070182148
 11
785.5921609381978
 21
-312.2356070182148
 72
     1
 10
785.5921609381978
 20
-312.2356070182148
 11
785.5921609381978
 21
-313.7356070182148
 72
     1
 10
785.5921609381978
 20
-313.7356070182148
 11
790.5921609381978
 21
-311.2356070182148
 72
     1
 10
790.5921609381978
 20
-311.2356070182148
 11
785.5921609381978
 21
-308.7356070182148
 72
     1
 10
785.5921609381978
 20
-308.7356070182148
 11
785.5921609381978
 21
-310.2356070182148
 72
     1
 10
785.5921609381978
 20
-310.2356070182148
 11
770.5921609381978
 21
-310.2356070182148
 97
        7
330
2E1
330
2E3
330
2E2
330
2DD
330
2DE
330
2DF
330
2E0
 75
     0
 76
     1
 98
        1
 10
0.0
 20
0.0
  0
ENDBLK
  5
43
330
41
100
AcDbEntity
  8
0
100
AcDbBlockEnd
  0
BLOCK
  5
45
330
44
100
AcDbEntity
  8
0
100
AcDbBlockBegin
  2
2-5
 70
     0
 71
     0
 10
780.3421609385545
 20
-261.6356070177696
 30
0.0
  3
2-5
  1

  0
LINE
  5
2F6
330
44
100
AcDbEntity
  8
1
  6
Continuous
 62
     3
100
AcDbLine
 10
891.4729949708
 20
-261.6356070177696
 30
0.0
 11
891.4729949708
 21
-252.6356070177696
 31
0.0
  0
LINE
  5
2F7
330
44
100
AcDbEntity
  8
1
  6
Continuous
 62
     3
100
AcDbLine
 10
891.4729949708
 20
-252.6356070177696
 30
0.0
 11
891.7729949708003
 21
-252.6356070177696
 31
0.0
  0
LINE
  5
2F8
330
44
100
AcDbEntity
  8
1
  6
Continuous
 62
     3
100
AcDbLine
 10
891.7729949708003
 20
-252.6356070177696
 30
0.0
 11
891.7729949708003
 21
-261.6356070177696
 31
0.0
  0
LINE
  5
2F9
330
44
100
AcDbEntity
  8
1
  6
Continuous
 62
     3
100
AcDbLine
 10
891.7729949708003
 20
-261.6356070177696
 30
0.0
 11
891.4729949708
 21
-261.6356070177696
 31
0.0
  0
LINE
  5
2FA
330
44
100
AcDbEntity
  8
1
  6
Continuous
 62
     7
100
AcDbLine
 10
890.1175016329796
 20
-257.1356070181856
 30
0.0
 11
893.2955794001366
 21
-257.1356070181856
 31
0.0
  0
LINE
  5
2FB
330
44
100
AcDbEntity
  8
1
  6
Continuous
 62
     3
100
AcDbLine
 10
780.3421609385545
 20
-170.0402324541397
 30
0.0
 11
780.3421609385545
 21
-169.7402324541394
 31
0.0
  0
LINE
  5
2FC
330
44
100
AcDbEntity
  8
1
  6
Continuous
 62
     3
100
AcDbLine
 10
789.3421609385545
 20
-170.0402324541397
 30
0.0
 11
780.3421609385545
 21
-170.0402324541397
 31
0.0
  0
LINE
  5
2FD
330
44
100
AcDbEntity
  8
1
  6
Continuous
 62
     3
100
AcDbLine
 10
789.3421609385545
 20
-169.7402324541394
 30
0.0
 11
789.3421609385545
 21
-170.0402324541397
 31
0.0
  0
LINE
  5
2FE
330
44
100
AcDbEntity
  8
1
  6
Continuous
 62
     3
100
AcDbLine
 10
780.3421609385545
 20
-169.7402324541394
 30
0.0
 11
789.3421609385545
 21
-169.7402324541394
 31
0.0
  0
ENDBLK
  5
46
330
44
100
AcDbEntity
  8
0
100
AcDbBlockEnd
  0
BLOCK
  5
48
330
47
100
AcDbEntity
  8
0
100
AcDbBlockBegin
  2
2-1
 70
     0
 71
     0
 10
632.4477732995448
 20
-318.095970410166
 30
0.0
  3
2-1
  1

  0
LINE
  5
2FF
330
47
100
AcDbEntity
  8
1
  6
Continuous
 62
     3
100
AcDbLine
 10
632.4477732995448
 20
-253.7356070182146
 30
0.0
 11
632.4477732995448
 21
-253.6356070181856
 31
0.0
  0
LINE
  5
300
330
47
100
AcDbEntity
  8
1
  6
Continuous
 62
     3
100
AcDbLine
 10
641.4477732995448
 20
-253.7356070182146
 30
0.0
 11
641.4477732995448
 21
-253.6356070181856
 31
0.0
  0
LINE
  5
301
330
47
100
AcDbEntity
  8
1
  6
Continuous
 62
     3
100
AcDbLine
 10
636.4728995653906
 20
-253.6356070181856
 30
0.0
 11
637.4226470336968
 21
-253.6356070181856
 31
0.0
  0
LINE
  5
302
330
47
100
AcDbEntity
  8
1
  6
Continuous
 62
     2
100
AcDbLine
 10
641.4477732995448
 20
-248.6356070181856
 30
0.0
 11
637.4226470336968
 21
-253.6356070181856
 31
0.0
  0
LINE
  5
303
330
47
100
AcDbEntity
  8
1
  6
Continuous
 62
     2
100
AcDbLine
 10
637.4226470336968
 20
-248.6356070181856
 30
0.0
 11
641.4477732995448
 21
-253.6356070181856
 31
0.0
  0
LINE
  5
304
330
47
100
AcDbEntity
  8
1
  6
Continuous
 62
     3
100
AcDbLine
 10
637.4226470336968
 20
-253.6356070181856
 30
0.0
 11
641.4477732995448
 21
-253.6356070181856
 31
0.0
  0
LINE
  5
305
330
47
100
AcDbEntity
  8
1
  6
Continuous
 62
     3
100
AcDbLine
 10
637.4226470336968
 20
-253.6356070181856
 30
0.0
 11
637.4226470336968
 21
-248.6356070181856
 31
0.0
  0
LINE
  5
306
330
47
100
AcDbEntity
  8
1
  6
Continuous
 62
     3
100
AcDbLine
 10
636.4728995653906
 20
-248.6356070181856
 30
0.0
 11
636.4728995653906
 21
-253.6356070181856
 31
0.0
  0
LINE
  5
307
330
47
100
AcDbEntity
  8
1
  6
Continuous
 62
     3
100
AcDbLine
 10
641.4477732995448
 20
-253.6356070181856
 30
0.0
 11
641.4477732995448
 21
-248.6356070181856
 31
0.0
  0
LINE
  5
308
330
47
100
AcDbEntity
  8
1
  6
Continuous
 62
     3
100
AcDbLine
 10
632.4477732995448
 20
-253.6356070181856
 30
0.0
 11
632.4477732995448
 21
-248.6356070181856
 31
0.0
  0
LINE
  5
309
330
47
100
AcDbEntity
  8
1
  6
Continuous
 62
     3
100
AcDbLine
 10
632.4477732995448
 20
-253.6356070181856
 30
0.0
 11
636.4728995653906
 21
-253.6356070181856
 31
0.0
  0
LINE
  5
30A
330
47
100
AcDbEntity
  8
1
  6
Continuous
 62
     3
100
AcDbLine
 10
641.4477732995448
 20
-248.6356070181856
 30
0.0
 11
632.4477732995448
 21
-248.6356070181856
 31
0.0
  0
LINE
  5
30B
330
47
100
AcDbEntity
  8
1
  6
Continuous
 62
     2
100
AcDbLine
 10
636.4728995653906
 20
-253.6356070181856
 30
0.0
 11
632.4477732995448
 21
-248.6356070181856
 31
0.0
  0
LINE
  5
30C
330
47
100
AcDbEntity
  8
1
  6
Continuous
 62
     2
100
AcDbLine
 10
636.4728995653906
 20
-248.6356070181856
 30
0.0
 11
632.4477732995448
 21
-253.6356070181856
 31
0.0
  0
LINE
  5
30D
330
47
100
AcDbEntity
  8
1
  6
Continuous
 62
     2
100
AcDbLine
 10
886.3981212361028
 20
-248.6356070181856
 30
0.0
 11
882.3729949702571
 21
-253.6356070181856
 31
0.0
  0
LINE
  5
30E
330
47
100
AcDbEntity
  8
1
  6
Continuous
 62
     2
100
AcDbLine
 10
886.3981212361028
 20
-253.6356070181856
 30
0.0
 11
882.3729949702571
 21
-248.6356070181856
 31
0.0
  0
LINE
  5
30F
330
47
100
AcDbEntity
  8
1
  6
Continuous
 62
     3
100
AcDbLine
 10
891.3729949702571
 20
-248.6356070181856
 30
0.0
 11
882.3729949702571
 21
-248.6356070181856
 31
0.0
  0
LINE
  5
310
330
47
100
AcDbEntity
  8
1
  6
Continuous
 62
     3
100
AcDbLine
 10
882.3729949702571
 20
-253.6356070181856
 30
0.0
 11
886.3981212361028
 21
-253.6356070181856
 31
0.0
  0
LINE
  5
311
330
47
100
AcDbEntity
  8
1
  6
Continuous
 62
     3
100
AcDbLine
 10
882.3729949702571
 20
-253.6356070181856
 30
0.0
 11
882.3729949702571
 21
-248.6356070181856
 31
0.0
  0
LINE
  5
312
330
47
100
AcDbEntity
  8
1
  6
Continuous
 62
     3
100
AcDbLine
 10
891.3729949702571
 20
-253.6356070181856
 30
0.0
 11
891.3729949702571
 21
-248.6356070181856
 31
0.0
  0
LINE
  5
313
330
47
100
AcDbEntity
  8
1
  6
Continuous
 62
     3
100
AcDbLine
 10
886.3981212361028
 20
-248.6356070181856
 30
0.0
 11
886.3981212361028
 21
-253.6356070181856
 31
0.0
  0
LINE
  5
314
330
47
100
AcDbEntity
  8
1
  6
Continuous
 62
     3
100
AcDbLine
 10
887.3478687044091
 20
-253.6356070181856
 30
0.0
 11
887.3478687044091
 21
-248.6356070181856
 31
0.0
  0
LINE
  5
315
330
47
100
AcDbEntity
  8
1
  6
Continuous
 62
     3
100
AcDbLine
 10
887.3478687044091
 20
-253.6356070181856
 30
0.0
 11
891.3729949702571
 21
-253.6356070181856
 31
0.0
  0
LINE
  5
316
330
47
100
AcDbEntity
  8
1
  6
Continuous
 62
     2
100
AcDbLine
 10
887.3478687044091
 20
-248.6356070181856
 30
0.0
 11
891.3729949702571
 21
-253.6356070181856
 31
0.0
  0
LINE
  5
317
330
47
100
AcDbEntity
  8
1
  6
Continuous
 62
     2
100
AcDbLine
 10
891.3729949702571
 20
-248.6356070181856
 30
0.0
 11
887.3478687044091
 21
-253.6356070181856
 31
0.0
  0
LINE
  5
318
330
47
100
AcDbEntity
  8
1
  6
Continuous
 62
     3
100
AcDbLine
 10
886.3981212361028
 20
-253.6356070181856
 30
0.0
 11
887.3478687044091
 21
-253.6356070181856
 31
0.0
  0
LINE
  5
319
330
47
100
AcDbEntity
  8
1
  6
Continuous
 62
     3
100
AcDbLine
 10
891.3729949702571
 20
-261.7356070181857
 30
0.0
 11
891.3729949702571
 21
-253.6356070181856
 31
0.0
  0
LINE
  5
31A
330
47
100
AcDbEntity
  8
1
  6
Continuous
 62
     3
100
AcDbLine
 10
882.3729949702571
 20
-261.7356070181857
 30
0.0
 11
882.3729949702571
 21
-253.6356070181856
 31
0.0
  0
LINE
  5
31B
330
47
100
AcDbEntity
  8
1
  6
Continuous
 62
     3
100
AcDbLine
 10
701.1915846021557
 20
-202.1138495259791
 30
0.0
 11
706.8421609385546
 21
-202.1138495259793
 31
0.0
  0
LINE
  5
31C
330
47
100
AcDbEntity
  8
1
  6
Continuous
 62
     3
100
AcDbLine
 10
706.8421609385546
 20
-192.1155858545813
 30
0.0
 11
700.9603037021311
 21
-192.1155858545813
 31
0.0
  0
LINE
  5
31D
330
47
100
AcDbEntity
  8
1
  6
Continuous
 62
     3
100
AcDbLine
 10
783.4714717875173
 20
-170.354067355683
 30
0.0
 11
780.5559958400974
 21
-173.2695433031027
 31
0.0
  0
LINE
  5
31E
330
47
100
AcDbEntity
  8
1
  6
Continuous
 62
     3
100
AcDbLine
 10
780.5559958400974
 20
-176.0109216051758
 30
0.0
 11
783.4714717875173
 21
-178.9263975525965
 31
0.0
  0
LINE
  5
31F
330
47
100
AcDbEntity
  8
1
  6
Continuous
 62
     3
100
AcDbLine
 10
786.2128500895861
 20
-178.9263975525979
 30
0.0
 11
789.1283260370134
 21
-176.0109216051713
 31
0.0
  0
LINE
  5
320
330
47
100
AcDbEntity
  8
1
  6
Continuous
 62
     3
100
AcDbLine
 10
789.1283260370125
 20
-173.2695433031062
 30
0.0
 11
786.2128500895875
 21
-170.3540673556814
 31
0.0
  0
LINE
  5
321
330
47
100
AcDbEntity
  8
1
  6
Continuous
 62
     3
100
AcDbLine
 10
786.6921609385545
 20
-257.8955412258644
 30
0.0
 11
786.6921609385545
 21
-259.7856070181858
 31
0.0
  0
LINE
  5
322
330
47
100
AcDbEntity
  8
1
  6
Continuous
 62
     3
100
AcDbLine
 10
782.9921609385542
 20
-259.7856070181858
 30
0.0
 11
782.9921609385542
 21
-257.8955412258644
 31
0.0
  0
LINE
  5
323
330
47
100
AcDbEntity
  8
1
  6
Continuous
 62
     3
100
AcDbLine
 10
780.3421609385546
 20
-261.7356070181857
 30
0.0
 11
780.3421609385546
 21
-253.6356070181856
 31
0.0
  0
LINE
  5
324
330
47
100
AcDbEntity
  8
1
  6
Continuous
 62
     3
100
AcDbLine
 10
789.3421609385546
 20
-261.7356070181857
 30
0.0
 11
789.3421609385546
 21
-253.6356070181856
 31
0.0
  0
LINE
  5
325
330
47
100
AcDbEntity
  8
1
  6
Continuous
 62
     3
100
AcDbLine
 10
784.3672872044003
 20
-253.6356070181856
 30
0.0
 11
785.3170346727065
 21
-253.6356070181856
 31
0.0
  0
LINE
  5
326
330
47
100
AcDbEntity
  8
1
  6
Continuous
 62
     2
100
AcDbLine
 10
784.3672872044003
 20
-248.6356070181856
 30
0.0
 11
780.3421609385546
 21
-253.6356070181856
 31
0.0
  0
LINE
  5
327
330
47
100
AcDbEntity
  8
1
  6
Continuous
 62
     2
100
AcDbLine
 10
784.3672872044003
 20
-253.6356070181856
 30
0.0
 11
780.3421609385546
 21
-248.6356070181856
 31
0.0
  0
LINE
  5
328
330
47
100
AcDbEntity
  8
1
  6
Continuous
 62
     2
100
AcDbLine
 10
789.3421609385546
 20
-248.6356070181856
 30
0.0
 11
785.3170346727065
 21
-253.6356070181856
 31
0.0
  0
LINE
  5
329
330
47
100
AcDbEntity
  8
1
  6
Continuous
 62
     2
100
AcDbLine
 10
785.3170346727065
 20
-248.6356070181856
 30
0.0
 11
789.3421609385546
 21
-253.6356070181856
 31
0.0
  0
LINE
  5
32A
330
47
100
AcDbEntity
  8
1
  6
Continuous
 62
     3
100
AcDbLine
 10
785.3170346727065
 20
-253.6356070181856
 30
0.0
 11
789.3421609385546
 21
-253.6356070181856
 31
0.0
  0
LINE
  5
32B
330
47
100
AcDbEntity
  8
1
  6
Continuous
 62
     3
100
AcDbLine
 10
785.3170346727065
 20
-253.6356070181856
 30
0.0
 11
785.3170346727065
 21
-248.6356070181856
 31
0.0
  0
LINE
  5
32C
330
47
100
AcDbEntity
  8
1
  6
Continuous
 62
     3
100
AcDbLine
 10
784.3672872044003
 20
-248.6356070181856
 30
0.0
 11
784.3672872044003
 21
-253.6356070181856
 31
0.0
  0
LINE
  5
32D
330
47
100
AcDbEntity
  8
1
  6
Continuous
 62
     3
100
AcDbLine
 10
789.3421609385546
 20
-253.6356070181856
 30
0.0
 11
789.3421609385546
 21
-248.6356070181856
 31
0.0
  0
LINE
  5
32E
330
47
100
AcDbEntity
  8
1
  6
Continuous
 62
     3
100
AcDbLine
 10
780.3421609385546
 20
-253.6356070181856
 30
0.0
 11
780.3421609385546
 21
-248.6356070181856
 31
0.0
  0
LINE
  5
32F
330
47
100
AcDbEntity
  8
1
  6
Continuous
 62
     3
100
AcDbLine
 10
780.3421609385546
 20
-253.6356070181856
 30
0.0
 11
784.3672872044003
 21
-253.6356070181856
 31
0.0
  0
LINE
  5
330
330
47
100
AcDbEntity
  8
1
  6
Continuous
 62
     3
100
AcDbLine
 10
789.3421609385546
 20
-248.6356070181856
 30
0.0
 11
780.3421609385546
 21
-248.6356070181856
 31
0.0
  0
LINE
  5
331
330
47
100
AcDbEntity
  8
1
  6
Continuous
 62
     3
100
AcDbLine
 10
1070.42445252699
 20
-306.2904851482749
 30
0.0
 11
1062.372994970257
 21
-306.290485148275
 31
0.0
  0
LINE
  5
332
330
47
100
AcDbEntity
  8
1
  6
Continuous
 62
     3
100
AcDbLine
 10
1061.934484399906
 20
-317.8883207906586
 30
0.0
 11
1070.42445252699
 21
-317.8883207906584
 31
0.0
  0
LINE
  5
333
330
47
100
AcDbEntity
  8
1
  6
Continuous
 62
     3
100
AcDbLine
 10
988.872994970257
 20
-248.489402969467
 30
0.0
 11
979.872994970257
 21
-248.489402969467
 31
0.0
  0
LINE
  5
334
330
47
100
AcDbEntity
  8
1
  6
Continuous
 62
     3
100
AcDbLine
 10
979.872994970257
 20
-253.489402969467
 30
0.0
 11
983.8981212361027
 21
-253.489402969467
 31
0.0
  0
LINE
  5
335
330
47
100
AcDbEntity
  8
1
  6
Continuous
 62
     3
100
AcDbLine
 10
979.872994970257
 20
-253.489402969467
 30
0.0
 11
979.872994970257
 21
-248.489402969467
 31
0.0
  0
LINE
  5
336
330
47
100
AcDbEntity
  8
1
  6
Continuous
 62
     3
100
AcDbLine
 10
988.872994970257
 20
-253.489402969467
 30
0.0
 11
988.872994970257
 21
-248.489402969467
 31
0.0
  0
LINE
  5
337
330
47
100
AcDbEntity
  8
1
  6
Continuous
 62
     3
100
AcDbLine
 10
983.8981212361027
 20
-248.489402969467
 30
0.0
 11
983.8981212361027
 21
-253.489402969467
 31
0.0
  0
LINE
  5
338
330
47
100
AcDbEntity
  8
1
  6
Continuous
 62
     3
100
AcDbLine
 10
984.8478687044089
 20
-253.489402969467
 30
0.0
 11
984.8478687044089
 21
-248.489402969467
 31
0.0
  0
LINE
  5
339
330
47
100
AcDbEntity
  8
1
  6
Continuous
 62
     3
100
AcDbLine
 10
984.8478687044089
 20
-253.489402969467
 30
0.0
 11
988.872994970257
 21
-253.489402969467
 31
0.0
  0
LINE
  5
33A
330
47
100
AcDbEntity
  8
1
  6
Continuous
 62
     2
100
AcDbLine
 10
984.8478687044089
 20
-248.489402969467
 30
0.0
 11
988.872994970257
 21
-253.489402969467
 31
0.0
  0
LINE
  5
33B
330
47
100
AcDbEntity
  8
1
  6
Continuous
 62
     2
100
AcDbLine
 10
988.872994970257
 20
-248.489402969467
 30
0.0
 11
984.8478687044089
 21
-253.489402969467
 31
0.0
  0
LINE
  5
33C
330
47
100
AcDbEntity
  8
1
  6
Continuous
 62
     2
100
AcDbLine
 10
983.8981212361027
 20
-253.489402969467
 30
0.0
 11
979.872994970257
 21
-248.489402969467
 31
0.0
  0
LINE
  5
33D
330
47
100
AcDbEntity
  8
1
  6
Continuous
 62
     2
100
AcDbLine
 10
983.8981212361027
 20
-248.489402969467
 30
0.0
 11
979.872994970257
 21
-253.489402969467
 31
0.0
  0
LINE
  5
33E
330
47
100
AcDbEntity
  8
1
  6
Continuous
 62
     3
100
AcDbLine
 10
983.8981212361027
 20
-253.489402969467
 30
0.0
 11
984.8478687044089
 21
-253.489402969467
 31
0.0
  0
LINE
  5
33F
330
47
100
AcDbEntity
  8
1
  6
Continuous
 62
     3
100
AcDbLine
 10
988.872994970257
 20
-261.5894029694671
 30
0.0
 11
988.872994970257
 21
-253.489402969467
 31
0.0
  0
LINE
  5
340
330
47
100
AcDbEntity
  8
1
  6
Continuous
 62
     3
100
AcDbLine
 10
979.872994970257
 20
-261.5894029694671
 30
0.0
 11
979.872994970257
 21
-253.489402969467
 31
0.0
  0
LINE
  5
341
330
47
100
AcDbEntity
  8
1
  6
Continuous
 62
     3
100
AcDbLine
 10
982.5229949702566
 20
-259.6394029694672
 30
0.0
 11
982.5229949702566
 21
-257.7493371771458
 31
0.0
  0
LINE
  5
342
330
47
100
AcDbEntity
  8
1
  6
Continuous
 62
     3
100
AcDbLine
 10
986.2229949702569
 20
-257.7493371771458
 30
0.0
 11
986.2229949702569
 21
-259.6394029694672
 31
0.0
  0
LINE
  5
343
330
47
100
AcDbEntity
  8
1
  6
Continuous
 62
     3
100
AcDbLine
 10
698.7907033818215
 20
-318.034524839377
 30
0.0
 11
707.2806715089059
 21
-318.0345248393772
 31
0.0
  0
LINE
  5
344
330
47
100
AcDbEntity
  8
1
  6
Continuous
 62
     3
100
AcDbLine
 10
706.8421609385541
 20
-306.4366891969936
 30
0.0
 11
698.7907033818219
 21
-306.4366891969934
 31
0.0
  0
CIRCLE
  5
345
330
47
100
AcDbEntity
  8
1
  6
Continuous
 62
     3
100
AcDbCircle
 10
784.8421609385545
 20
-174.6402324541395
 30
0.0
 40
4.5
  0
SPLINE
  5
346
330
47
100
AcDbEntity
  8
1
  6
Continuous
 62
     2
100
AcDbSpline
210
0.0
220
0.0
230
1.0
 70
     8
 71
     3
 72
     9
 73
     5
 74
     3
 42
0.0000000001
 43
0.0000000001
 44
0.00000001
 40
0.0
 40
0.0
 40
0.0
 40
0.0
 40
4.082808494760477
 40
10.0025124456452
 40
10.0025124456452
 40
10.0025124456452
 40
10.0025124456452
 10
700.9603037021311
 20
-192.1155858545813
 30
0.0
 10
700.952682207896
 20
-193.4767185213662
 30
0.0
 10
700.9340102346603
 20
-196.8113707484207
 30
0.0
 10
701.0958213011846
 20
-200.1424465637737
 30
0.0
 10
701.1915846021557
 20
-202.1138495259791
 30
0.0
 11
700.9603037021311
 21
-192.1155858545813
 31
0.0
 11
700.9675094124199
 21
-196.1983879906917
 31
0.0
 11
701.1915846021557
 21
-202.1138495259791
 31
0.0
  0
SPLINE
  5
347
330
47
100
AcDbEntity
  8
1
  6
Continuous
 62
     2
100
AcDbSpline
210
0.0
220
0.0
230
1.0
 70
     8
 71
     3
 72
    16
 73
    12
 74
    10
 42
0.0000000001
 43
0.0000000001
 44
0.00000001
 40
0.0
 40
0.0
 40
0.0
 40
0.0
 40
1.765994883252575
 40
3.573213142785496
 40
5.253023387343155
 40
6.456488512557844
 40
7.769378029897924
 40
9.102675150623043
 40
10.45401548845635
 40
11.92862000393226
 40
13.18424224579069
 40
13.18424224579069
 40
13.18424224579069
 40
13.18424224579069
 10
1070.42445252699
 20
-306.2904851482749
 30
0.0
 10
1070.49990600318
 20
-306.9147024689409
 30
0.0
 10
1070.652574255702
 20
-308.1777081295518
 30
0.0
 10
1069.230978343146
 20
-309.3887641521464
 30
0.0
 10
1068.20805947022
 20
-310.704458580901
 30
0.0
 10
1068.486810982617
 20
-312.1729605662949
 30
0.0
 10
1069.120096144606
 20
-313.2863631473018
 30
0.0
 10
1070.008290902967
 20
-314.3039275810272
 30
0.0
 10
1070.774866601307
 20
-315.4005550932264
 30
0.0
 10
1071.415290691966
 20
-316.8424546183639
 30
0.0
 10
1070.736586388127
 20
-317.5588520054118
 30
0.0
 10
1070.42445252699
 20
-317.8883207906584
 30
0.0
 11
1070.42445252699
 21
-306.2904851482749
 31
0.0
 11
1070.377317711135
 21
-308.0558508998427
 31
0.0
 11
1069.245709761179
 21
-309.4649290684288
 31
0.0
 11
1068.382620061133
 21
-310.9060531530917
 31
0.0
 11
1068.535990245965
 21
-312.0997054869027
 31
0.0
 11
1069.154311720497
 21
-313.2578753530597
 31
0.0
 11
1069.979199376632
 21
-314.3053683443917
 31
0.0
 11
1070.7344422611
 21
-315.4259614436545
 31
0.0
 11
1071.126698146563
 21
-316.8474373658502
 31
0.0
 11
1070.42445252699
 21
-317.8883207906584
 31
0.0
  0
SPLINE
  5
348
330
47
100
AcDbEntity
  8
1
  6
Continuous
 62
     2
100
AcDbSpline
210
0.0
220
0.0
230
1.0
 70
     8
 71
     3
 72
    16
 73
    12
 74
    10
 42
0.0000000001
 43
0.0000000001
 44
0.00000001
 40
0.0
 40
0.0
 40
0.0
 40
0.0
 40
1.765994883252572
 40
3.573213142785582
 40
5.253023387343142
 40
6.456488512557917
 40
7.769378029898054
 40
9.102675150623032
 40
10.45401548845658
 40
11.92862000393243
 40
13.18424224579108
 40
13.18424224579108
 40
13.18424224579108
 40
13.18424224579108
 10
698.7907033818219
 20
-306.4366891969934
 30
0.0
 10
698.7152499056326
 20
-307.0609065176594
 30
0.0
 10
698.5625816531103
 20
-308.3239121782702
 30
0.0
 10
699.9841775656657
 20
-309.5349682008651
 30
0.0
 10
701.007096438592
 20
-310.8506626296195
 30
0.0
 10
700.7283449261951
 20
-312.3191646150136
 30
0.0
 10
700.0950597642054
 20
-313.4325671960201
 30
0.0
 10
699.2068650058448
 20
-314.450131629746
 30
0.0
 10
698.4402893075045
 20
-315.5467591419449
 30
0.0
 10
697.7998652168451
 20
-316.9886586670825
 30
0.0
 10
698.4785695206847
 20
-317.7050560541304
 30
0.0
 10
698.7907033818215
 20
-318.034524839377
 30
0.0
 11
698.7907033818219
 21
-306.4366891969934
 31
0.0
 11
698.8378381976773
 21
-308.2020549485612
 31
0.0
 11
699.9694461476332
 21
-309.6111331171474
 31
0.0
 11
700.8325358476792
 21
-311.0522572018102
 31
0.0
 11
700.6791656628467
 21
-312.2459095356213
 31
0.0
 11
700.0608441883145
 21
-313.4040794017782
 31
0.0
 11
699.2359565321796
 21
-314.4515723931102
 31
0.0
 11
698.4807136477109
 21
-315.5721654923731
 31
0.0
 11
698.0884577622485
 21
-316.9936414145687
 31
0.0
 11
698.7907033818215
 21
-318.034524839377
 31
0.0
  0
ARC
  5
349
330
47
100
AcDbEntity
  8
1
  6
Continuous
 62
     3
100
AcDbCircle
 10
784.8421609385546
 20
-259.7856070181858
 30
0.0
 40
1.849999999999852
100
AcDbArc
 50
-90.0
 51
0.0
  0
ARC
  5
34A
330
47
100
AcDbEntity
  8
1
  6
Continuous
 62
     3
100
AcDbCircle
 10
784.8421609385546
 20
-259.7856070181858
 30
0.0
 40
1.850000000000364
100
AcDbArc
 50
180.0
 51
-90.0
  0
ARC
  5
34B
330
47
100
AcDbEntity
  8
1
  6
Continuous
 62
     3
100
AcDbCircle
 10
784.8421609385546
 20
-256.4856070181857
 30
0.0
 40
1.850000000000108
100
AcDbArc
 50
90.0
 51
180.0
  0
ARC
  5
34C
330
47
100
AcDbEntity
  8
1
  6
Continuous
 62
     3
100
AcDbCircle
 10
784.8421609385546
 20
-256.4856070181857
 30
0.0
 40
1.849999999999909
100
AcDbArc
 50
0.0
 51
90.0
  0
ARC
  5
34D
330
47
100
AcDbEntity
  8
1
  6
Continuous
 62
     3
100
AcDbCircle
 10
1061.872994970258
 20
-307.290485148275
 30
0.0
 40
2.00000000000174
100
AcDbArc
 50
29.99999999997123
 51
75.52248781408521
  0
ARC
  5
34E
330
47
100
AcDbEntity
  8
1
  6
Continuous
 62
     3
100
AcDbCircle
 10
984.372994970257
 20
-256.3394029694671
 30
0.0
 40
1.849999999999909
100
AcDbArc
 50
0.0
 51
90.0
  0
ARC
  5
34F
330
47
100
AcDbEntity
  8
1
  6
Continuous
 62
     3
100
AcDbCircle
 10
984.372994970257
 20
-256.3394029694671
 30
0.0
 40
1.85000000000008
100
AcDbArc
 50
90.0
 51
180.0
  0
ARC
  5
350
330
47
100
AcDbEntity
  8
1
  6
Continuous
 62
     3
100
AcDbCircle
 10
984.372994970257
 20
-259.6394029694672
 30
0.0
 40
1.850000000000364
100
AcDbArc
 50
180.0
 51
-90.0
  0
ARC
  5
351
330
47
100
AcDbEntity
  8
1
  6
Continuous
 62
     3
100
AcDbCircle
 10
984.372994970257
 20
-259.6394029694672
 30
0.0
 40
1.849999999999909
100
AcDbArc
 50
-90.0
 51
0.0
  0
ARC
  5
352
330
47
100
AcDbEntity
  8
1
  6
Continuous
 62
     3
100
AcDbCircle
 10
707.3421609385537
 20
-307.4366891969936
 30
0.0
 40
2.000000000002045
100
AcDbArc
 50
104.4775121859148
 51
150.0000000000288
  0
ENDBLK
  5
49
330
47
100
AcDbEntity
  8
0
100
AcDbBlockEnd
  0
BLOCK
  5
4B
330
4A
100
AcDbEntity
  8
0
100
AcDbBlockBegin
  2
2-6
 70
     0
 71
     0
 10
777.4974696163584
 20
-261.7356070181857
 30
0.0
  3
2-6
  1

  0
LINE
  5
353
330
4A
100
AcDbEntity
  8
1
  6
Continuous
 62
     2
100
AcDbLine
 10
893.872994970257
 20
-259.4307075085866
 30
0.0
 11
879.8729949702571
 21
-259.119401128107
 31
0.0
  0
LINE
  5
354
330
4A
100
AcDbEntity
  8
1
  6
Continuous
 62
     2
100
AcDbLine
 10
893.8729949702571
 20
-261.7356070181857
 30
0.0
 11
879.8729949702571
 21
-261.424300637706
 31
0.0
  0
LINE
  5
355
330
4A
100
AcDbEntity
  8
1
  6
Continuous
 62
     2
100
AcDbLine
 10
893.8729949702571
 20
-260.0069323859865
 30
0.0
 11
879.8729949702571
 21
-259.6956260055068
 31
0.0
  0
LINE
  5
356
330
4A
100
AcDbEntity
  8
1
  6
Continuous
 62
     2
100
AcDbLine
 10
893.8729949702571
 20
-260.5831572633862
 30
0.0
 11
879.8729949702571
 21
-260.2718508829067
 31
0.0
  0
LINE
  5
357
330
4A
100
AcDbEntity
  8
1
  6
Continuous
 62
     2
100
AcDbLine
 10
893.8729949702571
 20
-261.1593821407859
 30
0.0
 11
879.8729949702571
 21
-260.8480757603062
 31
0.0
  0
LINE
  5
358
330
4A
100
AcDbEntity
  8
1
  6
Continuous
 62
     2
100
AcDbLine
 10
791.8421609385546
 20
-261.1593821407859
 30
0.0
 11
777.8421609385546
 21
-260.8480757603062
 31
0.0
  0
LINE
  5
359
330
4A
100
AcDbEntity
  8
1
  6
Continuous
 62
     2
100
AcDbLine
 10
791.8421609385546
 20
-260.5831572633862
 30
0.0
 11
777.8421609385546
 21
-260.2718508829067
 31
0.0
  0
LINE
  5
35A
330
4A
100
AcDbEntity
  8
1
  6
Continuous
 62
     2
100
AcDbLine
 10
791.8421609385546
 20
-260.0069323859865
 30
0.0
 11
777.8421609385546
 21
-259.6956260055068
 31
0.0
  0
LINE
  5
35B
330
4A
100
AcDbEntity
  8
1
  6
Continuous
 62
     2
100
AcDbLine
 10
791.8421609385546
 20
-261.7356070181857
 30
0.0
 11
777.8421609385546
 21
-261.424300637706
 31
0.0
  0
LINE
  5
35C
330
4A
100
AcDbEntity
  8
1
  6
Continuous
 62
     2
100
AcDbLine
 10
791.8421609385545
 20
-259.4307075085866
 30
0.0
 11
777.8421609385546
 21
-259.119401128107
 31
0.0
  0
LINE
  5
35D
330
4A
100
AcDbEntity
  8
1
  6
Continuous
 62
     2
100
AcDbLine
 10
991.372994970257
 20
-258.9731970793884
 30
0.0
 11
977.372994970257
 21
-259.284503459868
 31
0.0
  0
LINE
  5
35E
330
4A
100
AcDbEntity
  8
1
  6
Continuous
 62
     2
100
AcDbLine
 10
991.372994970257
 20
-261.2780965889874
 30
0.0
 11
977.372994970257
 21
-261.5894029694671
 31
0.0
  0
LINE
  5
35F
330
4A
100
AcDbEntity
  8
1
  6
Continuous
 62
     2
100
AcDbLine
 10
991.372994970257
 20
-259.5494219567883
 30
0.0
 11
977.372994970257
 21
-259.8607283372679
 31
0.0
  0
LINE
  5
360
330
4A
100
AcDbEntity
  8
1
  6
Continuous
 62
     2
100
AcDbLine
 10
991.372994970257
 20
-260.1256468341881
 30
0.0
 11
977.372994970257
 21
-260.4369532146677
 31
0.0
  0
LINE
  5
361
330
4A
100
AcDbEntity
  8
1
  6
Continuous
 62
     2
100
AcDbLine
 10
991.372994970257
 20
-260.7018717115876
 30
0.0
 11
977.372994970257
 21
-261.0131780920673
 31
0.0
  0
ARC
  5
362
330
4A
100
AcDbEntity
  8
1
  6
Continuous
 62
     2
100
AcDbCircle
 10
784.8421609385545
 20
-174.6402324541395
 30
0.0
 40
7.344691322195946
100
AcDbArc
 50
-74.19849501940496
 51
0.0
  0
ARC
  5
363
330
4A
100
AcDbEntity
  8
1
  6
Continuous
 62
     2
100
AcDbCircle
 10
784.8421609385545
 20
-174.6402324541395
 30
0.0
 40
7.344691322196053
100
AcDbArc
 50
103.7842993864628
 51
-105.8015049805948
  0
ARC
  5
364
330
4A
100
AcDbEntity
  8
1
  6
Continuous
 62
     2
100
AcDbCircle
 10
784.8421609385545
 20
-174.6402324541395
 30
0.0
 40
7.344691322196013
100
AcDbArc
 50
0.0
 51
76.21570061353721
  0
ENDBLK
  5
4C
330
4A
100
AcDbEntity
  8
0
100
AcDbBlockEnd
  0
BLOCK
  5
4E
330
4D
100
AcDbEntity
  8
0
100
AcDbBlockBegin
  2
2-4
 70
     0
 71
     0
 10
2269.703789953372
 20
-667.0876280151215
 30
0.0
  3
2-4
  1

  0
LINE
  5
365
330
4D
100
AcDbEntity
  8
1
  6
Continuous
 62
     3
100
AcDbLine
 10
891.3729949708002
 20
-258.8856070181856
 30
0.0
 11
891.3729949708002
 21
-255.3856070181856
 31
0.0
  0
LINE
  5
366
330
4D
100
AcDbEntity
  8
1
  6
Continuous
 62
     3
100
AcDbLine
 10
880.3729949708002
 20
-258.8856070181856
 30
0.0
 11
882.3729949702571
 21
-258.8856070181856
 31
0.0
  0
LINE
  5
367
330
4D
100
AcDbEntity
  8
1
  6
Continuous
 62
     3
100
AcDbLine
 10
880.3729949708002
 20
-255.3856070181856
 30
0.0
 11
880.3729949708002
 21
-258.8856070181856
 31
0.0
  0
LINE
  5
368
330
4D
100
AcDbEntity
  8
1
  6
Continuous
 62
     3
100
AcDbLine
 10
895.8729949708002
 20
-258.8856070181856
 30
0.0
 11
895.8729949708002
 21
-255.3856070181856
 31
0.0
  0
LINE
  5
369
330
4D
100
AcDbEntity
  8
1
  6
Continuous
 62
     3
100
AcDbLine
 10
861.8729949708002
 20
-259.1356070181856
 30
0.0
 11
861.8729949708002
 21
-255.1356070181856
 31
0.0
  0
LINE
  5
36A
330
4D
100
AcDbEntity
  8
1
  6
Continuous
 62
     3
100
AcDbLine
 10
896.3729949708002
 20
-255.8856070181856
 30
0.0
 11
895.8729949708002
 21
-255.3856070181856
 31
0.0
  0
LINE
  5
36B
330
4D
100
AcDbEntity
  8
1
  6
Continuous
 62
     3
100
AcDbLine
 10
896.3729949708002
 20
-258.3856070181856
 30
0.0
 11
895.8729949708002
 21
-258.8856070181856
 31
0.0
  0
LINE
  5
36C
330
4D
100
AcDbEntity
  8
1
  6
Continuous
 62
     3
100
AcDbLine
 10
861.3729949708002
 20
-255.6356070181856
 30
0.0
 11
861.8729949708002
 21
-255.1356070181856
 31
0.0
  0
LINE
  5
36D
330
4D
100
AcDbEntity
  8
1
  6
Continuous
 62
     3
100
AcDbLine
 10
861.3729949708002
 20
-258.6356070181856
 30
0.0
 11
861.8729949708002
 21
-259.1356070181856
 31
0.0
  0
LINE
  5
36E
330
4D
100
AcDbEntity
  8
1
  6
Continuous
 62
     3
100
AcDbLine
 10
861.3729949708002
 20
-258.6356070181856
 30
0.0
 11
861.3729949708002
 21
-255.9743328737462
 31
0.0
  0
LINE
  5
36F
330
4D
100
AcDbEntity
  8
1
  6
Continuous
 62
     3
100
AcDbLine
 10
880.3729949708002
 20
-259.1356070181856
 30
0.0
 11
880.3729949708002
 21
-255.1356070181856
 31
0.0
  0
LINE
  5
370
330
4D
100
AcDbEntity
  8
1
  6
Continuous
 62
     3
100
AcDbLine
 10
891.8729949708002
 20
-258.8856070181856
 30
0.0
 11
891.8729949708002
 21
-255.3856070181856
 31
0.0
  0
LINE
  5
371
330
4D
100
AcDbEntity
  8
1
  6
Continuous
 62
     3
100
AcDbLine
 10
896.3729949708002
 20
-258.3856070181856
 30
0.0
 11
896.3729949708002
 21
-255.8856070181856
 31
0.0
  0
LINE
  5
372
330
4D
100
AcDbEntity
  8
1
  6
Continuous
 62
     3
100
AcDbLine
 10
861.8729949708002
 20
-255.1356070181856
 30
0.0
 11
880.3729949708002
 21
-255.1356070181856
 31
0.0
  0
LINE
  5
373
330
4D
100
AcDbEntity
  8
1
  6
Continuous
 62
     3
100
AcDbLine
 10
895.8729949708002
 20
-255.3856070181856
 30
0.0
 11
891.8729949708002
 21
-255.3856070181856
 31
0.0
  0
LINE
  5
374
330
4D
100
AcDbEntity
  8
1
  6
Continuous
 62
     3
100
AcDbLine
 10
891.8729949708002
 20
-255.8856070181856
 30
0.0
 11
891.7729949708003
 21
-255.8856070181856
 31
0.0
  0
LINE
  5
375
330
4D
100
AcDbEntity
  8
1
  6
Continuous
 62
     3
100
AcDbLine
 10
880.3729949708002
 20
-259.1356070181856
 30
0.0
 11
861.8729949708002
 21
-259.1356070181856
 31
0.0
  0
LINE
  5
376
330
4D
100
AcDbEntity
  8
1
  6
Continuous
 62
     3
100
AcDbLine
 10
891.8729949708002
 20
-258.8856070181856
 30
0.0
 11
895.8729949708002
 21
-258.8856070181856
 31
0.0
  0
LINE
  5
377
330
4D
100
AcDbEntity
  8
1
  6
Continuous
 62
     3
100
AcDbLine
 10
891.3729949708002
 20
-258.3856070181856
 30
0.0
 11
891.4729949708
 21
-258.3856070181856
 31
0.0
  0
LINE
  5
378
330
4D
100
AcDbEntity
  8
1
  6
DASH_CENTER
 62
     2
100
AcDbLine
 10
896.9809621022001
 20
-257.1356070181856
 30
0.0
 11
860.0950718355024
 21
-257.1356070181856
 31
0.0
  0
LINE
  5
379
330
4D
100
AcDbEntity
  8
1
  6
Continuous
 62
     3
100
AcDbLine
 10
891.7729949708003
 20
-258.3856070181856
 30
0.0
 11
891.8729949708002
 21
-258.3856070181856
 31
0.0
  0
LINE
  5
37A
330
4D
100
AcDbEntity
  8
1
  6
Continuous
 62
     3
100
AcDbLine
 10
891.4729949708
 20
-255.8856070181856
 30
0.0
 11
891.3729949708002
 21
-255.8856070181856
 31
0.0
  0
LINE
  5
37B
330
4D
100
AcDbEntity
  8
1
  6
Continuous
 62
     3
100
AcDbLine
 10
882.3729949702571
 20
-255.3856070181856
 30
0.0
 11
880.3729949708002
 21
-255.3856070181856
 31
0.0
  0
LINE
  5
37C
330
4D
100
AcDbEntity
  8
1
  6
Continuous
 62
     3
100
AcDbLine
 10
861.3729949708002
 20
-255.9743328737462
 30
0.0
 11
861.3729949708002
 21
-255.6356070181856
 31
0.0
  0
LINE
  5
37D
330
4D
100
AcDbEntity
  8
1
  6
Continuous
 62
     3
100
AcDbLine
 10
783.6808867941151
 20
-200.1402324541395
 30
0.0
 11
783.3421609385545
 21
-200.1402324541395
 31
0.0
  0
LINE
  5
37E
330
4D
100
AcDbEntity
  8
1
  6
Continuous
 62
     3
100
AcDbLine
 10
783.0921609385545
 20
-178.7860134420837
 30
0.0
 11
783.0921609385545
 21
-181.1402324541395
 31
0.0
  0
LINE
  5
37F
330
4D
100
AcDbEntity
  8
1
  6
Continuous
 62
     3
100
AcDbLine
 10
786.5921609385545
 20
-170.4944514661952
 30
0.0
 11
786.5921609385545
 21
-170.1402324541395
 31
0.0
  0
LINE
  5
380
330
4D
100
AcDbEntity
  8
1
  6
Continuous
 62
     3
100
AcDbLine
 10
783.5921609385545
 20
-170.0402324541397
 30
0.0
 11
783.5921609385545
 21
-170.1402324541395
 31
0.0
  0
LINE
  5
381
330
4D
100
AcDbEntity
  8
1
  6
Continuous
 62
     3
100
AcDbLine
 10
786.0921609385545
 20
-169.7402324541394
 30
0.0
 11
786.0921609385545
 21
-169.6402324541395
 31
0.0
  0
LINE
  5
382
330
4D
100
AcDbEntity
  8
1
  6
DASH_CENTER
 62
     2
100
AcDbLine
 10
784.8421609385545
 20
-164.5322653227395
 30
0.0
 11
784.8421609385545
 21
-201.4181555894373
 31
0.0
  0
LINE
  5
383
330
4D
100
AcDbEntity
  8
1
  6
Continuous
 62
     3
100
AcDbLine
 10
786.0921609385545
 20
-170.1402324541395
 30
0.0
 11
786.0921609385545
 21
-170.0402324541397
 31
0.0
  0
LINE
  5
384
330
4D
100
AcDbEntity
  8
1
  6
Continuous
 62
     3
100
AcDbLine
 10
786.5921609385545
 20
-169.6402324541395
 30
0.0
 11
786.5921609385545
 21
-165.6402324541395
 31
0.0
  0
LINE
  5
385
330
4D
100
AcDbEntity
  8
1
  6
Continuous
 62
     3
100
AcDbLine
 10
786.8421609385545
 20
-181.1402324541395
 30
0.0
 11
786.8421609385545
 21
-199.6402324541395
 31
0.0
  0
LINE
  5
386
330
4D
100
AcDbEntity
  8
1
  6
Continuous
 62
     3
100
AcDbLine
 10
783.5921609385545
 20
-169.6402324541395
 30
0.0
 11
783.5921609385545
 21
-169.7402324541394
 31
0.0
  0
LINE
  5
387
330
4D
100
AcDbEntity
  8
1
  6
Continuous
 62
     3
100
AcDbLine
 10
783.0921609385545
 20
-165.6402324541395
 30
0.0
 11
783.0921609385545
 21
-169.6402324541395
 31
0.0
  0
LINE
  5
388
330
4D
100
AcDbEntity
  8
1
  6
Continuous
 62
     3
100
AcDbLine
 10
782.8421609385545
 20
-199.6402324541395
 30
0.0
 11
782.8421609385545
 21
-181.1402324541395
 31
0.0
  0
LINE
  5
389
330
4D
100
AcDbEntity
  8
1
  6
Continuous
 62
     3
100
AcDbLine
 10
786.0921609385545
 20
-165.1402324541395
 30
0.0
 11
783.5921609385545
 21
-165.1402324541395
 31
0.0
  0
LINE
  5
38A
330
4D
100
AcDbEntity
  8
1
  6
Continuous
 62
     3
100
AcDbLine
 10
786.5921609385545
 20
-169.6402324541395
 30
0.0
 11
783.0921609385545
 21
-169.6402324541395
 31
0.0
  0
LINE
  5
38B
330
4D
100
AcDbEntity
  8
1
  6
Continuous
 62
     3
100
AcDbLine
 10
786.8421609385545
 20
-181.1402324541395
 30
0.0
 11
782.8421609385545
 21
-181.1402324541395
 31
0.0
  0
LINE
  5
38C
330
4D
100
AcDbEntity
  8
1
  6
Continuous
 62
     3
100
AcDbLine
 10
786.3421609385545
 20
-200.1402324541395
 30
0.0
 11
783.6808867941151
 21
-200.1402324541395
 31
0.0
  0
LINE
  5
38D
330
4D
100
AcDbEntity
  8
1
  6
Continuous
 62
     3
100
AcDbLine
 10
786.3421609385545
 20
-200.1402324541395
 30
0.0
 11
786.8421609385545
 21
-199.6402324541395
 31
0.0
  0
LINE
  5
38E
330
4D
100
AcDbEntity
  8
1
  6
Continuous
 62
     3
100
AcDbLine
 10
783.3421609385545
 20
-200.1402324541395
 30
0.0
 11
782.8421609385545
 21
-199.6402324541395
 31
0.0
  0
LINE
  5
38F
330
4D
100
AcDbEntity
  8
1
  6
Continuous
 62
     3
100
AcDbLine
 10
786.0921609385545
 20
-165.1402324541395
 30
0.0
 11
786.5921609385545
 21
-165.6402324541395
 31
0.0
  0
LINE
  5
390
330
4D
100
AcDbEntity
  8
1
  6
Continuous
 62
     3
100
AcDbLine
 10
783.5921609385545
 20
-165.1402324541395
 30
0.0
 11
783.0921609385545
 21
-165.6402324541395
 31
0.0
  0
LINE
  5
391
330
4D
100
AcDbEntity
  8
1
  6
Continuous
 62
     3
100
AcDbLine
 10
786.8421609385545
 20
-199.6402324541395
 30
0.0
 11
782.8421609385545
 21
-199.6402324541395
 31
0.0
  0
LINE
  5
392
330
4D
100
AcDbEntity
  8
1
  6
Continuous
 62
     3
100
AcDbLine
 10
786.5921609385545
 20
-165.6402324541395
 30
0.0
 11
783.0921609385545
 21
-165.6402324541395
 31
0.0
  0
LINE
  5
393
330
4D
100
AcDbEntity
  8
1
  6
Continuous
 62
     3
100
AcDbLine
 10
783.0921609385545
 20
-181.1402324541395
 30
0.0
 11
786.5921609385545
 21
-181.1402324541395
 31
0.0
  0
LINE
  5
394
330
4D
100
AcDbEntity
  8
1
  6
Continuous
 62
     3
100
AcDbLine
 10
786.5921609385545
 20
-181.1402324541395
 30
0.0
 11
786.5921609385545
 21
-178.9333056873739
 31
0.0
  0
LINE
  5
395
330
4D
100
AcDbEntity
  8
1
  6
Continuous
 62
     3
100
AcDbLine
 10
786.5921609385545
 20
-170.1402324541395
 30
0.0
 11
783.0921609385545
 21
-170.1402324541395
 31
0.0
  0
LINE
  5
396
330
4D
100
AcDbEntity
  8
1
  6
Continuous
 62
     3
100
AcDbLine
 10
783.0921609385545
 20
-170.1402324541395
 30
0.0
 11
783.0921609385545
 21
-170.4944514661952
 31
0.0
  0
CIRCLE
  5
397
330
4D
100
AcDbEntity
  8
1
  6
Continuous
 62
     3
100
AcDbCircle
 10
784.8421609385546
 20
-257.1356070181856
 30
0.0
 40
2.0
  0
CIRCLE
  5
398
330
4D
100
AcDbEntity
  8
1
  6
Continuous
 62
     3
100
AcDbCircle
 10
784.8421609385546
 20
-257.1356070181856
 30
0.0
 40
1.5
  0
CIRCLE
  5
399
330
4D
100
AcDbEntity
  8
1
  6
Continuous
 62
     3
100
AcDbCircle
 10
984.372994970257
 20
-256.9894029694671
 30
0.0
 40
1.5
  0
CIRCLE
  5
39A
330
4D
100
AcDbEntity
  8
1
  6
Continuous
 62
     3
100
AcDbCircle
 10
984.372994970257
 20
-256.9894029694671
 30
0.0
 40
2.0
  0
ENDBLK
  5
4F
330
4D
100
AcDbEntity
  8
0
100
AcDbBlockEnd
  0
BLOCK
  5
58
330
50
100
AcDbEntity
  8
0
100
AcDbBlockBegin
  2
2
 70
     0
 71
     0
 10
599.9477732995447
 20
-337.6696805778882
 30
0.0
  3
2
  1

  0
INSERT
  5
51
330
50
100
AcDbEntity
  8
1
100
AcDbBlockReference
  2
2-2
 10
599.9477732995447
 20
-337.6696805778882
 30
0.0
  0
INSERT
  5
52
330
50
100
AcDbEntity
  8
1
100
AcDbBlockReference
  2
2-8
 10
707.3421609385541
 20
-198.1055995188729
 30
0.0
  0
INSERT
  5
53
330
50
100
AcDbEntity
  8
0
100
AcDbBlockReference
  2
2-7
 10
1195.721322552743
 20
19.43342576393476
 30
0.0
  0
INSERT
  5
54
330
50
100
AcDbEntity
  8
1
100
AcDbBlockReference
  2
2-5
 10
780.3421609385545
 20
-261.6356070177696
 30
0.0
  0
INSERT
  5
55
330
50
100
AcDbEntity
  8
1
100
AcDbBlockReference
  2
2-1
 10
632.4477732995448
 20
-318.095970410166
 30
0.0
  0
INSERT
  5
56
330
50
100
AcDbEntity
  8
1
100
AcDbBlockReference
  2
2-6
 10
777.4974696163584
 20
-261.7356070181857
 30
0.0
  0
INSERT
  5
57
330
50
100
AcDbEntity
  8
0
100
AcDbBlockReference
  2
2-4
 10
2269.703789953372
 20
-667.0876280151215
 30
0.0
  0
LINE
  5
39B
330
50
100
AcDbEntity
  8
0
  6
Continuous
 62
     3
100
AcDbLine
 10
891.7729949708003
 20
-253.735607018068
 30
0.0
 11
901.4922505452191
 21
-253.7356070179868
 31
0.0
  0
LINE
  5
39C
330
50
100
AcDbEntity
  8
0
  6
Continuous
 62
     3
100
AcDbLine
 10
871.9399987859611
 20
-259.1356070181856
 30
0.0
 11
871.844016163257
 21
-259.9836764872147
 31
0.0
  0
LINE
  5
39D
330
50
100
AcDbEntity
  8
1
  6
Continuous
 62
     3
100
AcDbLine
 10
784.5650486472019
 20
-202.6213806410295
 30
0.0
 11
786.0845283425573
 21
-202.6213806410295
 31
0.0
  0
LINE
  5
39E
330
50
100
AcDbEntity
  8
1
  6
Continuous
 62
     3
100
AcDbLine
 10
783.5650486472019
 20
-200.1402324541395
 30
0.0
 11
783.5650486472019
 21
-201.6213806410295
 31
0.0
  0
LINE
  5
39F
330
50
100
AcDbEntity
  8
0
  6
Continuous
 62
     3
100
AcDbLine
 10
859.2061608532572
 20
-253.7356070182153
 30
0.0
 11
867.253242147257
 21
-253.7356070182153
 31
0.0
  0
LINE
  5
3A0
330
50
100
AcDbEntity
  8
1
  6
DOT_CENTER
 62
     1
100
AcDbLine
 10
784.8421609381385
 20
-167.4902324546819
 30
0.0
 11
784.8421609381385
 21
-181.7902324546819
 31
0.0
  0
LINE
  5
3A1
330
50
100
AcDbEntity
  8
1
  6
DOT_CENTER
 62
     1
100
AcDbLine
 10
791.9921609381386
 20
-174.640232454682
 30
0.0
 11
777.6921609381384
 21
-174.640232454682
 31
0.0
  0
LINE
  5
3A2
330
50
100
AcDbEntity
  8
1
  6
DOT_CENTER
 62
     1
100
AcDbLine
 10
757.8421609381385
 20
-172.440232454682
 30
0.0
 11
757.8421609381385
 21
-176.8402324546821
 31
0.0
  0
LINE
  5
3A3
330
50
100
AcDbEntity
  8
1
  6
DOT_CENTER
 62
     1
100
AcDbLine
 10
760.0421609381388
 20
-174.640232454682
 30
0.0
 11
755.6421609381387
 21
-174.640232454682
 31
0.0
  0
LINE
  5
3A4
330
50
100
AcDbEntity
  8
1
  6
Continuous
 62
     3
100
AcDbLine
 10
758.3421609381385
 20
-202.140232454682
 30
0.0
 11
757.3421609381385
 21
-202.140232454682
 31
0.0
  0
LINE
  5
3A5
330
50
100
AcDbEntity
  8
0
  6
Continuous
 62
     3
100
AcDbLine
 10
722.1329719949799
 20
-207.2923493744681
 30
0.0
 11
769.1916235258254
 21
-207.2923493744681
 31
0.0
  0
LINE
  5
3A6
330
50
100
AcDbEntity
  8
0
  6
Continuous
 62
     3
100
AcDbLine
 10
717.1431424486514
 20
-146.9790541606821
 30
0.0
 11
717.1431424486514
 21
-202.3014107486819
 31
0.0
  0
LINE
  5
3A7
330
50
100
AcDbEntity
  8
0
  6
Continuous
 62
     3
100
AcDbLine
 10
769.1916235258254
 20
-141.9881155348957
 30
0.0
 11
722.1329719951386
 21
-141.988115534682
 31
0.0
  0
LINE
  5
3A8
330
50
100
AcDbEntity
  8
0
  6
Continuous
 62
     3
100
AcDbLine
 10
716.8421609381385
 20
-211.640232454682
 30
0.0
 11
810.3421609381385
 21
-211.640232454682
 31
0.0
  0
LINE
  5
3A9
330
50
100
AcDbEntity
  8
0
  6
Continuous
 62
     3
100
AcDbLine
 10
774.6231696221385
 20
-146.7794604626819
 30
0.0
 11
774.6182154481385
 21
-146.5445770126821
 31
0.0
  0
LINE
  5
3AA
330
50
100
AcDbEntity
  8
0
  6
Continuous
 62
     3
100
AcDbLine
 10
774.6231696221385
 20
-159.6112536476819
 30
0.0
 11
774.6231696221385
 21
-146.7794604626819
 31
0.0
  0
LINE
  5
3AB
330
50
100
AcDbEntity
  8
0
  6
Continuous
 62
     3
100
AcDbLine
 10
774.1706479126369
 20
-160.0209768796082
 30
0.0
 11
774.1706479131385
 21
-146.973398337682
 31
0.0
  0
LINE
  5
3AC
330
50
100
AcDbEntity
  8
0
  6
Continuous
 62
     3
100
AcDbLine
 10
806.3421609381385
 20
-139.1909380946819
 30
0.0
 11
806.3421609381385
 21
-139.4777324546821
 31
0.0
  0
LINE
  5
3AD
330
50
100
AcDbEntity
  8
0
  6
Continuous
 62
     3
100
AcDbLine
 10
806.3421609381385
 20
-139.4777324546821
 30
0.0
 11
803.3421609381385
 21
-139.4777324546821
 31
0.0
  0
LINE
  5
3AE
330
50
100
AcDbEntity
  8
0
  6
Continuous
 62
     3
100
AcDbLine
 10
794.3289939191386
 20
-170.640232454682
 30
0.0
 11
798.2436307221387
 21
-170.640232454682
 31
0.0
  0
LINE
  5
3AF
330
50
100
AcDbEntity
  8
0
  6
Continuous
 62
     3
100
AcDbLine
 10
798.2436307221387
 20
-170.640232454682
 30
0.0
 11
798.2436307221387
 21
-178.640232454682
 31
0.0
  0
LINE
  5
3B0
330
50
100
AcDbEntity
  8
0
  6
Continuous
 62
     3
100
AcDbLine
 10
805.3421609382572
 20
-144.2149055066552
 30
0.0
 11
805.3421609381385
 21
-146.140232454682
 31
0.0
  0
LINE
  5
3B1
330
50
100
AcDbEntity
  8
0
  6
Continuous
 62
     3
100
AcDbLine
 10
804.2070776691735
 20
-181.6402324546907
 30
0.0
 11
799.8421609381385
 21
-181.6402324546822
 31
0.0
  0
LINE
  5
3B2
330
50
100
AcDbEntity
  8
0
  6
Continuous
 62
     3
100
AcDbLine
 10
803.3421609381385
 20
-141.4581328265746
 30
0.0
 11
770.4282498451385
 21
-141.458132826682
 31
0.0
  0
LINE
  5
3B3
330
50
100
AcDbEntity
  8
0
  6
Continuous
 62
     3
100
AcDbLine
 10
812.2139741941387
 20
-169.6392767366819
 30
0.0
 11
812.2139741941387
 21
-150.640232454682
 31
0.0
  0
LINE
  5
3B4
330
50
100
AcDbEntity
  8
0
  6
Continuous
 62
     3
100
AcDbLine
 10
811.2146113401386
 20
-178.641825318682
 30
0.0
 11
798.2436307221387
 21
-178.640232454682
 31
0.0
  0
LINE
  5
3B5
330
50
100
AcDbEntity
  8
0
  6
Continuous
 62
     3
100
AcDbLine
 10
798.2436307221387
 20
-178.640232454682
 30
0.0
 11
794.3289939191386
 21
-178.640232454682
 31
0.0
  0
LINE
  5
3B6
330
50
100
AcDbEntity
  8
0
  6
Continuous
 62
     3
100
AcDbLine
 10
811.5461674281387
 20
-178.640232454682
 30
0.0
 11
811.2146113401386
 21
-178.641825318682
 31
0.0
  0
LINE
  5
3B7
330
50
100
AcDbEntity
  8
0
  6
Continuous
 62
     3
100
AcDbLine
 10
798.2436307221387
 20
-170.640232454682
 30
0.0
 11
811.2165233861388
 21
-170.640232454682
 31
0.0
  0
LINE
  5
3B8
330
50
100
AcDbEntity
  8
0
  6
Continuous
 62
     3
100
AcDbLine
 10
811.2165233861388
 20
-170.640232454682
 30
0.0
 11
811.5461674281387
 21
-170.640232454682
 31
0.0
  0
LINE
  5
3B9
330
50
100
AcDbEntity
  8
0
  6
Continuous
 62
     3
100
AcDbLine
 10
806.8421609381385
 20
-147.6402324545308
 30
0.0
 11
809.7334242011843
 21
-147.6402324546065
 31
0.0
  0
LINE
  5
3BA
330
50
100
AcDbEntity
  8
0
  6
Continuous
 62
     3
100
AcDbLine
 10
812.2139741941387
 20
-179.6411881726819
 30
0.0
 11
812.7343921101387
 21
-179.640232454682
 31
0.0
  0
LINE
  5
3BB
330
50
100
AcDbEntity
  8
0
  6
Continuous
 62
     3
100
AcDbLine
 10
812.7343921101387
 20
-179.640232454682
 30
0.0
 11
812.7343921101387
 21
-169.640232454682
 31
0.0
  0
LINE
  5
3BC
330
50
100
AcDbEntity
  8
0
  6
Continuous
 62
     3
100
AcDbLine
 10
812.7343921101387
 20
-169.640232454682
 30
0.0
 11
812.2139741941387
 21
-169.6392767366819
 31
0.0
  0
LINE
  5
3BD
330
50
100
AcDbEntity
  8
0
  6
Continuous
 62
     3
100
AcDbLine
 10
757.6234947311386
 20
-159.7762494316821
 30
0.0
 11
755.6970959311389
 21
-159.402938260682
 31
0.0
  0
LINE
  5
3BE
330
50
100
AcDbEntity
  8
0
  6
Continuous
 62
     3
100
AcDbLine
 10
757.0245325801388
 20
-159.3883608036819
 30
0.0
 11
757.7779123621385
 21
-159.8012725856819
 31
0.0
  0
LINE
  5
3BF
330
50
100
AcDbEntity
  8
0
  6
Continuous
 62
     3
100
AcDbLine
 10
757.7779123621385
 20
-159.8012725856819
 30
0.0
 11
757.7779123616047
 21
-159.8111874237733
 31
0.0
  0
LINE
  5
3C0
330
50
100
AcDbEntity
  8
0
  6
Continuous
 62
     3
100
AcDbLine
 10
754.3421609381385
 20
-198.640232454682
 30
0.0
 11
754.3421609381385
 21
-150.640232454682
 31
0.0
  0
LINE
  5
3C1
330
50
100
AcDbEntity
  8
0
  6
Continuous
 62
     3
100
AcDbLine
 10
755.6970959311389
 20
-154.7500489756821
 30
0.0
 11
755.6970959311389
 21
-155.6644857486819
 31
0.0
  0
LINE
  5
3C2
330
50
100
AcDbEntity
  8
0
  6
Continuous
 62
     3
100
AcDbLine
 10
759.0825980811387
 20
-163.591379624682
 30
0.0
 11
759.6695797651387
 21
-163.6948509066819
 31
0.0
  0
LINE
  5
3C3
330
50
100
AcDbEntity
  8
0
  6
Continuous
 62
     3
100
AcDbLine
 10
758.4099772490272
 20
-162.9249114986123
 30
0.0
 11
759.0825980811387
 21
-163.591379624682
 31
0.0
  0
LINE
  5
3C4
330
50
100
AcDbEntity
  8
0
  6
Continuous
 62
     3
100
AcDbLine
 10
758.9129836561388
 20
-162.3964061996821
 30
0.0
 11
758.9021835951385
 21
-162.391183256682
 31
0.0
  0
LINE
  5
3C5
330
50
100
AcDbEntity
  8
0
  6
Continuous
 62
     3
100
AcDbLine
 10
759.6695797651387
 20
-163.6948509066819
 30
0.0
 11
759.6695797651387
 21
-161.4091427006819
 31
0.0
  0
LINE
  5
3C6
330
50
100
AcDbEntity
  8
0
  6
Continuous
 62
     3
100
AcDbLine
 10
757.7779713761388
 20
-163.339554682682
 30
0.0
 11
757.7779713761388
 21
-162.2667756646819
 31
0.0
  0
LINE
  5
3C7
330
50
100
AcDbEntity
  8
0
  6
Continuous
 62
     3
100
AcDbLine
 10
757.7779713761388
 20
-162.2667756646819
 30
0.0
 11
757.7887112246467
 21
-162.277397221703
 31
0.0
  0
LINE
  5
3C8
330
50
100
AcDbEntity
  8
0
  6
Continuous
 62
     3
100
AcDbLine
 10
757.0212572371388
 20
-160.9834835566821
 30
0.0
 11
757.0212572371388
 21
-163.2062060406819
 31
0.0
  0
LINE
  5
3C9
330
50
100
AcDbEntity
  8
0
  6
Continuous
 62
     3
100
AcDbLine
 10
758.2807919881529
 20
-161.7528096802225
 30
0.0
 11
757.5886748551388
 21
-161.0935204756819
 31
0.0
  0
LINE
  5
3CA
330
50
100
AcDbEntity
  8
0
  6
Continuous
 62
     3
100
AcDbLine
 10
758.9129836561388
 20
-161.2757645936819
 30
0.0
 11
758.9129836561388
 21
-162.3964061996821
 31
0.0
  0
LINE
  5
3CB
330
50
100
AcDbEntity
  8
0
  6
Continuous
 62
     3
100
AcDbLine
 10
758.1616989831387
 20
-163.8436766546819
 30
0.0
 11
758.1523153502667
 21
-163.8417291104631
 31
0.0
  0
LINE
  5
3CC
330
50
100
AcDbEntity
  8
0
  6
Continuous
 62
     3
100
AcDbLine
 10
759.6695797651387
 20
-161.4091427006819
 30
0.0
 11
758.9129836561388
 21
-161.2757645936819
 31
0.0
  0
LINE
  5
3CD
330
50
100
AcDbEntity
  8
0
  6
Continuous
 62
     3
100
AcDbLine
 10
757.5886748551388
 20
-161.0935204756819
 30
0.0
 11
757.0212572371388
 21
-160.9834835566821
 31
0.0
  0
LINE
  5
3CE
330
50
100
AcDbEntity
  8
0
  6
Continuous
 62
     3
100
AcDbLine
 10
759.6663338621388
 20
-165.3216211916819
 30
0.0
 11
758.9129246411385
 21
-164.908547371682
 31
0.0
  0
LINE
  5
3CF
330
50
100
AcDbEntity
  8
0
  6
Continuous
 62
     3
100
AcDbLine
 10
758.9129246411385
 20
-164.908547371682
 30
0.0
 11
758.9129246406446
 21
-164.8993407975794
 31
0.0
  0
LINE
  5
3D0
330
50
100
AcDbEntity
  8
0
  6
Continuous
 62
     3
100
AcDbLine
 10
757.0212572371388
 20
-163.2062060406819
 30
0.0
 11
757.7779713761388
 21
-163.339554682682
 31
0.0
  0
LINE
  5
3D1
330
50
100
AcDbEntity
  8
0
  6
Continuous
 62
     3
100
AcDbLine
 10
759.6695797651387
 20
-165.0032104506819
 30
0.0
 11
759.6695797651387
 21
-164.073045748682
 31
0.0
  0
LINE
  5
3D2
330
50
100
AcDbEntity
  8
0
  6
Continuous
 62
     3
100
AcDbLine
 10
805.3421609382899
 20
-203.140232454682
 30
0.0
 11
805.34216093843
 21
-205.0655593951782
 31
0.0
  0
LINE
  5
3D3
330
50
100
AcDbEntity
  8
0
  6
Continuous
 62
     3
100
AcDbLine
 10
805.34216093843
 20
-205.0655593951782
 30
0.0
 11
805.342160937792
 21
-205.8251958178386
 31
0.0
  0
LINE
  5
3D4
330
50
100
AcDbEntity
  8
0
  6
Continuous
 62
     3
100
AcDbLine
 10
811.3421609381385
 20
-201.639954413682
 30
0.0
 11
811.3421609379743
 21
-204.795562849682
 31
0.0
  0
LINE
  5
3D5
330
50
100
AcDbEntity
  8
0
  6
Continuous
 62
     3
100
AcDbLine
 10
811.3421609381385
 20
-201.6299554556819
 30
0.0
 11
811.3421609381385
 21
-201.639954413682
 31
0.0
  0
LINE
  5
3D6
330
50
100
AcDbEntity
  8
0
  6
Continuous
 62
     3
100
AcDbLine
 10
809.733424201228
 20
-201.640232454446
 30
0.0
 11
806.8421609381385
 21
-201.640232454682
 31
0.0
  0
LINE
  5
3D7
330
50
100
AcDbEntity
  8
0
  6
Continuous
 62
     3
100
AcDbLine
 10
811.1155670583553
 20
-201.640232454446
 30
0.0
 11
809.733424201228
 21
-201.640232454446
 31
0.0
  0
LINE
  5
3D8
330
50
100
AcDbEntity
  8
0
  6
Continuous
 62
     3
100
AcDbLine
 10
810.3421609381385
 20
-137.640232454682
 30
0.0
 11
716.8421609381385
 21
-137.640232454682
 31
0.0
  0
LINE
  5
3D9
330
50
100
AcDbEntity
  8
0
  6
Continuous
 62
     3
100
AcDbLine
 10
757.6149964206566
 20
-157.4529028831193
 30
0.0
 11
759.6695797651387
 21
-157.815119147682
 31
0.0
  0
LINE
  5
3DA
330
50
100
AcDbEntity
  8
0
  6
Continuous
 62
     3
100
AcDbLine
 10
759.6695797651387
 20
-156.9007709406819
 30
0.0
 11
757.3745616881388
 21
-156.4961513196819
 31
0.0
  0
LINE
  5
3DB
330
50
100
AcDbEntity
  8
0
  6
Continuous
 62
     3
100
AcDbLine
 10
755.6970959311389
 20
-155.6644857486819
 30
0.0
 11
759.6695797651387
 21
-156.364838818682
 31
0.0
  0
LINE
  5
3DC
330
50
100
AcDbEntity
  8
0
  6
Continuous
 62
     3
100
AcDbLine
 10
759.6695797651387
 20
-155.450549626682
 30
0.0
 11
755.6970959311389
 21
-154.7500489756821
 31
0.0
  0
LINE
  5
3DD
330
50
100
AcDbEntity
  8
0
  6
Continuous
 62
     3
100
AcDbLine
 10
806.3421609381385
 20
-139.1909380946819
 30
0.0
 11
718.4034020741387
 21
-139.1909380946819
 31
0.0
  0
LINE
  5
3DE
330
50
100
AcDbEntity
  8
0
  6
Continuous
 62
     3
100
AcDbLine
 10
805.3421609378129
 20
-141.4806002969808
 30
0.0
 11
805.3421609378129
 21
-143.4552690914802
 31
0.0
  0
LINE
  5
3DF
330
50
100
AcDbEntity
  8
0
  6
Continuous
 62
     3
100
AcDbLine
 10
805.3421609378129
 20
-143.4552690914802
 30
0.0
 11
805.3421609382572
 21
-144.2149055066552
 31
0.0
  0
LINE
  5
3E0
330
50
100
AcDbEntity
  8
0
  6
Continuous
 62
     3
100
AcDbLine
 10
811.3421609381385
 20
-147.640510495682
 30
0.0
 11
811.3421609379002
 21
-144.4849020596818
 31
0.0
  0
LINE
  5
3E1
330
50
100
AcDbEntity
  8
0
  6
Continuous
 62
     3
100
AcDbLine
 10
761.3421609381385
 20
-150.640232454682
 30
0.0
 11
761.3421609381385
 21
-198.640232454682
 31
0.0
  0
LINE
  5
3E2
330
50
100
AcDbEntity
  8
0
  6
Continuous
 62
     3
100
AcDbLine
 10
813.8421609381385
 20
-150.140232454682
 30
0.0
 11
813.8421609381385
 21
-199.140232454682
 31
0.0
  0
LINE
  5
3E3
330
50
100
AcDbEntity
  8
0
  6
Continuous
 62
     3
100
AcDbLine
 10
812.2139741943174
 20
-198.640232454682
 30
0.0
 11
812.2139741941387
 21
-179.6411881726819
 31
0.0
  0
LINE
  5
3E4
330
50
100
AcDbEntity
  8
0
  6
Continuous
 62
     3
100
AcDbLine
 10
815.3421609381385
 20
-206.640232454682
 30
0.0
 11
815.3421609381385
 21
-142.640232454682
 31
0.0
  0
LINE
  5
3E5
330
50
100
AcDbEntity
  8
0
  6
Continuous
 62
     3
100
AcDbLine
 10
774.1706479126369
 20
-202.3070665716581
 30
0.0
 11
774.1706479124023
 21
-189.2594880297458
 31
0.0
  0
LINE
  5
3E6
330
50
100
AcDbEntity
  8
0
  6
Continuous
 62
     3
100
AcDbLine
 10
774.6231696221385
 20
-202.5010044466819
 30
0.0
 11
774.6231696221385
 21
-189.6692112616819
 31
0.0
  0
LINE
  5
3E7
330
50
100
AcDbEntity
  8
0
  6
Continuous
 62
     3
100
AcDbLine
 10
774.6182154481385
 20
-202.735887896682
 30
0.0
 11
774.6231696221385
 21
-202.5010044466819
 31
0.0
  0
LINE
  5
3E8
330
50
100
AcDbEntity
  8
0
  6
Continuous
 62
     3
100
AcDbLine
 10
805.342160937792
 20
-205.8251958178386
 30
0.0
 11
805.342160937792
 21
-207.7998646123767
 31
0.0
  0
LINE
  5
3E9
330
50
100
AcDbEntity
  8
0
  6
Continuous
 62
     3
100
AcDbLine
 10
806.3421609381385
 20
-209.8027324546819
 30
0.0
 11
806.3421609381385
 21
-210.0895268146819
 31
0.0
  0
LINE
  5
3EA
330
50
100
AcDbEntity
  8
0
  6
Continuous
 62
     3
100
AcDbLine
 10
770.4282498451385
 20
-207.8223320826818
 30
0.0
 11
803.3421609382849
 21
-207.8223320828928
 31
0.0
  0
LINE
  5
3EB
330
50
100
AcDbEntity
  8
0
  6
Continuous
 62
     3
100
AcDbLine
 10
718.4034020741387
 20
-210.0895268146819
 30
0.0
 11
806.3421609381385
 21
-210.0895268146819
 31
0.0
  0
LINE
  5
3EC
330
50
100
AcDbEntity
  8
0
  6
Continuous
 62
     3
100
AcDbLine
 10
803.3421609381385
 20
-209.8027324546819
 30
0.0
 11
806.3421609381385
 21
-209.8027324546819
 31
0.0
  0
LINE
  5
3ED
330
50
100
AcDbEntity
  8
0
  6
Continuous
 62
     3
100
AcDbLine
 10
759.6695797651387
 20
-157.815119147682
 30
0.0
 11
759.6695797651387
 21
-156.9007709406819
 31
0.0
  0
LINE
  5
3EE
330
50
100
AcDbEntity
  8
0
  6
Continuous
 62
     3
100
AcDbLine
 10
759.6695797651387
 20
-156.364838818682
 30
0.0
 11
759.6695797651387
 21
-155.450549626682
 31
0.0
  0
LINE
  5
3EF
330
50
100
AcDbEntity
  8
0
  6
Continuous
 62
     3
100
AcDbLine
 10
773.6129412807159
 20
-187.4036421051623
 30
0.0
 11
773.2410662810062
 21
-187.0665996933066
 31
0.0
  0
LINE
  5
3F0
330
50
100
AcDbEntity
  8
0
  6
Continuous
 62
     3
100
AcDbLine
 10
773.2410662810376
 20
-162.2138652160281
 30
0.0
 11
773.6129412807159
 21
-161.8768228042015
 31
0.0
  0
LINE
  5
3F1
330
50
100
AcDbEntity
  8
0
  6
Continuous
 62
     3
100
AcDbLine
 10
811.3421609381385
 20
-147.6505094536819
 30
0.0
 11
811.3421609381385
 21
-147.640510495682
 31
0.0
  0
LINE
  5
3F2
330
50
100
AcDbEntity
  8
0
  6
Continuous
 62
     3
100
AcDbLine
 10
809.7334242011843
 20
-147.6402324546065
 30
0.0
 11
811.1155670583489
 21
-147.6402324546065
 31
0.0
  0
LINE
  5
3F3
330
50
100
AcDbEntity
  8
0
  6
Continuous
 62
     3
100
AcDbLine
 10
713.4085004341387
 20
-144.1780726506819
 30
0.0
 11
713.40850043404
 21
-188.773632189682
 31
0.0
  0
LINE
  5
3F4
330
50
100
AcDbEntity
  8
0
  6
Continuous
 62
     3
100
AcDbLine
 10
712.4110417351385
 20
-188.773632189682
 30
0.0
 11
713.40850043404
 21
-188.773632189682
 31
0.0
  0
LINE
  5
3F5
330
50
100
AcDbEntity
  8
0
  6
Continuous
 62
     3
100
AcDbLine
 10
711.8421609381385
 20
-161.9123103936819
 30
0.0
 11
711.8421609381385
 21
-142.640232454682
 31
0.0
  0
LINE
  5
3F6
330
50
100
AcDbEntity
  8
0
  6
Continuous
 62
     3
100
AcDbLine
 10
711.8421609381385
 20
-188.6992609466819
 30
0.0
 11
711.8421609381385
 21
-187.3681545156819
 31
0.0
  0
LINE
  5
3F7
330
50
100
AcDbEntity
  8
0
  6
Continuous
 62
     3
100
AcDbLine
 10
711.8421609384795
 20
-188.7736321896506
 30
0.0
 11
711.8421609381385
 21
-188.6992609466819
 31
0.0
  0
LINE
  5
3F8
330
50
100
AcDbEntity
  8
0
  6
Continuous
 62
     3
100
AcDbLine
 10
711.8421609384795
 20
-188.7736321896506
 30
0.0
 11
712.4110417351385
 21
-188.773632189682
 31
0.0
  0
LINE
  5
3F9
330
50
100
AcDbEntity
  8
0
  6
Continuous
 62
     3
100
AcDbLine
 10
755.6970959311389
 20
-160.3172864676821
 30
0.0
 11
758.5205215227356
 21
-160.864387557613
 31
0.0
  0
LINE
  5
3FA
330
50
100
AcDbEntity
  8
0
  6
Continuous
 62
     3
100
AcDbLine
 10
755.6970959311389
 20
-159.402938260682
 30
0.0
 11
755.6970959311389
 21
-160.3172864676821
 31
0.0
  0
LINE
  5
3FB
330
50
100
AcDbEntity
  8
0
  6
Continuous
 62
     3
100
AcDbLine
 10
712.4246875404592
 20
-205.5068327203668
 30
0.0
 11
713.4196275567529
 21
-205.4396092628378
 31
0.0
  0
LINE
  5
3FC
330
50
100
AcDbEntity
  8
0
  6
Continuous
 62
     3
100
AcDbLine
 10
712.4246875404592
 20
-205.5068327203668
 30
0.0
 11
711.8421609377974
 21
-205.5068327200226
 31
0.0
  0
LINE
  5
3FD
330
50
100
AcDbEntity
  8
0
  6
Continuous
 62
     3
100
AcDbLine
 10
711.8421609381385
 20
-205.5812039626819
 30
0.0
 11
711.8421609377974
 21
-205.5068327200226
 31
0.0
  0
LINE
  5
3FE
330
50
100
AcDbEntity
  8
0
  6
Continuous
 62
     3
100
AcDbLine
 10
711.8421609381385
 20
-206.640232454682
 30
0.0
 11
711.8421609381385
 21
-205.5812039626819
 31
0.0
  0
LINE
  5
3FF
330
50
100
AcDbEntity
  8
0
  6
Continuous
 62
     3
100
AcDbLine
 10
711.8421609381385
 20
-188.6992609466819
 30
0.0
 11
706.8421609381385
 21
-188.6992609466819
 31
0.0
  0
LINE
  5
400
330
50
100
AcDbEntity
  8
0
  6
Continuous
 62
     3
100
AcDbLine
 10
706.8421609381385
 20
-188.6992609466819
 30
0.0
 11
706.8421609381385
 21
-205.5812039626819
 31
0.0
  0
LINE
  5
401
330
50
100
AcDbEntity
  8
0
  6
Continuous
 62
     3
100
AcDbLine
 10
711.8421609381385
 20
-205.5812039626819
 30
0.0
 11
706.8421609381385
 21
-205.5812039626819
 31
0.0
  0
LINE
  5
402
330
50
100
AcDbEntity
  8
1
  6
DOT_CENTER
 62
     1
100
AcDbLine
 10
702.8421609381226
 20
-174.6402324546827
 30
0.0
 11
818.3421609381385
 21
-174.6402324546827
 31
0.0
  0
LINE
  5
403
330
50
100
AcDbEntity
  8
0
  6
Continuous
 62
     3
100
AcDbLine
 10
720.5921609381978
 20
-312.7356070181854
 30
0.0
 11
716.8421609385546
 21
-312.7356070181854
 31
0.0
  0
LINE
  5
404
330
50
100
AcDbEntity
  8
0
  6
Continuous
 62
     3
100
AcDbLine
 10
800.5921609381978
 20
-309.7356070181854
 30
0.0
 11
801.3421609381978
 21
-309.7356070181854
 31
0.0
  0
LINE
  5
405
330
50
100
AcDbEntity
  8
0
  6
Continuous
 62
     3
100
AcDbLine
 10
651.0068017915446
 20
-312.2356070182146
 30
0.0
 11
654.0394463863486
 21
-312.2356070182146
 31
0.0
  0
LINE
  5
406
330
50
100
AcDbEntity
  8
0
  6
Continuous
 62
     3
100
AcDbLine
 10
604.1944500944419
 20
-258.4681132368984
 30
0.0
 11
601.4984789387636
 21
-308.7891017392041
 31
0.0
  0
LINE
  5
407
330
50
100
AcDbEntity
  8
0
  6
Continuous
 62
     3
100
AcDbLine
 10
599.9477732995447
 20
-309.7356070182146
 30
0.0
 11
599.9477732995447
 21
-312.2356070182146
 31
0.0
  0
LINE
  5
408
330
50
100
AcDbEntity
  8
0
  6
Continuous
 62
     3
100
AcDbLine
 10
600.4999108075449
 20
-309.7356070182146
 30
0.0
 11
599.9477732995447
 21
-309.7356070182146
 31
0.0
  0
LINE
  5
409
330
50
100
AcDbEntity
  8
0
  6
Continuous
 62
     3
100
AcDbLine
 10
604.9477732995447
 20
-309.7356070182146
 30
0.0
 11
600.4999108075449
 21
-309.7356070182146
 31
0.0
  0
LINE
  5
40A
330
50
100
AcDbEntity
  8
0
  6
Continuous
 62
     3
100
AcDbLine
 10
599.9477732995447
 20
-312.2356070182146
 30
0.0
 11
601.4477732995447
 21
-312.2356070182146
 31
0.0
  0
LINE
  5
40B
330
50
100
AcDbEntity
  8
0
  6
Continuous
 62
     3
100
AcDbLine
 10
601.4477732995447
 20
-312.2356070182146
 30
0.0
 11
604.9477732995447
 21
-312.2356070182146
 31
0.0
  0
LINE
  5
40C
330
50
100
AcDbEntity
  8
0
  6
Continuous
 62
     3
100
AcDbLine
 10
601.4477732995447
 20
-312.2356070182146
 30
0.0
 11
601.4477732995447
 21
-312.7356070182146
 31
0.0
  0
LINE
  5
40D
330
50
100
AcDbEntity
  8
0
  6
Continuous
 62
     3
100
AcDbLine
 10
633.4765218285447
 20
-312.7356070182146
 30
0.0
 11
624.2198512379564
 21
-312.7356070178568
 31
0.0
  0
LINE
  5
40E
330
50
100
AcDbEntity
  8
0
  6
Continuous
 62
     3
100
AcDbLine
 10
624.2198512379564
 20
-312.7356070178568
 30
0.0
 11
622.9477732995447
 21
-312.7356070182146
 31
0.0
  0
LINE
  5
40F
330
50
100
AcDbEntity
  8
0
  6
Continuous
 62
     3
100
AcDbLine
 10
633.4765218285447
 20
-312.7356070182146
 30
0.0
 11
640.4190247706774
 21
-312.7356070185725
 31
0.0
  0
LINE
  5
410
330
50
100
AcDbEntity
  8
0
  6
Continuous
 62
     3
100
AcDbLine
 10
672.3970676594176
 20
-308.7891017392323
 30
0.0
 11
669.7009904291858
 21
-258.4681027976607
 31
0.0
  0
LINE
  5
411
330
50
100
AcDbEntity
  8
0
  6
Continuous
 62
     3
100
AcDbLine
 10
668.9477732995447
 20
-312.2356070182146
 30
0.0
 11
667.8887448075448
 21
-312.2356070182146
 31
0.0
  0
LINE
  5
412
330
50
100
AcDbEntity
  8
0
  6
Continuous
 62
     3
100
AcDbLine
 10
673.3956357916645
 20
-309.7356070181921
 30
0.0
 11
668.9477732995447
 21
-309.7356070182146
 31
0.0
  0
LINE
  5
413
330
50
100
AcDbEntity
  8
0
  6
Continuous
 62
     3
100
AcDbLine
 10
668.9477732995447
 20
-309.7356070182146
 30
0.0
 11
667.8143735652297
 21
-309.7356070185871
 31
0.0
  0
LINE
  5
414
330
50
100
AcDbEntity
  8
0
  6
Continuous
 62
     3
100
AcDbLine
 10
667.8887448075448
 20
-312.2356070182146
 30
0.0
 11
666.4330546735446
 21
-312.2356070182146
 31
0.0
  0
LINE
  5
415
330
50
100
AcDbEntity
  8
0
  6
Continuous
 62
     3
100
AcDbLine
 10
673.9477732995447
 20
-309.7356070182146
 30
0.0
 11
673.9477732995447
 21
-312.2356070182146
 31
0.0
  0
LINE
  5
416
330
50
100
AcDbEntity
  8
0
  6
Continuous
 62
     3
100
AcDbLine
 10
673.9477732995447
 20
-309.7356070182146
 30
0.0
 11
673.3956357916645
 21
-309.7356070181921
 31
0.0
  0
LINE
  5
417
330
50
100
AcDbEntity
  8
0
  6
Continuous
 62
     3
100
AcDbLine
 10
672.4477732995447
 20
-312.2356070182146
 30
0.0
 11
668.9477732995447
 21
-312.2356070182146
 31
0.0
  0
LINE
  5
418
330
50
100
AcDbEntity
  8
0
  6
Continuous
 62
     3
100
AcDbLine
 10
673.9477732995447
 20
-312.2356070182146
 30
0.0
 11
672.4477732995447
 21
-312.2356070182146
 31
0.0
  0
LINE
  5
419
330
50
100
AcDbEntity
  8
0
  6
Continuous
 62
     3
100
AcDbLine
 10
666.4330546735446
 20
-312.7356070182146
 30
0.0
 11
666.4330546735446
 21
-312.2356070182146
 31
0.0
  0
LINE
  5
41A
330
50
100
AcDbEntity
  8
0
  6
Continuous
 62
     3
100
AcDbLine
 10
672.4477732995447
 20
-312.2356070182146
 30
0.0
 11
672.4477732995447
 21
-312.7356070182146
 31
0.0
  0
LINE
  5
41B
330
50
100
AcDbEntity
  8
0
  6
Continuous
 62
     3
100
AcDbLine
 10
668.9477732995447
 20
-312.7356070182146
 30
0.0
 11
666.4330546735446
 21
-312.7356070182146
 31
0.0
  0
LINE
  5
41C
330
50
100
AcDbEntity
  8
0
  6
Continuous
 62
     3
100
AcDbLine
 10
668.9477732995447
 20
-312.7356070182146
 30
0.0
 11
672.4477732995447
 21
-312.7356070182146
 31
0.0
  0
LINE
  5
41D
330
50
100
AcDbEntity
  8
0
  6
Continuous
 62
     3
100
AcDbLine
 10
666.4330546735446
 20
-312.7356070182146
 30
0.0
 11
664.9249988745964
 21
-312.7356070182146
 31
0.0
  0
LINE
  5
41E
330
50
100
AcDbEntity
  8
0
  6
Continuous
 62
     3
100
AcDbLine
 10
664.6236790173884
 20
-312.7356070182196
 30
0.0
 11
664.9249988745964
 21
-312.7356070182146
 31
0.0
  0
LINE
  5
41F
330
50
100
AcDbEntity
  8
0
  6
Continuous
 62
     3
100
AcDbLine
 10
640.4190247705446
 20
-309.7356070182146
 30
0.0
 11
649.675695360545
 21
-309.7356070182146
 31
0.0
  0
LINE
  5
420
330
50
100
AcDbEntity
  8
0
  6
Continuous
 62
     3
100
AcDbLine
 10
651.0811730345449
 20
-309.7356070182146
 30
0.0
 11
649.675695360545
 21
-309.7356070182146
 31
0.0
  0
LINE
  5
421
330
50
100
AcDbEntity
  8
0
  6
Continuous
 62
     3
100
AcDbLine
 10
640.4190247705446
 20
-309.7356070182146
 30
0.0
 11
633.4765218285447
 21
-309.7356070182146
 31
0.0
  0
LINE
  5
422
330
50
100
AcDbEntity
  8
0
  6
Continuous
 62
     3
100
AcDbLine
 10
624.2198512385448
 20
-309.7356070182146
 30
0.0
 11
633.4765218285447
 21
-309.7356070182146
 31
0.0
  0
LINE
  5
423
330
50
100
AcDbEntity
  8
0
  6
Continuous
 62
     3
100
AcDbLine
 10
624.2198512385448
 20
-309.7356070182146
 30
0.0
 11
604.9477732995447
 21
-309.7356070182146
 31
0.0
  0
LINE
  5
424
330
50
100
AcDbEntity
  8
0
  6
Continuous
 62
     3
100
AcDbLine
 10
622.9477732995447
 20
-312.2356070182146
 30
0.0
 11
604.9477732995447
 21
-312.2356070182146
 31
0.0
  0
LINE
  5
425
330
50
100
AcDbEntity
  8
0
  6
Continuous
 62
     3
100
AcDbLine
 10
649.675695360545
 20
-312.7356070182146
 30
0.0
 11
650.9477732995447
 21
-312.7356070182146
 31
0.0
  0
LINE
  5
426
330
50
100
AcDbEntity
  8
0
  6
Continuous
 62
     3
100
AcDbLine
 10
653.9705477244934
 20
-312.7356070182146
 30
0.0
 11
650.9477732995447
 21
-312.7356070182146
 31
0.0
  0
LINE
  5
427
330
50
100
AcDbEntity
  8
0
  6
Continuous
 62
     3
100
AcDbLine
 10
654.2718675817014
 20
-312.7356070182196
 30
0.0
 11
653.9705477244934
 21
-312.7356070182146
 31
0.0
  0
LINE
  5
428
330
50
100
AcDbEntity
  8
0
  6
Continuous
 62
     3
100
AcDbLine
 10
624.2198512379564
 20
-312.7356070178568
 30
0.0
 11
624.2198512385448
 21
-309.7356070182146
 31
0.0
  0
LINE
  5
429
330
50
100
AcDbEntity
  8
0
  6
Continuous
 62
     3
100
AcDbLine
 10
649.675695360545
 20
-312.7356070182146
 30
0.0
 11
640.4190247706774
 21
-312.7356070185725
 31
0.0
  0
LINE
  5
42A
330
50
100
AcDbEntity
  8
0
  6
Continuous
 62
     3
100
AcDbLine
 10
650.9477732995447
 20
-312.7356070182146
 30
0.0
 11
650.9477732995447
 21
-312.2356070182146
 31
0.0
  0
LINE
  5
42B
330
50
100
AcDbEntity
  8
0
  6
Continuous
 62
     3
100
AcDbLine
 10
650.9477732995447
 20
-312.2356070182146
 30
0.0
 11
651.0068017915446
 21
-312.2356070182146
 31
0.0
  0
LINE
  5
42C
330
50
100
AcDbEntity
  8
0
  6
Continuous
 62
     3
100
AcDbLine
 10
622.9477732995447
 20
-312.2356070182146
 30
0.0
 11
622.9477732995447
 21
-312.7356070182146
 31
0.0
  0
LINE
  5
42D
330
50
100
AcDbEntity
  8
0
  6
Continuous
 62
     3
100
AcDbLine
 10
601.4477732995447
 20
-312.7356070182146
 30
0.0
 11
604.9477732995447
 21
-312.7356070182146
 31
0.0
  0
LINE
  5
42E
330
50
100
AcDbEntity
  8
0
  6
Continuous
 62
     3
100
AcDbLine
 10
622.9477732995447
 20
-312.7356070182146
 30
0.0
 11
604.9477732995447
 21
-312.7356070182146
 31
0.0
  0
LINE
  5
42F
330
50
100
AcDbEntity
  8
1
  6
Continuous
 62
     3
100
AcDbLine
 10
609.1872896749769
 20
-253.7356070182146
 30
0.0
 11
664.7081514079491
 21
-253.7356070182146
 31
0.0
  0
LINE
  5
430
330
50
100
AcDbEntity
  8
1
  6
DOT_CENTER
 62
     1
100
AcDbLine
 10
659.4477732993796
 20
-303.7356070189825
 30
0.0
 11
659.447773300004
 21
-314.2356071776127
 31
0.0
  0
LINE
  5
431
330
50
100
AcDbEntity
  8
1
  6
DOT_CENTER
 62
     1
100
AcDbLine
 10
636.9477732995447
 20
-247.061118653594
 30
0.0
 11
636.9477732995447
 21
-313.7356070183936
 31
0.0
  0
LINE
  5
432
330
50
100
AcDbEntity
  8
0
  6
Continuous
 62
     3
100
AcDbLine
 10
874.2369779932569
 20
-253.7356070182146
 30
0.0
 11
882.3729949702571
 21
-253.7356070181466
 31
0.0
  0
LINE
  5
433
330
50
100
AcDbEntity
  8
0
  6
Continuous
 62
     3
100
AcDbLine
 10
862.372994970257
 20
-312.7356070182153
 30
0.0
 11
911.372994970257
 21
-312.7356070182146
 31
0.0
  0
LINE
  5
434
330
50
100
AcDbEntity
  8
0
  6
Continuous
 62
     3
100
AcDbLine
 10
874.2269820262882
 20
-253.7356070179286
 30
0.0
 11
872.2604177447165
 21
-253.7356070184688
 31
0.0
  0
LINE
  5
435
330
50
100
AcDbEntity
  8
0
  6
Continuous
 62
     3
100
AcDbLine
 10
862.372994970257
 20
-312.7356070182153
 30
0.0
 11
854.872994970257
 21
-312.7356070182146
 31
0.0
  0
LINE
  5
436
330
50
100
AcDbEntity
  8
0
  6
Continuous
 62
     3
100
AcDbLine
 10
849.872994970257
 20
-312.7356070182146
 30
0.0
 11
854.872994970257
 21
-312.7356070182146
 31
0.0
  0
LINE
  5
437
330
50
100
AcDbEntity
  8
0
  6
Continuous
 62
     3
100
AcDbLine
 10
849.872994970257
 20
-309.7356070182146
 30
0.0
 11
849.872994970257
 21
-312.7356070182146
 31
0.0
  0
LINE
  5
438
330
50
100
AcDbEntity
  8
0
  6
Continuous
 62
     3
100
AcDbLine
 10
854.872994970257
 20
-309.7356070182146
 30
0.0
 11
851.3729949708027
 21
-309.7356070182151
 31
0.0
  0
LINE
  5
439
330
50
100
AcDbEntity
  8
0
  6
Continuous
 62
     3
100
AcDbLine
 10
850.4251324782572
 20
-309.7356070182153
 30
0.0
 11
849.872994970257
 21
-309.7356070182146
 31
0.0
  0
LINE
  5
43A
330
50
100
AcDbEntity
  8
0
  6
Continuous
 62
     3
100
AcDbLine
 10
860.3832719692573
 20
-303.4356070182145
 30
0.0
 11
860.373273011257
 21
-308.7356070182146
 31
0.0
  0
LINE
  5
43B
330
50
100
AcDbEntity
  8
0
  6
Continuous
 62
     3
100
AcDbLine
 10
851.7104949710779
 20
-303.4356070182593
 30
0.0
 11
851.4237006107892
 21
-308.7891017392432
 31
0.0
  0
LINE
  5
43C
330
50
100
AcDbEntity
  8
0
  6
Continuous
 62
     3
100
AcDbLine
 10
853.713362812257
 20
-303.4356070182154
 30
0.0
 11
851.7104949710779
 21
-303.4356070182593
 31
0.0
  0
LINE
  5
43D
330
50
100
AcDbEntity
  8
0
  6
Continuous
 62
     3
100
AcDbLine
 10
860.3832719692573
 20
-303.4356070182145
 30
0.0
 11
860.372994970493
 21
-303.4356070182076
 31
0.0
  0
LINE
  5
43E
330
50
100
AcDbEntity
  8
0
  6
Continuous
 62
     3
100
AcDbLine
 10
860.372994970493
 20
-303.4356070182076
 30
0.0
 11
858.872994970257
 21
-303.4356070182154
 31
0.0
  0
LINE
  5
43F
330
50
100
AcDbEntity
  8
0
  6
Continuous
 62
     3
100
AcDbLine
 10
858.872994970257
 20
-303.4356070182154
 30
0.0
 11
856.717664575257
 21
-303.4356070182154
 31
0.0
  0
LINE
  5
440
330
50
100
AcDbEntity
  8
0
  6
Continuous
 62
     3
100
AcDbLine
 10
860.372994970493
 20
-303.4356070182076
 30
0.0
 11
860.372994970257
 21
-264.7356070182146
 31
0.0
  0
LINE
  5
441
330
50
100
AcDbEntity
  8
0
  6
Continuous
 62
     3
100
AcDbLine
 10
856.717664575257
 20
-303.4356070182154
 30
0.0
 11
853.713362812257
 21
-303.4356070182154
 31
0.0
  0
LINE
  5
442
330
50
100
AcDbEntity
  8
0
  6
Continuous
 62
     3
100
AcDbLine
 10
871.844016163257
 20
-261.2356070182153
 30
0.0
 11
871.844016163257
 21
-259.9836764872147
 31
0.0
  0
LINE
  5
443
330
50
100
AcDbEntity
  8
0
  6
Continuous
 62
     3
100
AcDbLine
 10
872.2604177442572
 20
-254.0356070182146
 30
0.0
 11
872.2572620256972
 21
-255.1356070181856
 31
0.0
  0
LINE
  5
444
330
50
100
AcDbEntity
  8
0
  6
Continuous
 62
     3
100
AcDbLine
 10
872.2604177442572
 20
-254.0356070182146
 30
0.0
 11
872.2604177447165
 21
-253.7356070184688
 31
0.0
  0
LINE
  5
445
330
50
100
AcDbEntity
  8
0
  6
Continuous
 62
     3
100
AcDbLine
 10
867.2635527909733
 20
-253.7356070177694
 30
0.0
 11
872.2604177447165
 21
-253.7356070184688
 31
0.0
  0
LINE
  5
446
330
50
100
AcDbEntity
  8
0
  6
Continuous
 62
     3
100
AcDbLine
 10
853.6908953429356
 20
-266.468133411223
 30
0.0
 11
851.7104949710779
 21
-303.4356070182593
 31
0.0
  0
LINE
  5
447
330
50
100
AcDbEntity
  8
0
  6
Continuous
 62
     3
100
AcDbLine
 10
853.6908953429356
 20
-266.468133411223
 30
0.0
 11
854.1194667709206
 21
-258.4681334113999
 31
0.0
  0
LINE
  5
448
330
50
100
AcDbEntity
  8
0
  6
Continuous
 62
     3
100
AcDbLine
 10
918.872994970257
 20
-312.7356070182153
 30
0.0
 11
911.372994970257
 21
-312.7356070182146
 31
0.0
  0
LINE
  5
449
330
50
100
AcDbEntity
  8
0
  6
Continuous
 62
     3
100
AcDbLine
 10
918.872994970257
 20
-312.7356070182153
 30
0.0
 11
923.872994970257
 21
-312.7356070182153
 31
0.0
  0
LINE
  5
44A
330
50
100
AcDbEntity
  8
0
  6
Continuous
 62
     3
100
AcDbLine
 10
911.372994970257
 20
-312.2356070182146
 30
0.0
 11
911.372994970257
 21
-312.7356070182146
 31
0.0
  0
LINE
  5
44B
330
50
100
AcDbEntity
  8
0
  6
Continuous
 62
     3
100
AcDbLine
 10
923.872994970257
 20
-309.7356070182153
 30
0.0
 11
923.872994970257
 21
-312.7356070182153
 31
0.0
  0
LINE
  5
44C
330
50
100
AcDbEntity
  8
0
  6
Continuous
 62
     3
100
AcDbLine
 10
923.872994970257
 20
-309.7356070182153
 30
0.0
 11
923.3208574622572
 21
-309.7356070182146
 31
0.0
  0
LINE
  5
44D
330
50
100
AcDbEntity
  8
0
  6
Continuous
 62
     3
100
AcDbLine
 10
923.3208574622572
 20
-309.7356070182146
 30
0.0
 11
922.3729949696126
 21
-309.7356070182149
 31
0.0
  0
LINE
  5
44E
330
50
100
AcDbEntity
  8
0
  6
Continuous
 62
     3
100
AcDbLine
 10
917.3122539372571
 20
-309.7356070182146
 30
0.0
 11
918.872994970257
 21
-309.7356070182153
 31
0.0
  0
LINE
  5
44F
330
50
100
AcDbEntity
  8
0
  6
Continuous
 62
     3
100
AcDbLine
 10
913.163865470257
 20
-309.7356070182146
 30
0.0
 11
917.3122539372571
 21
-309.7356070182146
 31
0.0
  0
LINE
  5
450
330
50
100
AcDbEntity
  8
0
  6
Continuous
 62
     3
100
AcDbLine
 10
910.872994970257
 20
-309.7356070182146
 30
0.0
 11
913.163865470257
 21
-309.7356070182146
 31
0.0
  0
LINE
  5
451
330
50
100
AcDbEntity
  8
0
  6
Continuous
 62
     3
100
AcDbLine
 10
922.3222893296452
 20
-308.7891017392475
 30
0.0
 11
922.0354949694633
 21
-303.4356070182579
 31
0.0
  0
LINE
  5
452
330
50
100
AcDbEntity
  8
0
  6
Continuous
 62
     3
100
AcDbLine
 10
922.0354949694633
 20
-303.4356070182579
 30
0.0
 11
920.032627128257
 21
-303.4356070182154
 31
0.0
  0
LINE
  5
453
330
50
100
AcDbEntity
  8
0
  6
Continuous
 62
     3
100
AcDbLine
 10
913.372716929257
 20
-308.7356070182146
 30
0.0
 11
913.3627179712571
 21
-303.4356070182154
 31
0.0
  0
LINE
  5
454
330
50
100
AcDbEntity
  8
0
  6
Continuous
 62
     3
100
AcDbLine
 10
913.372994970257
 20
-264.7356070182146
 30
0.0
 11
913.3729949703325
 21
-303.4356070182072
 31
0.0
  0
LINE
  5
455
330
50
100
AcDbEntity
  8
0
  6
Continuous
 62
     3
100
AcDbLine
 10
913.3627179712571
 20
-303.4356070182154
 30
0.0
 11
913.3729949703325
 21
-303.4356070182072
 31
0.0
  0
LINE
  5
456
330
50
100
AcDbEntity
  8
0
  6
Continuous
 62
     3
100
AcDbLine
 10
913.3729949703325
 20
-303.4356070182072
 30
0.0
 11
914.872994970257
 21
-303.4356070182145
 31
0.0
  0
LINE
  5
457
330
50
100
AcDbEntity
  8
0
  6
Continuous
 62
     3
100
AcDbLine
 10
914.872994970257
 20
-303.4356070182145
 30
0.0
 11
917.0283253652574
 21
-303.4356070182154
 31
0.0
  0
LINE
  5
458
330
50
100
AcDbEntity
  8
0
  6
Continuous
 62
     3
100
AcDbLine
 10
920.032627128257
 20
-303.4356070182154
 30
0.0
 11
917.0283253652574
 21
-303.4356070182154
 31
0.0
  0
LINE
  5
459
330
50
100
AcDbEntity
  8
0
  6
Continuous
 62
     3
100
AcDbLine
 10
901.9019737772569
 20
-259.9836764872144
 30
0.0
 11
901.9019737772569
 21
-261.7356070182153
 31
0.0
  0
LINE
  5
45A
330
50
100
AcDbEntity
  8
0
  6
Continuous
 62
     3
100
AcDbLine
 10
901.9019737772569
 20
-261.7356070182153
 30
0.0
 11
910.3729949698936
 21
-261.7356070180641
 31
0.0
  0
LINE
  5
45B
330
50
100
AcDbEntity
  8
0
  6
Continuous
 62
     3
100
AcDbLine
 10
914.872994970257
 20
-261.7356070182153
 30
0.0
 11
914.7337669622571
 21
-261.7356070182153
 31
0.0
  0
LINE
  5
45C
330
50
100
AcDbEntity
  8
0
  6
Continuous
 62
     3
100
AcDbLine
 10
914.7337669622571
 20
-261.7356070182153
 30
0.0
 11
910.3729949698936
 21
-261.7356070180641
 31
0.0
  0
LINE
  5
45D
330
50
100
AcDbEntity
  8
0
  6
Continuous
 62
     3
100
AcDbLine
 10
915.0622539372803
 20
-261.7356070182763
 30
0.0
 11
914.872994970257
 21
-261.7356070182153
 31
0.0
  0
LINE
  5
45E
330
50
100
AcDbEntity
  8
0
  6
Continuous
 62
     3
100
AcDbLine
 10
919.626523169572
 20
-258.4681334112364
 30
0.0
 11
920.0550945977911
 21
-266.4681334112114
 31
0.0
  0
LINE
  5
45F
330
50
100
AcDbEntity
  8
0
  6
Continuous
 62
     3
100
AcDbLine
 10
901.4922505452191
 20
-253.7356070179868
 30
0.0
 11
901.492250545331
 21
-256.363502814589
 31
0.0
  0
LINE
  5
460
330
50
100
AcDbEntity
  8
0
  6
Continuous
 62
     3
100
AcDbLine
 10
901.9019737772569
 20
-259.9836764872144
 30
0.0
 11
901.492250545331
 21
-256.363502814589
 31
0.0
  0
LINE
  5
461
330
50
100
AcDbEntity
  8
0
  6
Continuous
 62
     3
100
AcDbLine
 10
922.0354949694633
 20
-303.4356070182579
 30
0.0
 11
920.0550945977911
 21
-266.4681334112114
 31
0.0
  0
LINE
  5
462
330
50
100
AcDbEntity
  8
0
  6
Continuous
 62
     3
100
AcDbLine
 10
862.872994970257
 20
-309.7356070182146
 30
0.0
 11
910.872994970257
 21
-309.7356070182146
 31
0.0
  0
LINE
  5
463
330
50
100
AcDbEntity
  8
0
  6
Continuous
 62
     3
100
AcDbLine
 10
911.372994970257
 20
-312.2356070182146
 30
0.0
 11
862.372994970257
 21
-312.2356070182146
 31
0.0
  0
LINE
  5
464
330
50
100
AcDbEntity
  8
0
  6
Continuous
 62
     3
100
AcDbLine
 10
864.872994970257
 20
-261.2356070182146
 30
0.0
 11
879.8729949702483
 21
-261.2356070182153
 31
0.0
  0
LINE
  5
465
330
50
100
AcDbEntity
  8
0
  6
Continuous
 62
     3
100
AcDbLine
 10
864.872994970257
 20
-261.7356070182153
 30
0.0
 11
879.872994970257
 21
-261.7356070182153
 31
0.0
  0
LINE
  5
466
330
50
100
AcDbEntity
  8
0
  6
Continuous
 62
     3
100
AcDbLine
 10
862.372994970257
 20
-312.7356070182153
 30
0.0
 11
862.372994970257
 21
-312.2356070182146
 31
0.0
  0
LINE
  5
467
330
50
100
AcDbEntity
  8
0
  6
Continuous
 62
     3
100
AcDbLine
 10
858.872994970257
 20
-261.7356070180634
 30
0.0
 11
858.6837360035265
 21
-261.7356070187019
 31
0.0
  0
LINE
  5
468
330
50
100
AcDbEntity
  8
0
  6
Continuous
 62
     3
100
AcDbLine
 10
854.872994970257
 20
-309.7356070182146
 30
0.0
 11
860.582124470257
 21
-309.7356070182146
 31
0.0
  0
LINE
  5
469
330
50
100
AcDbEntity
  8
0
  6
Continuous
 62
     3
100
AcDbLine
 10
859.0122229782569
 20
-261.7356070182153
 30
0.0
 11
858.872994970257
 21
-261.7356070180634
 31
0.0
  0
LINE
  5
46A
330
50
100
AcDbEntity
  8
0
  6
Continuous
 62
     3
100
AcDbLine
 10
863.372994970257
 20
-261.7356070182153
 30
0.0
 11
859.0122229782569
 21
-261.7356070182153
 31
0.0
  0
LINE
  5
46B
330
50
100
AcDbEntity
  8
0
  6
Continuous
 62
     3
100
AcDbLine
 10
864.872994970257
 20
-261.2356070182146
 30
0.0
 11
864.872994970257
 21
-261.7356070182153
 31
0.0
  0
LINE
  5
46C
330
50
100
AcDbEntity
  8
0
  6
Continuous
 62
     3
100
AcDbLine
 10
860.582124470257
 20
-309.7356070182146
 30
0.0
 11
862.872994970257
 21
-309.7356070182146
 31
0.0
  0
LINE
  5
46D
330
50
100
AcDbEntity
  8
0
  6
Continuous
 62
     3
100
AcDbLine
 10
863.372994970257
 20
-261.7356070182153
 30
0.0
 11
864.872994970257
 21
-261.7356070182153
 31
0.0
  0
LINE
  5
46E
330
50
100
AcDbEntity
  8
0
  6
Continuous
 62
     3
100
AcDbLine
 10
867.2635527909733
 20
-253.7356070177694
 30
0.0
 11
867.253242147257
 21
-253.7356070182153
 31
0.0
  0
LINE
  5
46F
330
50
100
AcDbEntity
  8
0
  6
Continuous
 62
     3
100
AcDbLine
 10
898.5102214165663
 20
-261.7356070182788
 30
0.0
 11
901.9019737772569
 21
-261.7356070182153
 31
0.0
  0
LINE
  5
470
330
50
100
AcDbEntity
  8
0
  6
Continuous
 62
     3
100
AcDbLine
 10
879.872994970257
 20
-261.7356070182153
 30
0.0
 11
879.8729949702483
 21
-261.2356070182153
 31
0.0
  0
LINE
  5
471
330
50
100
AcDbEntity
  8
0
  6
Continuous
 62
     3
100
AcDbLine
 10
891.872994970257
 20
-261.7356070182146
 30
0.0
 11
898.5102214165663
 21
-261.7356070182788
 31
0.0
  0
LINE
  5
472
330
50
100
AcDbEntity
  8
0
  6
Continuous
 62
     3
100
AcDbLine
 10
879.872994970257
 20
-261.7356070182153
 30
0.0
 11
880.372994970257
 21
-261.7356070182146
 31
0.0
  0
LINE
  5
473
330
50
100
AcDbEntity
  8
0
  6
Continuous
 62
     3
100
AcDbLine
 10
874.2369779932569
 20
-253.7356070182146
 30
0.0
 11
874.2269820262882
 21
-253.7356070179286
 31
0.0
  0
LINE
  5
474
330
50
100
AcDbEntity
  8
1
  6
DOT_CENTER
 62
     1
100
AcDbLine
 10
886.872994970257
 20
-313.7356070182149
 30
0.0
 11
886.872994970257
 21
-246.768347352515
 31
0.0
  0
LINE
  5
475
330
50
100
AcDbEntity
  8
0
  6
Continuous
 62
     3
100
AcDbLine
 10
922.3729949696126
 20
-309.7356070182149
 30
0.0
 11
918.872994970257
 21
-309.7356070182153
 31
0.0
  0
LINE
  5
476
330
50
100
AcDbEntity
  8
0
  6
Continuous
 62
     3
100
AcDbLine
 10
851.3729949708027
 20
-309.7356070182151
 30
0.0
 11
850.4251324782572
 21
-309.7356070182153
 31
0.0
  0
LINE
  5
477
330
50
100
AcDbEntity
  8
0
  6
Continuous
 62
     3
100
AcDbLine
 10
891.872994970257
 20
-261.7356070182146
 30
0.0
 11
881.8729949703006
 21
-261.7356070182146
 31
0.0
  0
LINE
  5
478
330
50
100
AcDbEntity
  8
0
  6
Continuous
 62
     3
100
AcDbLine
 10
882.872994970257
 20
-264.7356070182146
 30
0.0
 11
882.8729949701847
 21
-262.7356070190223
 31
0.0
  0
LINE
  5
479
330
50
100
AcDbEntity
  8
0
  6
Continuous
 62
     3
100
AcDbLine
 10
882.8729949702074
 20
-266.5928408961773
 30
0.0
 11
882.872994970257
 21
-264.7356070182146
 31
0.0
  0
LINE
  5
47A
330
50
100
AcDbEntity
  8
0
  6
Continuous
 62
     3
100
AcDbLine
 10
890.872994970257
 20
-264.7356070182153
 30
0.0
 11
890.8729949704371
 21
-266.5928408961503
 31
0.0
  0
LINE
  5
47B
330
50
100
AcDbEntity
  8
0
  6
Continuous
 62
     3
100
AcDbLine
 10
882.8729949702306
 20
-273.4656401922015
 30
0.0
 11
882.8729949702074
 21
-266.5928408961773
 31
0.0
  0
LINE
  5
47C
330
50
100
AcDbEntity
  8
0
  6
Continuous
 62
     3
100
AcDbLine
 10
879.872994970257
 20
-261.7356070182153
 30
0.0
 11
881.8729949703006
 21
-261.7356070182146
 31
0.0
  0
LINE
  5
47D
330
50
100
AcDbEntity
  8
0
  6
Continuous
 62
     3
100
AcDbLine
 10
890.8729949704371
 20
-266.5928408961503
 30
0.0
 11
890.8729949702829
 21
-273.4656401922001
 31
0.0
  0
LINE
  5
47E
330
50
100
AcDbEntity
  8
0
  6
Continuous
 62
     3
100
AcDbLine
 10
879.872994970257
 20
-261.7356070182153
 30
0.0
 11
879.8729949702483
 21
-261.2356070182153
 31
0.0
  0
LINE
  5
47F
330
50
100
AcDbEntity
  8
0
  6
Continuous
 62
     3
100
AcDbLine
 10
890.872994970257
 20
-264.7356070182153
 30
0.0
 11
882.872994970257
 21
-264.7356070182146
 31
0.0
  0
LINE
  5
480
330
50
100
AcDbEntity
  8
0
  6
Continuous
 62
     3
100
AcDbLine
 10
890.8729949704702
 20
-262.7356070184134
 30
0.0
 11
890.872994970257
 21
-264.7356070182153
 31
0.0
  0
LINE
  5
481
330
50
100
AcDbEntity
  8
0
  6
Continuous
 62
     3
100
AcDbLine
 10
901.4922505452191
 20
-253.7356070179868
 30
0.0
 11
914.6336825085396
 21
-253.7356070179247
 31
0.0
  0
LINE
  5
482
330
50
100
AcDbEntity
  8
0
  6
Continuous
 62
     3
100
AcDbLine
 10
771.1938142825545
 20
-253.7356070181854
 30
0.0
 11
769.1916235262415
 21
-253.7356070181854
 31
0.0
  0
LINE
  5
483
330
50
100
AcDbEntity
  8
0
  6
Continuous
 62
     3
100
AcDbLine
 10
774.6182154485546
 20
-259.9883412121853
 30
0.0
 11
774.1706479125978
 21
-256.3635028146384
 31
0.0
  0
LINE
  5
484
330
50
100
AcDbEntity
  8
0
  6
Continuous
 62
     3
100
AcDbLine
 10
811.3421609383904
 20
-306.9356070181689
 30
0.0
 11
811.3421609383904
 21
-308.7356070182157
 31
0.0
  0
LINE
  5
485
330
50
100
AcDbEntity
  8
0
  6
Continuous
 62
     3
100
AcDbLine
 10
812.3421609385546
 20
-309.7356070181854
 30
0.0
 11
810.3421609385546
 21
-309.7356070181854
 31
0.0
  0
LINE
  5
486
330
50
100
AcDbEntity
  8
0
  6
Continuous
 62
     3
100
AcDbLine
 10
815.3421609385546
 20
-309.7356070181854
 30
0.0
 11
814.807084204358
 21
-309.73560701819
 31
0.0
  0
LINE
  5
487
330
50
100
AcDbEntity
  8
0
  6
Continuous
 62
     3
100
AcDbLine
 10
815.3421609385546
 20
-309.7356070181854
 30
0.0
 11
815.3421609385546
 21
-312.7356070181854
 31
0.0
  0
LINE
  5
488
330
50
100
AcDbEntity
  8
0
  6
Continuous
 62
     3
100
AcDbLine
 10
810.3421609385546
 20
-312.7356070181854
 30
0.0
 11
805.8421609385546
 21
-312.7356070181854
 31
0.0
  0
LINE
  5
489
330
50
100
AcDbEntity
  8
0
  6
Continuous
 62
     3
100
AcDbLine
 10
810.3421609385546
 20
-312.7356070181854
 30
0.0
 11
815.3421609385546
 21
-312.7356070181854
 31
0.0
  0
LINE
  5
48A
330
50
100
AcDbEntity
  8
0
  6
Continuous
 62
     3
100
AcDbLine
 10
805.8421609385546
 20
-312.7356070181854
 30
0.0
 11
800.5921609381978
 21
-312.7356070181854
 31
0.0
  0
LINE
  5
48B
330
50
100
AcDbEntity
  8
0
  6
Continuous
 62
     3
100
AcDbLine
 10
805.3421609382081
 20
-306.9356070181855
 30
0.0
 11
806.3421609385546
 21
-306.9356070181689
 31
0.0
  0
LINE
  5
48C
330
50
100
AcDbEntity
  8
0
  6
Continuous
 62
     3
100
AcDbLine
 10
805.3421609384398
 20
-266.5751228537349
 30
0.0
 11
805.3421609382081
 21
-306.9356070181855
 31
0.0
  0
LINE
  5
48D
330
50
100
AcDbEntity
  8
0
  6
Continuous
 62
     3
100
AcDbLine
 10
784.8421609385548
 20
-261.7356070181854
 30
0.0
 11
776.5999732055545
 21
-261.7356070181854
 31
0.0
  0
LINE
  5
48E
330
50
100
AcDbEntity
  8
0
  6
Continuous
 62
     3
100
AcDbLine
 10
802.3421609385546
 20
-261.7356070181854
 30
0.0
 11
801.3421609381978
 21
-261.7356070181854
 31
0.0
  0
LINE
  5
48F
330
50
100
AcDbEntity
  8
0
  6
Continuous
 62
     3
100
AcDbLine
 10
805.3421609388458
 20
-264.7356070211611
 30
0.0
 11
805.3421609384398
 21
-266.5751228537349
 31
0.0
  0
LINE
  5
490
330
50
100
AcDbEntity
  8
0
  6
Continuous
 62
     3
100
AcDbLine
 10
811.3421609383904
 20
-306.9356070181689
 30
0.0
 11
806.3421609385546
 21
-306.9356070181689
 31
0.0
  0
LINE
  5
491
330
50
100
AcDbEntity
  8
0
  6
Continuous
 62
     3
100
AcDbLine
 10
807.0298124932033
 20
-261.7356070181854
 30
0.0
 11
802.3421609385546
 21
-261.7356070181854
 31
0.0
  0
LINE
  5
492
330
50
100
AcDbEntity
  8
0
  6
Continuous
 62
     3
100
AcDbLine
 10
705.8421609385546
 20
-309.7356070181854
 30
0.0
 11
705.8421609385546
 21
-312.7356070181854
 31
0.0
  0
LINE
  5
493
330
50
100
AcDbEntity
  8
0
  6
Continuous
 62
     3
100
AcDbLine
 10
713.7656432925546
 20
-303.8068540681854
 30
0.0
 11
717.0104634565121
 21
-258.3793717682809
 31
0.0
  0
LINE
  5
494
330
50
100
AcDbEntity
  8
0
  6
Continuous
 62
     3
100
AcDbLine
 10
713.4614648189893
 20
-308.0641498104642
 30
0.0
 11
713.7656432925546
 21
-303.8068540681854
 31
0.0
  0
LINE
  5
495
330
50
100
AcDbEntity
  8
0
  6
Continuous
 62
     3
100
AcDbLine
 10
721.9977569556681
 20
-253.7356070181854
 30
0.0
 11
769.1916235262415
 21
-253.7356070181854
 31
0.0
  0
LINE
  5
496
330
50
100
AcDbEntity
  8
0
  6
Continuous
 62
     3
100
AcDbLine
 10
712.4246875408751
 20
-309.7356070181854
 30
0.0
 11
711.8421609385546
 21
-309.7356070181854
 31
0.0
  0
LINE
  5
497
330
50
100
AcDbEntity
  8
0
  6
Continuous
 62
     3
100
AcDbLine
 10
716.8421609385546
 20
-309.7356070181854
 30
0.0
 11
713.342041285166
 21
-309.7356070181854
 31
0.0
  0
LINE
  5
498
330
50
100
AcDbEntity
  8
0
  6
Continuous
 62
     3
100
AcDbLine
 10
711.8421609385546
 20
-309.7356070181854
 30
0.0
 11
711.8421609385546
 21
-312.2356070181854
 31
0.0
  0
LINE
  5
499
330
50
100
AcDbEntity
  8
0
  6
Continuous
 62
     3
100
AcDbLine
 10
713.3421609385546
 20
-312.7356070181854
 30
0.0
 11
716.8421609385546
 21
-312.7356070181854
 31
0.0
  0
LINE
  5
49A
330
50
100
AcDbEntity
  8
0
  6
Continuous
 62
     3
100
AcDbLine
 10
713.3421609385546
 20
-312.7356070181854
 30
0.0
 11
706.8421609385546
 21
-312.7356070181854
 31
0.0
  0
LINE
  5
49B
330
50
100
AcDbEntity
  8
0
  6
Continuous
 62
     3
100
AcDbLine
 10
706.8421609385546
 20
-312.7356070181854
 30
0.0
 11
706.8421609385546
 21
-312.2356070181854
 31
0.0
  0
LINE
  5
49C
330
50
100
AcDbEntity
  8
0
  6
Continuous
 62
     3
100
AcDbLine
 10
706.8421609385546
 20
-304.7356070181854
 30
0.0
 11
712.7681845925545
 21
-304.7356070181854
 31
0.0
  0
LINE
  5
49D
330
50
100
AcDbEntity
  8
0
  6
Continuous
 62
     3
100
AcDbLine
 10
706.8421609385546
 20
-304.7356070181854
 30
0.0
 11
706.8421609385546
 21
-312.2356070181854
 31
0.0
  0
LINE
  5
49E
330
50
100
AcDbEntity
  8
0
  6
Continuous
 62
     3
100
AcDbLine
 10
705.8421609385546
 20
-312.7356070181854
 30
0.0
 11
706.8421609385546
 21
-312.7356070181854
 31
0.0
  0
LINE
  5
49F
330
50
100
AcDbEntity
  8
0
  6
Continuous
 62
     3
100
AcDbLine
 10
706.8421609385546
 20
-309.7356070181854
 30
0.0
 11
705.8421609385546
 21
-309.7356070181854
 31
0.0
  0
LINE
  5
4A0
330
50
100
AcDbEntity
  8
0
  6
Continuous
 62
     3
100
AcDbLine
 10
713.342041285166
 20
-309.7356070181854
 30
0.0
 11
712.4246875408751
 21
-309.7356070181854
 31
0.0
  0
LINE
  5
4A1
330
50
100
AcDbEntity
  8
1
  6
Continuous
 62
     3
100
AcDbLine
 10
801.3421609381978
 20
-309.7356070181854
 30
0.0
 11
801.3421609381978
 21
-261.7356070181854
 31
0.0
  0
LINE
  5
4A2
330
50
100
AcDbEntity
  8
0
  6
Continuous
 62
     3
100
AcDbLine
 10
801.3421609381978
 20
-261.7356070181854
 30
0.0
 11
784.8421609385548
 21
-261.7356070181854
 31
0.0
  0
LINE
  5
4A3
330
50
100
AcDbEntity
  8
0
  6
Continuous
 62
     3
100
AcDbLine
 10
801.3421609381978
 20
-309.7356070181854
 30
0.0
 11
810.3421609385546
 21
-309.7356070181854
 31
0.0
  0
LINE
  5
4A4
330
50
100
AcDbEntity
  8
1
  6
Continuous
 62
     3
100
AcDbLine
 10
719.8421609381978
 20
-309.2356070181857
 30
0.0
 11
719.8421609381978
 21
-254.2241321141805
 31
0.0
  0
LINE
  5
4A5
330
50
100
AcDbEntity
  8
1
  6
Continuous
 62
     3
100
AcDbLine
 10
814.807084204358
 20
-309.73560701819
 30
0.0
 11
813.8421609381978
 21
-309.73560701819
 31
0.0
  0
LINE
  5
4A6
330
50
100
AcDbEntity
  8
1
  6
Continuous
 62
     3
100
AcDbLine
 10
813.8421609381978
 20
-309.73560701819
 30
0.0
 11
812.3421609385546
 21
-309.73560701819
 31
0.0
  0
LINE
  5
4A7
330
50
100
AcDbEntity
  8
1
  6
Continuous
 62
     3
100
AcDbLine
 10
716.8421609385546
 20
-309.7356070181854
 30
0.0
 11
720.3421609381978
 21
-309.7356070181857
 31
0.0
  0
LINE
  5
4A8
330
50
100
AcDbEntity
  8
1
  6
DOT_CENTER
 62
     1
100
AcDbLine
 10
784.8421609385543
 20
-246.721553075694
 30
0.0
 11
784.8421609385546
 21
-313.7356070181854
 31
0.0
  0
LINE
  5
4A9
330
50
100
AcDbEntity
  8
1
  6
Continuous
 62
     3
100
AcDbLine
 10
812.025368559282
 20
-266.5248474616672
 30
0.0
 11
813.8077213500019
 21
-308.7712985487019
 31
0.0
  0
LINE
  5
4AA
330
50
100
AcDbEntity
  8
1
  6
Continuous
 62
     3
100
AcDbLine
 10
955.4074345588097
 20
-308.6250944999833
 30
0.0
 11
957.1897873495295
 21
-266.3786434129486
 31
0.0
  0
LINE
  5
4AB
330
50
100
AcDbEntity
  8
1
  6
DOT_CENTER
 62
     1
100
AcDbLine
 10
984.372994970257
 20
-313.5894029694669
 30
0.0
 11
984.372994970257
 21
-246.5753490269754
 31
0.0
  0
LINE
  5
4AC
330
50
100
AcDbEntity
  8
1
  6
Continuous
 62
     3
100
AcDbLine
 10
1048.872994970614
 20
-309.5894029694671
 30
0.0
 11
1052.372994970257
 21
-309.5894029694669
 31
0.0
  0
LINE
  5
4AD
330
50
100
AcDbEntity
  8
1
  6
Continuous
 62
     3
100
AcDbLine
 10
956.872994970257
 20
-309.5894029694715
 30
0.0
 11
955.3729949706135
 21
-309.5894029694715
 31
0.0
  0
LINE
  5
4AE
330
50
100
AcDbEntity
  8
1
  6
Continuous
 62
     3
100
AcDbLine
 10
955.3729949706135
 20
-309.5894029694715
 30
0.0
 11
954.4080717044535
 21
-309.5894029694715
 31
0.0
  0
LINE
  5
4AF
330
50
100
AcDbEntity
  8
1
  6
Continuous
 62
     3
100
AcDbLine
 10
1049.372994970614
 20
-254.0779280654619
 30
0.0
 11
1049.372994970614
 21
-309.0894029694671
 31
0.0
  0
LINE
  5
4B0
330
50
100
AcDbEntity
  8
0
  6
Continuous
 62
     3
100
AcDbLine
 10
958.872994970257
 20
-309.5894029694669
 30
0.0
 11
967.8729949706135
 21
-309.5894029694669
 31
0.0
  0
LINE
  5
4B1
330
50
100
AcDbEntity
  8
0
  6
Continuous
 62
     3
100
AcDbLine
 10
984.3729949702574
 20
-261.5894029694669
 30
0.0
 11
967.8729949706135
 21
-261.5894029694669
 31
0.0
  0
LINE
  5
4B2
330
50
100
AcDbEntity
  8
1
  6
Continuous
 62
     3
100
AcDbLine
 10
967.8729949706135
 20
-261.5894029694669
 30
0.0
 11
967.8729949706135
 21
-309.5894029694669
 31
0.0
  0
LINE
  5
4B3
330
50
100
AcDbEntity
  8
0
  6
Continuous
 62
     3
100
AcDbLine
 10
1056.790468367936
 20
-309.5894029694669
 30
0.0
 11
1055.873114623646
 21
-309.5894029694669
 31
0.0
  0
LINE
  5
4B4
330
50
100
AcDbEntity
  8
0
  6
Continuous
 62
     3
100
AcDbLine
 10
1063.372994970257
 20
-309.5894029694669
 30
0.0
 11
1062.372994970257
 21
-309.5894029694669
 31
0.0
  0
LINE
  5
4B5
330
50
100
AcDbEntity
  8
0
  6
Continuous
 62
     3
100
AcDbLine
 10
1062.372994970257
 20
-312.5894029694669
 30
0.0
 11
1063.372994970257
 21
-312.5894029694669
 31
0.0
  0
LINE
  5
4B6
330
50
100
AcDbEntity
  8
0
  6
Continuous
 62
     3
100
AcDbLine
 10
1056.446971316257
 20
-304.5894029694669
 30
0.0
 11
1062.372994970257
 21
-304.5894029694669
 31
0.0
  0
LINE
  5
4B7
330
50
100
AcDbEntity
  8
0
  6
Continuous
 62
     3
100
AcDbLine
 10
1062.372994970257
 20
-312.5894029694669
 30
0.0
 11
1055.872994970257
 21
-312.5894029694669
 31
0.0
  0
LINE
  5
4B8
330
50
100
AcDbEntity
  8
0
  6
Continuous
 62
     3
100
AcDbLine
 10
1052.372994970257
 20
-312.5894029694669
 30
0.0
 11
1055.872994970257
 21
-312.5894029694669
 31
0.0
  0
LINE
  5
4B9
330
50
100
AcDbEntity
  8
0
  6
Continuous
 62
     3
100
AcDbLine
 10
1057.372994970257
 20
-312.5894029694669
 30
0.0
 11
1057.372994970257
 21
-309.5894029694669
 31
0.0
  0
LINE
  5
4BA
330
50
100
AcDbEntity
  8
0
  6
Continuous
 62
     3
100
AcDbLine
 10
1055.873114623646
 20
-309.5894029694669
 30
0.0
 11
1052.372994970257
 21
-309.5894029694669
 31
0.0
  0
LINE
  5
4BB
330
50
100
AcDbEntity
  8
0
  6
Continuous
 62
     3
100
AcDbLine
 10
1057.372994970257
 20
-309.5894029694669
 30
0.0
 11
1056.790468367936
 21
-309.5894029694669
 31
0.0
  0
LINE
  5
4BC
330
50
100
AcDbEntity
  8
0
  6
Continuous
 62
     3
100
AcDbLine
 10
1000.02353238257
 20
-253.5894029694668
 30
0.0
 11
1047.217398953143
 21
-253.5894029694668
 31
0.0
  0
LINE
  5
4BD
330
50
100
AcDbEntity
  8
0
  6
Continuous
 62
     3
100
AcDbLine
 10
1055.449512616257
 20
-303.6606500194668
 30
0.0
 11
1055.753691089822
 21
-307.9179457617456
 31
0.0
  0
LINE
  5
4BE
330
50
100
AcDbEntity
  8
0
  6
Continuous
 62
     3
100
AcDbLine
 10
1052.204692452299
 20
-258.2331677195624
 30
0.0
 11
1055.449512616257
 21
-303.6606500194668
 31
0.0
  0
LINE
  5
4BF
330
50
100
AcDbEntity
  8
0
  6
Continuous
 62
     3
100
AcDbLine
 10
1063.372994970257
 20
-312.5894029694669
 30
0.0
 11
1063.372994970257
 21
-309.5894029694669
 31
0.0
  0
LINE
  5
4C0
330
50
100
AcDbEntity
  8
0
  6
Continuous
 62
     3
100
AcDbLine
 10
966.872994970257
 20
-261.5894029694669
 30
0.0
 11
962.1853434156083
 21
-261.5894029694669
 31
0.0
  0
LINE
  5
4C1
330
50
100
AcDbEntity
  8
0
  6
Continuous
 62
     3
100
AcDbLine
 10
962.872994970257
 20
-306.7894029694504
 30
0.0
 11
957.8729949704211
 21
-306.7894029694504
 31
0.0
  0
LINE
  5
4C2
330
50
100
AcDbEntity
  8
0
  6
Continuous
 62
     3
100
AcDbLine
 10
963.8729949703716
 20
-266.4289188050163
 30
0.0
 11
963.8729949699655
 21
-264.5894029724425
 31
0.0
  0
LINE
  5
4C3
330
50
100
AcDbEntity
  8
0
  6
Continuous
 62
     3
100
AcDbLine
 10
967.8729949706135
 20
-261.5894029694669
 30
0.0
 11
966.872994970257
 21
-261.5894029694669
 31
0.0
  0
LINE
  5
4C4
330
50
100
AcDbEntity
  8
0
  6
Continuous
 62
     3
100
AcDbLine
 10
992.6151827032568
 20
-261.5894029694669
 30
0.0
 11
984.3729949702574
 21
-261.5894029694669
 31
0.0
  0
LINE
  5
4C5
330
50
100
AcDbEntity
  8
0
  6
Continuous
 62
     3
100
AcDbLine
 10
963.8729949706035
 20
-306.789402969467
 30
0.0
 11
963.8729949703716
 21
-266.4289188050163
 31
0.0
  0
LINE
  5
4C6
330
50
100
AcDbEntity
  8
0
  6
Continuous
 62
     3
100
AcDbLine
 10
962.872994970257
 20
-306.7894029694504
 30
0.0
 11
963.8729949706035
 21
-306.789402969467
 31
0.0
  0
LINE
  5
4C7
330
50
100
AcDbEntity
  8
0
  6
Continuous
 62
     3
100
AcDbLine
 10
1048.872994970614
 20
-312.5894029694664
 30
0.0
 11
963.372994970257
 21
-312.5894029694669
 31
0.0
  0
LINE
  5
4C8
330
50
100
AcDbEntity
  8
0
  6
Continuous
 62
     3
100
AcDbLine
 10
953.872994970257
 20
-312.5894029694669
 30
0.0
 11
958.872994970257
 21
-312.5894029694669
 31
0.0
  0
LINE
  5
4C9
330
50
100
AcDbEntity
  8
0
  6
Continuous
 62
     3
100
AcDbLine
 10
963.372994970257
 20
-312.5894029694669
 30
0.0
 11
958.872994970257
 21
-312.5894029694669
 31
0.0
  0
LINE
  5
4CA
330
50
100
AcDbEntity
  8
0
  6
Continuous
 62
     3
100
AcDbLine
 10
953.872994970257
 20
-312.5894029694669
 30
0.0
 11
953.872994970257
 21
-309.5894029694669
 31
0.0
  0
LINE
  5
4CB
330
50
100
AcDbEntity
  8
0
  6
Continuous
 62
     3
100
AcDbLine
 10
954.4080717044535
 20
-309.5894029694715
 30
0.0
 11
953.872994970257
 21
-309.5894029694669
 31
0.0
  0
LINE
  5
4CC
330
50
100
AcDbEntity
  8
0
  6
Continuous
 62
     3
100
AcDbLine
 10
958.872994970257
 20
-309.5894029694669
 30
0.0
 11
956.872994970257
 21
-309.5894029694669
 31
0.0
  0
LINE
  5
4CD
330
50
100
AcDbEntity
  8
0
  6
Continuous
 62
     3
100
AcDbLine
 10
957.8729949704211
 20
-308.5894029694971
 30
0.0
 11
957.8729949704211
 21
-306.7894029694504
 31
0.0
  0
LINE
  5
4CE
330
50
100
AcDbEntity
  8
0
  6
Continuous
 62
     3
100
AcDbLine
 10
995.0445079962137
 20
-256.2172987659199
 30
0.0
 11
994.596940460257
 21
-259.8421371634667
 31
0.0
  0
LINE
  5
4CF
330
50
100
AcDbEntity
  8
0
  6
Continuous
 62
     3
100
AcDbLine
 10
1000.02353238257
 20
-253.5894029694668
 30
0.0
 11
998.0213416262568
 21
-253.5894029694668
 31
0.0
  0
LINE
  5
4D0
330
50
100
AcDbEntity
  8
0
  6
Continuous
 62
     3
100
AcDbLine
 10
967.8729949706135
 20
-309.5894029694669
 30
0.0
 11
1048.872994970618
 21
-309.5894029694664
 31
0.0
  0
LINE
  5
4D1
330
50
100
AcDbEntity
  8
0
  6
Continuous
 62
     3
100
AcDbLine
 10
1052.372994970257
 20
-312.5894029694669
 30
0.0
 11
1048.622994970614
 21
-312.5894029694669
 31
0.0
  0
LINE
  5
4D2
330
50
100
AcDbEntity
  8
1
  6
Continuous
 62
     3
100
AcDbLine
 10
1057.372994970257
 20
-309.5894029694669
 30
0.0
 11
1062.372994970257
 21
-309.5894029694669
 31
0.0
  0
LINE
  5
4D3
330
50
100
AcDbEntity
  8
0
  6
Continuous
 62
     3
100
AcDbLine
 10
1062.372994970257
 20
-309.5894029694669
 30
0.0
 11
1062.372994970257
 21
-304.5894029694669
 31
0.0
  0
ARC
  5
4D4
330
50
100
AcDbEntity
  8
1
  6
Continuous
 62
     3
100
AcDbCircle
 10
784.8421609385546
 20
-174.6402324541395
 30
0.0
 40
17.99999999999999
100
AcDbArc
 50
126.3628261670916
 51
-126.3628261681085
  0
ARC
  5
4D5
330
50
100
AcDbEntity
  8
0
  6
Continuous
 62
     3
100
AcDbCircle
 10
771.2310141756661
 20
-189.2121481327098
 30
0.0
 40
2.940014893161031
100
AcDbArc
 50
-0.92261217108824
 51
1.4988208188476
  0
ARC
  5
4D6
330
50
100
AcDbEntity
  8
0
  6
Continuous
 62
     3
100
AcDbCircle
 10
722.1332661786037
 20
-202.3022255866603
 30
0.0
 40
4.990123796479804
100
AcDbArc
 50
179.9906441645013
 51
-90.00337776791503
  0
ARC
  5
4D7
330
50
100
AcDbEntity
  8
0
  6
Continuous
 62
     3
100
AcDbCircle
 10
722.1315707332783
 20
-146.9860147876554
 30
0.0
 40
4.988433140896365
100
AcDbArc
 50
143.0739643666347
 51
179.9200521152662
  0
ARC
  5
4D8
330
50
100
AcDbEntity
  8
0
  6
Continuous
 62
     3
100
AcDbCircle
 10
722.1403678478346
 20
-146.9799309755696
 30
0.0
 40
4.991820919716661
100
AcDbArc
 50
90.08488912307227
 51
143.1904497572797
  0
ARC
  5
4D9
330
50
100
AcDbEntity
  8
0
  6
Continuous
 62
     3
100
AcDbCircle
 10
784.8421609381385
 20
-174.640232454682
 30
0.0
 40
9.000000000375778
100
AcDbArc
 50
-77.16041159092424
 51
-40.54160187350399
  0
ARC
  5
4DA
330
50
100
AcDbEntity
  8
0
  6
Continuous
 62
     3
100
AcDbCircle
 10
794.3289939191768
 20
-181.1402324546618
 30
0.0
 40
2.499999999979792
100
AcDbArc
 50
90.00000000087546
 51
145.582611300851
  0
ARC
  5
4DB
330
50
100
AcDbEntity
  8
0
  6
Continuous
 62
     3
100
AcDbCircle
 10
771.2310141757798
 20
-160.0683167763875
 30
0.0
 40
2.940014893278069
100
AcDbArc
 50
-1.49882079914623
 51
0.9226121660482
  0
ARC
  5
4DC
330
50
100
AcDbEntity
  8
0
  6
Continuous
 62
     3
100
AcDbCircle
 10
784.8421609381385
 20
-174.640232454682
 30
0.0
 40
16.99999999979138
100
AcDbArc
 50
133.0328319731782
 51
-133.0328319733229
  0
ARC
  5
4DD
330
50
100
AcDbEntity
  8
0
  6
Continuous
 62
     3
100
AcDbCircle
 10
757.8343952467599
 20
-159.7938646794086
 30
0.0
 40
1.057817391195337
100
AcDbArc
 50
48.68132732124205
 51
59.87959736029814
  0
ARC
  5
4DE
330
50
100
AcDbEntity
  8
0
  6
Continuous
 62
     3
100
AcDbCircle
 10
758.1804798433054
 20
-158.9298678610891
 30
0.0
 40
1.222157610072087
100
AcDbArc
 50
168.0724020432407
 51
179.8799170168738
  0
ARC
  5
4DF
330
50
100
AcDbEntity
  8
0
  6
Continuous
 62
     3
100
AcDbCircle
 10
794.3289939190922
 20
-168.1402324546575
 30
0.0
 40
2.500000000024533
100
AcDbArc
 50
-145.5826112965107
 51
-89.99999999893696
  0
ARC
  5
4E0
330
50
100
AcDbEntity
  8
0
  6
Continuous
 62
     3
100
AcDbCircle
 10
784.8421609380462
 20
-174.6402324545615
 30
0.0
 40
9.000000000367432
100
AcDbArc
 50
34.41738870992213
 51
40.54160187253912
  0
ARC
  5
4E1
330
50
100
AcDbEntity
  8
0
  6
Continuous
 62
     3
100
AcDbCircle
 10
784.8421609385546
 20
-174.6402324541395
 30
0.0
 40
9.000000000412037
100
AcDbArc
 50
-40.54160187785042
 51
-34.41738871590004
  0
ARC
  5
4E2
330
50
100
AcDbEntity
  8
0
  6
Continuous
 62
     3
100
AcDbCircle
 10
811.2138143142247
 20
-169.6400759244229
 30
0.0
 40
1.000160199213404
100
AcDbArc
 50
-89.84480628503791
 51
0.04578275510905
  0
ARC
  5
4E3
330
50
100
AcDbEntity
  8
0
  6
Continuous
 62
     3
100
AcDbCircle
 10
811.2146113400318
 20
-179.6411881727888
 30
0.0
 40
0.9993628541069484
100
AcDbArc
 50
0.00000000612848
 51
89.99999999387315
  0
ARC
  5
4E4
330
50
100
AcDbEntity
  8
0
  6
Continuous
 62
     3
100
AcDbCircle
 10
806.842160938063
 20
-146.1402324546063
 30
0.0
 40
1.499999999924512
100
AcDbArc
 50
-179.9999999971079
 51
-89.99999999711658
  0
ARC
  5
4E5
330
50
100
AcDbEntity
  8
0
  6
Continuous
 62
     3
100
AcDbCircle
 10
810.3421609381385
 20
-142.640232454682
 30
0.0
 40
5.0
100
AcDbArc
 50
0.0
 51
90.0
  0
ARC
  5
4E6
330
50
100
AcDbEntity
  8
0
  6
Continuous
 62
     3
100
AcDbCircle
 10
756.272818276906
 20
-166.0278154591312
 30
0.0
 40
6.396231103844871
100
AcDbArc
 50
76.39013125775351
 51
77.3746032569082
  0
ARC
  5
4E7
330
50
100
AcDbEntity
  8
0
  6
Continuous
 62
     3
100
AcDbCircle
 10
757.2917356185708
 20
-161.4662301565767
 30
0.0
 40
1.722236615360263
100
AcDbArc
 50
77.28237460883206
 51
78.89353362481151
  0
ARC
  5
4E8
330
50
100
AcDbEntity
  8
0
  6
Continuous
 62
     3
100
AcDbCircle
 10
756.5412198902409
 20
-157.2645328391904
 30
0.0
 40
0.2782512626689775
100
AcDbArc
 50
-49.32555939892283
 51
-23.59749537988188
  0
ARC
  5
4E9
330
50
100
AcDbEntity
  8
0
  6
Continuous
 62
     3
100
AcDbCircle
 10
756.5553776461998
 20
-157.2743947466515
 30
0.0
 40
0.2615797928832684
100
AcDbArc
 50
-76.37783568157082
 51
-50.26965370416802
  0
ARC
  5
4EA
330
50
100
AcDbEntity
  8
0
  6
Continuous
 62
     3
100
AcDbCircle
 10
756.6105175300854
 20
-156.7716305685219
 30
0.0
 40
0.7778840400746189
100
AcDbArc
 50
-117.925223620827
 51
-108.7898995889907
  0
ARC
  5
4EB
330
50
100
AcDbEntity
  8
0
  6
Continuous
 62
     3
100
AcDbCircle
 10
756.7195410103018
 20
-156.5552668164693
 30
0.0
 40
1.020124293597931
100
AcDbArc
 50
-129.2164461915245
 51
-117.6444802339829
  0
ARC
  5
4EC
330
50
100
AcDbEntity
  8
0
  6
Continuous
 62
     3
100
AcDbCircle
 10
756.154308683218
 20
-157.3680428019983
 30
0.0
 40
1.463150675655519
100
AcDbArc
 50
-3.32491695702367
 51
5.42189403615065
  0
ARC
  5
4ED
330
50
100
AcDbEntity
  8
0
  6
Continuous
 62
     3
100
AcDbCircle
 10
756.4427983695282
 20
-157.2278595599652
 30
0.0
 40
0.383167225263749
100
AcDbArc
 50
-22.73132043763746
 51
-7.21567242376388
  0
ARC
  5
4EE
330
50
100
AcDbEntity
  8
0
  6
Continuous
 62
     3
100
AcDbCircle
 10
756.5482788469958
 20
-156.968598789406
 30
0.0
 40
0.5713839168267139
100
AcDbArc
 50
-109.2432988966269
 51
-97.95870192301959
  0
ARC
  5
4EF
330
50
100
AcDbEntity
  8
0
  6
Continuous
 62
     3
100
AcDbCircle
 10
756.5303363588696
 20
-157.1115840827219
 30
0.0
 40
0.4272963481469361
100
AcDbArc
 50
-98.23063215814098
 51
-87.89473820525711
  0
ARC
  5
4F0
330
50
100
AcDbEntity
  8
0
  6
Continuous
 62
     3
100
AcDbCircle
 10
756.5356724316171
 20
-157.2075981947555
 30
0.0
 40
0.3311559411871437
100
AcDbArc
 50
-88.20709629020344
 51
-75.78625924906119
  0
ARC
  5
4F1
330
50
100
AcDbEntity
  8
0
  6
Continuous
 62
     3
100
AcDbCircle
 10
756.8670489514393
 20
-156.3604533689926
 30
0.0
 40
1.264351937583955
100
AcDbArc
 50
-140.403795992437
 51
-128.8136969686951
  0
ARC
  5
4F2
330
50
100
AcDbEntity
  8
0
  6
Continuous
 62
     3
100
AcDbCircle
 10
755.9256498958303
 20
-156.5645628637228
 30
0.0
 40
0.3335149789352965
100
AcDbArc
 50
90.80480689145368
 51
104.2082408887323
  0
ARC
  5
4F3
330
50
100
AcDbEntity
  8
0
  6
Continuous
 62
     3
100
AcDbCircle
 10
755.810696427428
 20
-157.3092532537511
 30
0.0
 40
1.027624100566513
100
AcDbArc
 50
14.6151342473078
 51
25.78097224415487
  0
ARC
  5
4F4
330
50
100
AcDbEntity
  8
0
  6
Continuous
 62
     3
100
AcDbCircle
 10
756.0779615156057
 20
-157.2327840634643
 30
0.0
 40
0.7497406172918951
100
AcDbArc
 50
4.96276218181958
 51
14.11402219329541
  0
ARC
  5
4F5
330
50
100
AcDbEntity
  8
0
  6
Continuous
 62
     3
100
AcDbCircle
 10
756.2787479901899
 20
-157.2120661619094
 30
0.0
 40
0.5479243556973351
100
AcDbArc
 50
-6.69939233007018
 51
4.62076364652691
  0
ARC
  5
4F6
330
50
100
AcDbEntity
  8
0
  6
Continuous
 62
     3
100
AcDbCircle
 10
755.8602977712076
 20
-157.405269708031
 30
0.0
 40
1.75938815794461
100
AcDbArc
 50
5.72409351728418
 51
16.20217652456361
  0
ARC
  5
4F7
330
50
100
AcDbEntity
  8
0
  6
Continuous
 62
     3
100
AcDbCircle
 10
756.886951967258
 20
-156.3369084999462
 30
0.0
 40
1.29470667795006
100
AcDbArc
 50
-153.8503606157202
 51
-140.1623026241888
  0
ARC
  5
4F8
330
50
100
AcDbEntity
  8
0
  6
Continuous
 62
     3
100
AcDbCircle
 10
755.905496615123
 20
-156.4958079401922
 30
0.0
 40
0.2619302242706237
100
AcDbArc
 50
103.6261266155327
 51
129.7118906850474
  0
ARC
  5
4F9
330
50
100
AcDbEntity
  8
0
  6
Continuous
 62
     3
100
AcDbCircle
 10
755.9301591013987
 20
-156.6671856658954
 30
0.0
 40
0.4362017784951699
100
AcDbArc
 50
81.0160346154008
 51
91.20770663944926
  0
ARC
  5
4FA
330
50
100
AcDbEntity
  8
0
  6
Continuous
 62
     3
100
AcDbCircle
 10
755.9098897812687
 20
-156.8133624914439
 30
0.0
 40
0.5837572801829056
100
AcDbArc
 50
70.17464950968771
 51
81.29144752491347
  0
ARC
  5
4FB
330
50
100
AcDbEntity
  8
0
  6
Continuous
 62
     3
100
AcDbCircle
 10
755.8393976673924
 20
-157.0266895607321
 30
0.0
 40
0.8083708605731196
100
AcDbArc
 50
59.42872073587697
 51
70.60252069613996
  0
ARC
  5
4FC
330
50
100
AcDbEntity
  8
0
  6
Continuous
 62
     3
100
AcDbCircle
 10
755.7093973998194
 20
-157.2635202517335
 30
0.0
 40
1.078434509073547
100
AcDbArc
 50
48.69319094100842
 51
59.88162491560774
  0
ARC
  5
4FD
330
50
100
AcDbEntity
  8
0
  6
Continuous
 62
     3
100
AcDbCircle
 10
755.919600855917
 20
-156.5053681716285
 30
0.0
 40
0.278336572801857
100
AcDbArc
 50
130.6880062030264
 51
156.4023850757003
  0
ARC
  5
4FE
330
50
100
AcDbEntity
  8
0
  6
Continuous
 62
     3
100
AcDbCircle
 10
755.5775195840743
 20
-157.4254772525953
 30
0.0
 40
1.287169529282423
100
AcDbArc
 50
39.69021616923084
 51
49.04224719498605
  0
ARC
  5
4FF
330
50
100
AcDbEntity
  8
0
  6
Continuous
 62
     3
100
AcDbCircle
 10
756.0178784188656
 20
-156.5419306337039
 30
0.0
 40
0.3830769224597461
100
AcDbArc
 50
157.2753671028901
 51
172.792686220946
  0
ARC
  5
500
330
50
100
AcDbEntity
  8
0
  6
Continuous
 62
     3
100
AcDbCircle
 10
755.5731445276961
 20
-157.4331688560826
 30
0.0
 40
1.295452079476049
100
AcDbArc
 50
26.14641213843135
 51
39.82841612952131
  0
ARC
  5
501
330
50
100
AcDbEntity
  8
0
  6
Continuous
 62
     3
100
AcDbCircle
 10
755.5429445137038
 20
-157.5095085756436
 30
0.0
 40
2.093254500029685
100
AcDbArc
 50
16.51827958535343
 51
28.95392259040822
  0
ARC
  5
502
330
50
100
AcDbEntity
  8
0
  6
Continuous
 62
     3
100
AcDbCircle
 10
756.6495590235099
 20
-156.4606599929741
 30
0.0
 40
1.027092767938283
100
AcDbArc
 50
-165.3814520708181
 51
-154.2108380809963
  0
ARC
  5
503
330
50
100
AcDbEntity
  8
0
  6
Continuous
 62
     3
100
AcDbCircle
 10
756.3836997459375
 20
-156.5368437384893
 30
0.0
 40
0.750641746911965
100
AcDbArc
 50
-175.026366214227
 51
-165.8866981666224
  0
ARC
  5
504
330
50
100
AcDbEntity
  8
0
  6
Continuous
 62
     3
100
AcDbCircle
 10
756.1812313531709
 20
-156.5576896569298
 30
0.0
 40
0.5471378631566491
100
AcDbArc
 50
173.3015996740608
 51
-175.3629314129128
  0
ARC
  5
505
330
50
100
AcDbEntity
  8
0
  6
Continuous
 62
     3
100
AcDbCircle
 10
810.3421609381385
 20
-206.640232454682
 30
0.0
 40
5.0
100
AcDbArc
 50
-90.0
 51
0.0
  0
ARC
  5
506
330
50
100
AcDbEntity
  8
0
  6
Continuous
 62
     3
100
AcDbCircle
 10
806.3426295374411
 20
-204.7951201467008
 30
0.0
 40
5.007612329906228
100
AcDbArc
 50
-90.00536158963462
 51
-3.25545244629474
  0
ARC
  5
507
330
50
100
AcDbEntity
  8
0
  6
Continuous
 62
     3
100
AcDbCircle
 10
757.8421609381385
 20
-198.640232454682
 30
0.0
 40
3.5
100
AcDbArc
 50
180.0
 51
0.0
  0
ARC
  5
508
330
50
100
AcDbEntity
  8
0
  6
Continuous
 62
     3
100
AcDbCircle
 10
754.7960472166201
 20
-165.835525490464
 30
0.0
 40
5.359463534945109
100
AcDbArc
 50
39.99086640145158
 51
45.31836240444031
  0
ARC
  5
509
330
50
100
AcDbEntity
  8
0
  6
Continuous
 62
     3
100
AcDbCircle
 10
757.863179155057
 20
-165.245982740213
 30
0.0
 40
1.433728162963618
100
AcDbArc
 50
73.37580140349415
 51
77.98239142182293
  0
ARC
  5
50A
330
50
100
AcDbEntity
  8
0
  6
Continuous
 62
     3
100
AcDbCircle
 10
760.1721132458451
 20
-154.4067217099563
 30
0.0
 40
9.680185077050965
100
AcDbArc
 50
-97.79488503732445
 51
-94.03623203650494
  0
ARC
  5
50B
330
50
100
AcDbEntity
  8
0
  6
Continuous
 62
     3
100
AcDbCircle
 10
757.8431055864471
 20
-164.6922815785962
 30
0.0
 40
0.8735195888772332
100
AcDbArc
 50
107.3279888829753
 51
129.4645929255762
  0
ARC
  5
50C
330
50
100
AcDbEntity
  8
0
  6
Continuous
 62
     3
100
AcDbCircle
 10
759.9110190411525
 20
-158.2378559914052
 30
0.0
 40
5.840182567987836
100
AcDbArc
 50
-94.12665187529269
 51
-92.36934287838052
  0
ARC
  5
50D
330
50
100
AcDbEntity
  8
0
  6
Continuous
 62
     3
100
AcDbCircle
 10
759.569331664331
 20
-158.9023084080142
 30
0.0
 40
5.144399496639677
100
AcDbArc
 50
-99.66596672330334
 51
-97.9342337250245
  0
ARC
  5
50E
330
50
100
AcDbEntity
  8
0
  6
Continuous
 62
     3
100
AcDbCircle
 10
759.1612716953332
 20
-161.3249774483097
 30
0.0
 40
2.687613118335273
100
AcDbArc
 50
-101.7182463808468
 51
-99.76208237477684
  0
ARC
  5
50F
330
50
100
AcDbEntity
  8
0
  6
Continuous
 62
     3
100
AcDbCircle
 10
759.6129096413861
 20
-159.2292688070349
 30
0.0
 40
4.831399131121082
100
AcDbArc
 50
-104.8190782708217
 51
-101.9149692629616
  0
ARC
  5
510
330
50
100
AcDbEntity
  8
0
  6
Continuous
 62
     3
100
AcDbCircle
 10
761.388261291987
 20
-152.4396248661878
 30
0.0
 40
11.84930271988569
100
AcDbArc
 50
-105.2408081588446
 51
-104.7210601622449
  0
ARC
  5
511
330
50
100
AcDbEntity
  8
0
  6
Continuous
 62
     3
100
AcDbCircle
 10
751.9825341744536
 20
-168.671431723779
 30
0.0
 40
9.354234693532526
100
AcDbArc
 50
45.27939177836945
 51
46.55753077475097
  0
ARC
  5
512
330
50
100
AcDbEntity
  8
0
  6
Continuous
 62
     3
100
AcDbCircle
 10
722.2040662899472
 20
-199.9883115036418
 30
0.0
 40
52.56884758858871
100
AcDbArc
 50
46.46291297936856
 51
46.66397898000369
  0
ARC
  5
513
330
50
100
AcDbEntity
  8
0
  6
Continuous
 62
     3
100
AcDbCircle
 10
778.9558619515783
 20
-141.5710240477637
 30
0.0
 40
29.6331214601844
100
AcDbArc
 50
-134.3217708081724
 51
-133.8952348074158
  0
ARC
  5
514
330
50
100
AcDbEntity
  8
0
  6
Continuous
 62
     3
100
AcDbCircle
 10
765.4939661191925
 20
-155.3631541456959
 30
0.0
 40
10.36020239339791
100
AcDbArc
 50
-134.9595855493219
 51
-134.351505553225
  0
ARC
  5
515
330
50
100
AcDbEntity
  8
0
  6
Continuous
 62
     3
100
AcDbCircle
 10
763.0260966902683
 20
-157.8286813590088
 30
0.0
 40
6.871767442607415
100
AcDbArc
 50
-136.3897491191043
 51
-134.9252601203764
  0
ARC
  5
516
330
50
100
AcDbEntity
  8
0
  6
Continuous
 62
     3
100
AcDbCircle
 10
763.6522711128182
 20
-157.2651366083134
 30
0.0
 40
7.71388948706879
100
AcDbArc
 50
-139.4756719999931
 51
-136.5670429964198
  0
ARC
  5
517
330
50
100
AcDbEntity
  8
0
  6
Continuous
 62
     3
100
AcDbCircle
 10
757.8877609124356
 20
-164.8757321146381
 30
0.0
 40
1.062012413036291
100
AcDbArc
 50
90.25559575705825
 51
106.6800077346004
  0
ARC
  5
518
330
50
100
AcDbEntity
  8
0
  6
Continuous
 62
     3
100
AcDbCircle
 10
757.8386185658669
 20
-164.6769435477037
 30
0.0
 40
0.8588494000202565
100
AcDbArc
 50
129.883870727547
 51
156.7758947140536
  0
ARC
  5
519
330
50
100
AcDbEntity
  8
0
  6
Continuous
 62
     3
100
AcDbCircle
 10
757.8805985773574
 20
-165.1460721828082
 30
0.0
 40
1.332344120358899
100
AcDbArc
 50
78.23261062165858
 51
89.895727628019
  0
ARC
  5
51A
330
50
100
AcDbEntity
  8
0
  6
Continuous
 62
     3
100
AcDbCircle
 10
757.7428772146914
 20
-160.0107023036371
 30
0.0
 40
2.001441820183362
100
AcDbArc
 50
16.00124346065554
 51
30.39273946525738
  0
ARC
  5
51B
330
50
100
AcDbEntity
  8
0
  6
Continuous
 62
     3
100
AcDbCircle
 10
758.7028492964209
 20
-158.9035632539241
 30
0.0
 40
1.746933216927096
100
AcDbArc
 50
-170.4376955039605
 51
-163.8881415344527
  0
ARC
  5
51C
330
50
100
AcDbEntity
  8
0
  6
Continuous
 62
     3
100
AcDbCircle
 10
757.7008955677279
 20
-159.9610178995876
 30
0.0
 40
1.271057752664087
100
AcDbArc
 50
26.15343275348287
 51
39.84020372826687
  0
ARC
  5
51D
330
50
100
AcDbEntity
  8
0
  6
Continuous
 62
     3
100
AcDbCircle
 10
758.7579385316044
 20
-159.0061448292321
 30
0.0
 40
1.009373426279364
100
AcDbArc
 50
-165.3801708794055
 51
-154.2211838746364
  0
ARC
  5
51E
330
50
100
AcDbEntity
  8
0
  6
Continuous
 62
     3
100
AcDbCircle
 10
758.496697789803
 20
-159.0811105146292
 30
0.0
 40
0.7376990383343545
100
AcDbArc
 50
-175.0227217714832
 51
-165.8928007258657
  0
ARC
  5
51F
330
50
100
AcDbEntity
  8
0
  6
Continuous
 62
     3
100
AcDbCircle
 10
758.2973803681566
 20
-159.10170692172
 30
0.0
 40
0.5373559306556898
100
AcDbArc
 50
173.3027981493792
 51
-175.3666789391261
  0
ARC
  5
520
330
50
100
AcDbEntity
  8
0
  6
Continuous
 62
     3
100
AcDbCircle
 10
757.7061460152027
 20
-159.9517192586768
 30
0.0
 40
1.26107477158542
100
AcDbArc
 50
39.66863880783912
 51
49.04032581287725
  0
ARC
  5
521
330
50
100
AcDbEntity
  8
0
  6
Continuous
 62
     3
100
AcDbCircle
 10
758.8571461827469
 20
-164.9150318186807
 30
0.0
 40
1.059039596688839
100
AcDbArc
 50
-131.3119709129099
 51
-120.124499911767
  0
ARC
  5
522
330
50
100
AcDbEntity
  8
0
  6
Continuous
 62
     3
100
AcDbCircle
 10
758.7293387407362
 20
-165.1477782314948
 30
0.0
 40
0.7936092910823518
100
AcDbArc
 50
-120.5768547855777
 51
-109.4017727328366
  0
ARC
  5
523
330
50
100
AcDbEntity
  8
0
  6
Continuous
 62
     3
100
AcDbCircle
 10
758.721275726607
 20
-165.8304996962756
 30
0.0
 40
1.005383966398508
100
AcDbArc
 50
-25.21094471650679
 51
-11.59707968384365
  0
ARC
  5
524
330
50
100
AcDbEntity
  8
0
  6
Continuous
 62
     3
100
AcDbCircle
 10
759.2013926726318
 20
-164.5679635669591
 30
0.0
 40
2.286476072974633
100
AcDbArc
 50
-149.9846425564653
 51
-140.0914765500345
  0
ARC
  5
525
330
50
100
AcDbEntity
  8
0
  6
Continuous
 62
     3
100
AcDbCircle
 10
758.6515250152161
 20
-165.6603269375775
 30
0.0
 40
0.2720172728375286
100
AcDbArc
 50
-49.37175552107505
 51
-23.53020849482922
  0
ARC
  5
526
330
50
100
AcDbEntity
  8
0
  6
Continuous
 62
     3
100
AcDbCircle
 10
758.6644483880282
 20
-165.6691951672396
 30
0.0
 40
0.2569033608521038
100
AcDbArc
 50
-76.37689523482868
 51
-50.27139923628828
  0
ARC
  5
527
330
50
100
AcDbEntity
  8
0
  6
Continuous
 62
     3
100
AcDbCircle
 10
758.6445968578878
 20
-165.6014221835832
 30
0.0
 40
0.3274622711332611
100
AcDbArc
 50
-89.19414180393545
 51
-75.79420581127157
  0
ARC
  5
528
330
50
100
AcDbEntity
  8
0
  6
Continuous
 62
     3
100
AcDbCircle
 10
758.6402165193749
 20
-165.50049063563
 30
0.0
 40
0.4284556702213986
100
AcDbArc
 50
-98.98441643850839
 51
-88.7982604703968
  0
ARC
  5
529
330
50
100
AcDbEntity
  8
0
  6
Continuous
 62
     3
100
AcDbCircle
 10
758.6599851455617
 20
-165.3577441282986
 30
0.0
 40
0.5725446648982754
100
AcDbArc
 50
-109.8354363443364
 51
-98.7076113857444
  0
ARC
  5
52A
330
50
100
AcDbEntity
  8
0
  6
Continuous
 62
     3
100
AcDbCircle
 10
758.5099543929218
 20
-165.7799318897318
 30
0.0
 40
1.222577174853124
100
AcDbArc
 50
-11.92766485945613
 51
-0.12472786406656
  0
ARC
  5
52B
330
50
100
AcDbEntity
  8
0
  6
Continuous
 62
     3
100
AcDbCircle
 10
758.5931584753866
 20
-164.7899521460694
 30
0.0
 40
1.635391978197388
100
AcDbArc
 50
-176.0892476729858
 51
-163.6291206794237
  0
ARC
  5
52C
330
50
100
AcDbEntity
  8
0
  6
Continuous
 62
     3
100
AcDbCircle
 10
757.700834495949
 20
-165.8250567243908
 30
0.0
 40
1.271136563137891
100
AcDbArc
 50
26.15442117475171
 51
39.84016515963347
  0
ARC
  5
52D
330
50
100
AcDbEntity
  8
0
  6
Continuous
 62
     3
100
AcDbCircle
 10
758.7571076436552
 20
-164.8704391220876
 30
0.0
 40
1.008492097425213
100
AcDbArc
 50
-165.3825975408283
 51
-154.2155935420416
  0
ARC
  5
52E
330
50
100
AcDbEntity
  8
0
  6
Continuous
 62
     3
100
AcDbCircle
 10
758.4951413336917
 20
-164.945408595026
 30
0.0
 40
0.7361135270039693
100
AcDbArc
 50
-175.0317958474516
 51
-165.8832598040965
  0
ARC
  5
52F
330
50
100
AcDbEntity
  8
0
  6
Continuous
 62
     3
100
AcDbCircle
 10
758.2973008821346
 20
-164.9657556339084
 30
0.0
 40
0.5372634255881733
100
AcDbArc
 50
173.3022649512665
 51
-175.3663430584288
  0
ARC
  5
530
330
50
100
AcDbEntity
  8
0
  6
Continuous
 62
     3
100
AcDbCircle
 10
758.9845428644985
 20
-164.7526025817849
 30
0.0
 40
1.264560825628505
100
AcDbArc
 50
-153.8905800057697
 51
-140.1349977885448
  0
ARC
  5
531
330
50
100
AcDbEntity
  8
0
  6
Continuous
 62
     3
100
AcDbCircle
 10
758.9479557522031
 20
-164.699183786832
 30
0.0
 40
2.001429899400034
100
AcDbArc
 50
-163.9987779297275
 51
-149.6080509225774
  0
ARC
  5
532
330
50
100
AcDbEntity
  8
0
  6
Continuous
 62
     3
100
AcDbCircle
 10
758.2410796480654
 20
-165.7708218637733
 30
0.0
 40
1.491495476083864
100
AcDbArc
 50
-0.45220543466476
 51
9.83046857473017
  0
ARC
  5
533
330
50
100
AcDbEntity
  8
0
  6
Continuous
 62
     3
100
AcDbCircle
 10
757.9888449828204
 20
-165.8062804676728
 30
0.0
 40
1.74609952581199
100
AcDbArc
 50
9.56379388604613
 51
16.11503788238571
  0
ARC
  5
534
330
50
100
AcDbEntity
  8
0
  6
Continuous
 62
     3
100
AcDbCircle
 10
758.1953395016922
 20
-165.6285519500368
 30
0.0
 40
0.7365020871981135
100
AcDbArc
 50
4.97108721069969
 51
14.1156982207184
  0
ARC
  5
535
330
50
100
AcDbEntity
  8
0
  6
Continuous
 62
     3
100
AcDbCircle
 10
758.3936359981317
 20
-165.6081280080252
 30
0.0
 40
0.5371909949169018
100
AcDbArc
 50
-6.70120144967524
 51
4.63360549289343
  0
ARC
  5
536
330
50
100
AcDbEntity
  8
0
  6
Continuous
 62
     3
100
AcDbCircle
 10
758.553775829218
 20
-165.6235417703835
 30
0.0
 40
0.3763617149884435
100
AcDbArc
 50
-22.72360780935558
 51
-7.21553878250626
  0
ARC
  5
537
330
50
100
AcDbEntity
  8
0
  6
Continuous
 62
     3
100
AcDbCircle
 10
757.9347474593242
 20
-165.7031422801883
 30
0.0
 40
1.007455058508426
100
AcDbArc
 50
14.61530702015263
 51
25.79472803495632
  0
ARC
  5
538
330
50
100
AcDbEntity
  8
0
  6
Continuous
 62
     3
100
AcDbCircle
 10
758.9867138348072
 20
-164.7559587344353
 30
0.0
 40
1.264082165503465
100
AcDbArc
 50
-140.3148329675462
 51
-130.9633300032837
  0
ARC
  5
539
330
50
100
AcDbEntity
  8
0
  6
Continuous
 62
     3
100
AcDbCircle
 10
757.7062286656364
 20
-165.8155716412366
 30
0.0
 40
1.260923940546347
100
AcDbArc
 50
39.66625828433387
 51
49.03990228548747
  0
ARC
  5
53A
330
50
100
AcDbEntity
  8
0
  6
Continuous
 62
     3
100
AcDbCircle
 10
759.7612198235711
 20
-161.4795945837176
 30
0.0
 40
3.524807324979998
100
AcDbArc
 50
-97.95773796755903
 51
-91.48977795975566
  0
ARC
  5
53B
330
50
100
AcDbEntity
  8
0
  6
Continuous
 62
     3
100
AcDbCircle
 10
759.6865465990522
 20
-161.9282033290594
 30
0.0
 40
3.070203379480585
100
AcDbArc
 50
-104.594557237158
 51
-97.73663923900142
  0
ARC
  5
53C
330
50
100
AcDbEntity
  8
0
  6
Continuous
 62
     3
100
AcDbCircle
 10
758.2607936271684
 20
-164.8030785438929
 30
0.0
 40
1.302940951768735
100
AcDbArc
 50
171.2672176968537
 51
-175.6683102839711
  0
ARC
  5
53D
330
50
100
AcDbEntity
  8
0
  6
Continuous
 62
     3
100
AcDbCircle
 10
758.8619746923127
 20
-165.9050268549353
 30
0.0
 40
0.8463753850712487
100
AcDbArc
 50
-50.27617794148755
 51
-24.70341815994162
  0
ARC
  5
53E
330
50
100
AcDbEntity
  8
0
  6
Continuous
 62
     3
100
AcDbCircle
 10
758.8615976485662
 20
-165.9055187717108
 30
0.0
 40
0.8462382150248813
100
AcDbArc
 50
-63.37957288318667
 51
-50.2352578517826
  0
ARC
  5
53F
330
50
100
AcDbEntity
  8
0
  6
Continuous
 62
     3
100
AcDbCircle
 10
758.821573919955
 20
-165.8050338340449
 30
0.0
 40
0.9540497325418034
100
AcDbArc
 50
-81.94658886634591
 51
-63.93473787138637
  0
ARC
  5
540
330
50
100
AcDbEntity
  8
0
  6
Continuous
 62
     3
100
AcDbCircle
 10
758.7986809994623
 20
-165.5663294286528
 30
0.0
 40
1.193655850137158
100
AcDbArc
 50
-96.09580296150956
 51
-82.46377095316592
  0
ARC
  5
541
330
50
100
AcDbEntity
  8
0
  6
Continuous
 62
     3
100
AcDbCircle
 10
758.8472978314817
 20
-165.2368429745306
 30
0.0
 40
1.526500385516519
100
AcDbArc
 50
-109.3308705719117
 51
-96.59701559355413
  0
ARC
  5
542
330
50
100
AcDbEntity
  8
0
  6
Continuous
 62
     3
100
AcDbCircle
 10
758.9923856972605
 20
-164.8698797087495
 30
0.0
 40
1.920864680673058
100
AcDbArc
 50
-123.0089239305737
 51
-109.7912719328905
  0
ARC
  5
543
330
50
100
AcDbEntity
  8
0
  6
Continuous
 62
     3
100
AcDbCircle
 10
759.2095366666936
 20
-164.5663345350724
 30
0.0
 40
2.293771656809357
100
AcDbArc
 50
-140.190775282665
 51
-123.427011280229
  0
ARC
  5
544
330
50
100
AcDbEntity
  8
0
  6
Continuous
 62
     3
100
AcDbCircle
 10
757.8340346729847
 20
-165.6583031388513
 30
0.0
 40
1.058399432064852
100
AcDbArc
 50
48.68369876022826
 51
59.87715778794588
  0
ARC
  5
545
330
50
100
AcDbEntity
  8
0
  6
Continuous
 62
     3
100
AcDbCircle
 10
757.996695725677
 20
-164.7538050422956
 30
0.0
 40
1.034459465302325
100
AcDbArc
 50
156.3162299986875
 51
171.743843987435
  0
ARC
  5
546
330
50
100
AcDbEntity
  8
0
  6
Continuous
 62
     3
100
AcDbCircle
 10
758.1366857286198
 20
-164.9502660878827
 30
0.0
 40
0.3759527763211594
100
AcDbArc
 50
157.2712513451252
 51
172.7918733110516
  0
ARC
  5
547
330
50
100
AcDbEntity
  8
0
  6
Continuous
 62
     3
100
AcDbCircle
 10
758.0390321455752
 20
-164.9134716304442
 30
0.0
 40
0.2716927927086291
100
AcDbArc
 50
130.6091697063908
 51
156.4713098441068
  0
ARC
  5
548
330
50
100
AcDbEntity
  8
0
  6
Continuous
 62
     3
100
AcDbCircle
 10
758.0264559635989
 20
-164.9046712974561
 30
0.0
 40
0.2568544834529353
100
AcDbArc
 50
103.6449917166858
 51
129.7571726166745
  0
ARC
  5
549
330
50
100
AcDbEntity
  8
0
  6
Continuous
 62
     3
100
AcDbCircle
 10
758.0462915295739
 20
-164.9723051803612
 30
0.0
 40
0.3272756315450004
100
AcDbArc
 50
90.81818562542412
 51
104.2263246082783
  0
ARC
  5
54A
330
50
100
AcDbEntity
  8
0
  6
Continuous
 62
     3
100
AcDbCircle
 10
758.050699393224
 20
-165.0733612943893
 30
0.0
 40
0.4283946408837371
100
AcDbArc
 50
81.02699855625525
 51
91.21466056611456
  0
ARC
  5
54B
330
50
100
AcDbEntity
  8
0
  6
Continuous
 62
     3
100
AcDbCircle
 10
758.0309424731486
 20
-165.216085148701
 30
0.0
 40
0.5724598836556453
100
AcDbArc
 50
70.17195014215137
 51
81.30177520351106
  0
ARC
  5
54C
330
50
100
AcDbEntity
  8
0
  6
Continuous
 62
     3
100
AcDbCircle
 10
757.9616077804762
 20
-165.4259890864425
 30
0.0
 40
0.7934603495481315
100
AcDbArc
 50
59.426304846652
 51
70.60340379779588
  0
ARC
  5
54D
330
50
100
AcDbEntity
  8
0
  6
Continuous
 62
     3
100
AcDbCircle
 10
806.8421609382153
 20
-203.1402324546074
 30
0.0
 40
1.499999999925393
100
AcDbArc
 50
90.00000000293555
 51
-179.9999999971502
  0
ARC
  5
54E
330
50
100
AcDbEntity
  8
0
  6
Continuous
 62
     3
100
AcDbCircle
 10
811.1157110933295
 20
-199.1402259179239
 30
0.0
 40
2.500006540671283
100
AcDbArc
 50
-90.00330102981629
 51
-84.80304227159475
  0
ARC
  5
54F
330
50
100
AcDbEntity
  8
0
  6
Continuous
 62
     3
100
AcDbCircle
 10
806.3401475797555
 20
-204.9375271353981
 30
0.0
 40
5.004027527324229
100
AcDbArc
 50
-1.62569967411372
 51
1.62569967411502
  0
ARC
  5
550
330
50
100
AcDbEntity
  8
0
  6
Continuous
 62
     3
100
AcDbCircle
 10
811.3412364191186
 20
-199.1392097191562
 30
0.0
 40
2.500924728140387
100
AcDbArc
 50
-66.40795693559657
 51
-0.02343070551465
  0
ARC
  5
551
330
50
100
AcDbEntity
  8
0
  6
Continuous
 62
     3
100
AcDbCircle
 10
809.7326278962291
 20
-199.141029013394
 30
0.0
 40
2.499203567912751
100
AcDbArc
 50
-89.98174421763899
 51
0.0182616033066
  0
ARC
  5
552
330
50
100
AcDbEntity
  8
0
  6
Continuous
 62
     3
100
AcDbCircle
 10
757.8421609381385
 20
-150.640232454682
 30
0.0
 40
3.5
100
AcDbArc
 50
0.0
 51
180.0
  0
ARC
  5
553
330
50
100
AcDbEntity
  8
0
  6
Continuous
 62
     3
100
AcDbCircle
 10
757.8692438000962
 20
-158.9043193703878
 30
0.0
 40
0.9535341547864666
100
AcDbArc
 50
98.05380507751625
 51
116.0766400305187
  0
ARC
  5
554
330
50
100
AcDbEntity
  8
0
  6
Continuous
 62
     3
100
AcDbCircle
 10
757.8435580322348
 20
-159.4731813522439
 30
0.0
 40
1.526676897954831
100
AcDbArc
 50
70.67061292154057
 51
83.40266590900254
  0
ARC
  5
555
330
50
100
AcDbEntity
  8
0
  6
Continuous
 62
     3
100
AcDbCircle
 10
757.6987844875366
 20
-159.839296693879
 30
0.0
 40
1.920136603228981
100
AcDbArc
 50
56.98805004419432
 51
70.21020804023621
  0
ARC
  5
556
330
50
100
AcDbEntity
  8
0
  6
Continuous
 62
     3
100
AcDbCircle
 10
757.8343077010909
 20
-158.811872782828
 30
0.0
 40
0.8551911335936713
100
AcDbArc
 50
116.6968612515279
 51
129.7048058381603
  0
ARC
  5
557
330
50
100
AcDbEntity
  8
0
  6
Continuous
 62
     3
100
AcDbCircle
 10
757.8922626484932
 20
-159.1433990416767
 30
0.0
 40
1.193528776932892
100
AcDbArc
 50
83.90639761542575
 51
97.53995065924519
  0
ARC
  5
558
330
50
100
AcDbEntity
  8
0
  6
Continuous
 62
     3
100
AcDbCircle
 10
803.3435933182664
 20
-143.4567004453861
 30
0.0
 40
1.998568132107046
100
AcDbArc
 50
0.04103465050356
 51
90.04106407066816
  0
ARC
  5
559
330
50
100
AcDbEntity
  8
0
  6
Continuous
 62
     3
100
AcDbCircle
 10
803.3407275308582
 20
-141.4791658623728
 30
0.0
 40
2.001433920986861
100
AcDbArc
 50
-0.04106408670315
 51
89.95896532299028
  0
ARC
  5
55A
330
50
100
AcDbEntity
  8
0
  6
Continuous
 62
     3
100
AcDbCircle
 10
809.7326278959772
 20
-150.1394358957179
 30
0.0
 40
2.499203567971884
100
AcDbArc
 50
-0.01826160467059
 51
89.9817442128646
  0
ARC
  5
55B
330
50
100
AcDbEntity
  8
0
  6
Continuous
 62
     3
100
AcDbCircle
 10
758.9911723142745
 20
-158.884498895351
 30
0.0
 40
1.272325119814785
100
AcDbArc
 50
-153.8561161982889
 51
-140.1820851928573
  0
ARC
  5
55C
330
50
100
AcDbEntity
  8
0
  6
Continuous
 62
     3
100
AcDbCircle
 10
758.4509934602193
 20
-158.938952952662
 30
0.0
 40
1.492713978140269
100
AcDbArc
 50
179.5529589672786
 51
-170.1712999990706
  0
ARC
  5
55D
330
50
100
AcDbEntity
  8
0
  6
Continuous
 62
     3
100
AcDbCircle
 10
758.9854265421968
 20
-158.8932219557398
 30
0.0
 40
1.262329691530194
100
AcDbArc
 50
-140.3191931212463
 51
-130.9562291209686
  0
ARC
  5
55E
330
50
100
AcDbEntity
  8
0
  6
Continuous
 62
     3
100
AcDbCircle
 10
758.1366944144679
 20
-159.0862105634523
 30
0.0
 40
0.3759741377747702
100
AcDbArc
 50
157.2712690725592
 51
172.7924370613038
  0
ARC
  5
55F
330
50
100
AcDbEntity
  8
0
  6
Continuous
 62
     3
100
AcDbCircle
 10
811.1157110899007
 20
-150.1402389912848
 30
0.0
 40
2.50000654082729
100
AcDbArc
 50
84.80304219301382
 51
90.00330095138
  0
ARC
  5
560
330
50
100
AcDbEntity
  8
0
  6
Continuous
 62
     3
100
AcDbCircle
 10
811.3412364191186
 20
-150.1412551902076
 30
0.0
 40
2.500924728140166
100
AcDbArc
 50
0.02343070551009
 51
66.40795693559501
  0
ARC
  5
561
330
50
100
AcDbEntity
  8
0
  6
Continuous
 62
     3
100
AcDbCircle
 10
784.8421609381385
 20
-176.640232454682
 30
0.0
 40
20.00000000000009
100
AcDbArc
 50
-84.26082952153554
 51
-14.47751218595553
  0
ARC
  5
562
330
50
100
AcDbEntity
  8
0
  6
Continuous
 62
     3
100
AcDbCircle
 10
784.8421609381385
 20
-181.640232454682
 30
0.0
 40
15.00000000000006
100
AcDbArc
 50
-82.33774433763072
 51
-0.00000000000076
  0
ARC
  5
563
330
50
100
AcDbEntity
  8
0
  6
Continuous
 62
     3
100
AcDbCircle
 10
757.4862454616618
 20
-160.140481427973
 30
0.0
 40
2.288535042857777
100
AcDbArc
 50
29.94479838104712
 51
56.63412786676982
  0
ARC
  5
564
330
50
100
AcDbEntity
  8
0
  6
Continuous
 62
     3
100
AcDbCircle
 10
757.9684082835547
 20
-158.879003546438
 30
0.0
 40
1.00416991008286
100
AcDbArc
 50
154.7812283297673
 51
168.4111073449446
  0
ARC
  5
565
330
50
100
AcDbEntity
  8
0
  6
Continuous
 62
     3
100
AcDbCircle
 10
758.0391711899019
 20
-159.0495097110019
 30
0.0
 40
0.2718710408978143
100
AcDbArc
 50
130.6155485589683
 51
156.4642776716777
  0
ARC
  5
566
330
50
100
AcDbEntity
  8
0
  6
Continuous
 62
     3
100
AcDbCircle
 10
758.0264410800801
 20
-159.0409429597116
 30
0.0
 40
0.2571134937906716
100
AcDbArc
 50
103.6182656390845
 51
129.7048486595906
  0
ARC
  5
567
330
50
100
AcDbEntity
  8
0
  6
Continuous
 62
     3
100
AcDbCircle
 10
758.0462662235345
 20
-159.1086760688929
 30
0.0
 40
0.3276270432768579
100
AcDbArc
 50
90.80417689563681
 51
104.1988609046838
  0
ARC
  5
568
330
50
100
AcDbEntity
  8
0
  6
Continuous
 62
     3
100
AcDbCircle
 10
758.0506541744512
 20
-159.2095153248387
 30
0.0
 40
0.4285282598120332
100
AcDbArc
 50
81.01671126014158
 51
91.20157830223623
  0
ARC
  5
569
330
50
100
AcDbEntity
  8
0
  6
Continuous
 62
     3
100
AcDbCircle
 10
758.0308802650466
 20
-159.3523267874043
 30
0.0
 40
0.5726823008305154
100
AcDbArc
 50
70.1684577238812
 51
81.29365871666914
  0
ARC
  5
56A
330
50
100
AcDbEntity
  8
0
  6
Continuous
 62
     3
100
AcDbCircle
 10
757.9616234353284
 20
-159.5620158467015
 30
0.0
 40
0.7934539561017576
100
AcDbArc
 50
59.42486962015091
 51
70.60091254471111
  0
ARC
  5
56B
330
50
100
AcDbEntity
  8
0
  6
Continuous
 62
     3
100
AcDbCircle
 10
758.0979685813868
 20
-159.9199116270713
 30
0.0
 40
1.635115447813523
100
AcDbArc
 50
3.91047703070006
 51
16.37305704133579
  0
ARC
  5
56C
330
50
100
AcDbEntity
  8
0
  6
Continuous
 62
     3
100
AcDbCircle
 10
758.6515076926435
 20
-159.796357256999
 30
0.0
 40
0.2720362752735297
100
AcDbArc
 50
-49.37038305151445
 51
-23.53027803418375
  0
ARC
  5
56D
330
50
100
AcDbEntity
  8
0
  6
Continuous
 62
     3
100
AcDbCircle
 10
758.6937699737014
 20
-159.9560113077161
 30
0.0
 40
1.034857744060223
100
AcDbArc
 50
-23.67853241949972
 51
-8.25710941563921
  0
ARC
  5
56E
330
50
100
AcDbEntity
  8
0
  6
Continuous
 62
     3
100
AcDbCircle
 10
758.8522498830789
 20
-160.0330016947618
 30
0.0
 40
0.8588274815316818
100
AcDbArc
 50
-50.11249360847305
 51
-23.22070061629704
  0
ARC
  5
56F
330
50
100
AcDbEntity
  8
0
  6
Continuous
 62
     3
100
AcDbCircle
 10
758.8436543099747
 20
-160.0099144147261
 30
0.0
 40
0.8820928643193392
100
AcDbArc
 50
-74.35012012372546
 51
-50.64577912569406
  0
ARC
  5
570
330
50
100
AcDbEntity
  8
0
  6
Continuous
 62
     3
100
AcDbCircle
 10
758.8019573155179
 20
-159.8201353708911
 30
0.0
 40
1.076141207017414
100
AcDbArc
 50
-90.34875976134114
 51
-74.93809378450914
  0
ARC
  5
571
330
50
100
AcDbEntity
  8
0
  6
Continuous
 62
     3
100
AcDbCircle
 10
758.4302852990522
 20
-159.9068453849483
 30
0.0
 40
1.302716908732562
100
AcDbArc
 50
-8.73281215171793
 51
4.33391184589206
  0
ARC
  5
572
330
50
100
AcDbEntity
  8
0
  6
Continuous
 62
     3
100
AcDbCircle
 10
758.1952405420016
 20
-159.7645881178602
 30
0.0
 40
0.7366012710723444
100
AcDbArc
 50
4.97101540943496
 51
14.11481738554801
  0
ARC
  5
573
330
50
100
AcDbEntity
  8
0
  6
Continuous
 62
     3
100
AcDbCircle
 10
758.3935750921601
 20
-159.7441582835585
 30
0.0
 40
0.5372517771696339
100
AcDbArc
 50
-6.70084414825838
 51
4.63327086094913
  0
ARC
  5
574
330
50
100
AcDbEntity
  8
0
  6
Continuous
 62
     3
100
AcDbCircle
 10
758.5537261668528
 20
-159.7595691587525
 30
0.0
 40
0.3764116727760218
100
AcDbArc
 50
-22.72220875915788
 51
-7.21559672825445
  0
ARC
  5
575
330
50
100
AcDbEntity
  8
0
  6
Continuous
 62
     3
100
AcDbCircle
 10
803.3407275308446
 20
-207.8012990469983
 30
0.0
 40
2.001433920979748
100
AcDbArc
 50
-89.95896532259958
 51
0.04106408709304
  0
ARC
  5
576
330
50
100
AcDbEntity
  8
0
  6
Continuous
 62
     3
100
AcDbCircle
 10
803.3435933181859
 20
-205.8237644640219
 30
0.0
 40
1.998568132166505
100
AcDbArc
 50
-90.04106406416153
 51
-0.04103464794466
  0
ARC
  5
577
330
50
100
AcDbEntity
  8
0
  6
Continuous
 62
     3
100
AcDbCircle
 10
806.342629537402
 20
-144.4853447626257
 30
0.0
 40
5.007612329868883
100
AcDbArc
 50
3.25545244583406
 51
90.00536158918719
  0
ARC
  5
578
330
50
100
AcDbEntity
  8
0
  6
Continuous
 62
     3
100
AcDbCircle
 10
769.1715416446341
 20
-146.9843816150478
 30
0.0
 40
4.996306438323373
100
AcDbArc
 50
23.14397956013015
 51
89.76970785334943
  0
ARC
  5
579
330
50
100
AcDbEntity
  8
0
  6
Continuous
 62
     3
100
AcDbCircle
 10
758.8566683285653
 20
-159.0515669981457
 30
0.0
 40
1.058367402741191
100
AcDbArc
 50
-131.3109741946397
 51
-120.1173262023537
  0
ARC
  5
57A
330
50
100
AcDbEntity
  8
0
  6
Continuous
 62
     3
100
AcDbCircle
 10
758.7294073236935
 20
-159.2834695605426
 30
0.0
 40
0.7939405483551412
100
AcDbArc
 50
-120.5706478174821
 51
-109.4002928397858
  0
ARC
  5
57B
330
50
100
AcDbEntity
  8
0
  6
Continuous
 62
     3
100
AcDbCircle
 10
758.6599714539084
 20
-159.4936574303865
 30
0.0
 40
0.5726390367339456
100
AcDbArc
 50
-109.8329262651608
 51
-98.70626621805188
  0
ARC
  5
57C
330
50
100
AcDbEntity
  8
0
  6
Continuous
 62
     3
100
AcDbCircle
 10
757.9346061329306
 20
-159.8391996948341
 30
0.0
 40
1.007600496742337
100
AcDbArc
 50
14.6151751233219
 51
25.79337213528331
  0
ARC
  5
57D
330
50
100
AcDbEntity
  8
0
  6
Continuous
 62
     3
100
AcDbCircle
 10
758.8123215357268
 20
-159.5489198219818
 30
0.0
 40
1.347442989913972
100
AcDbArc
 50
-102.5069675769388
 51
-90.71926157240658
  0
ARC
  5
57E
330
50
100
AcDbEntity
  8
0
  6
Continuous
 62
     3
100
AcDbCircle
 10
758.6644878041093
 20
-159.8052037316967
 30
0.0
 40
0.2569027302694484
100
AcDbArc
 50
-76.38674970955304
 51
-50.28271271986624
  0
ARC
  5
57F
330
50
100
AcDbEntity
  8
0
  6
Continuous
 62
     3
100
AcDbCircle
 10
758.6445988720998
 20
-159.7372394609499
 30
0.0
 40
0.3276558082799876
100
AcDbArc
 50
-89.19658313714734
 51
-75.80379920732062
  0
ARC
  5
580
330
50
100
AcDbEntity
  8
0
  6
Continuous
 62
     3
100
AcDbCircle
 10
758.6402372198299
 20
-159.6361852586608
 30
0.0
 40
0.4287713430014758
100
AcDbArc
 50
-98.98253495777523
 51
-88.80314491543408
  0
ARC
  5
581
330
50
100
AcDbEntity
  8
0
  6
Continuous
 62
     3
100
AcDbCircle
 10
769.1638009936878
 20
-146.9931830417333
 30
0.0
 40
5.006886009220447
100
AcDbArc
 50
0.22640479311998
 51
23.20177649559633
  0
ARC
  5
582
330
50
100
AcDbEntity
  8
0
  6
Continuous
 62
     3
100
AcDbCircle
 10
806.3401475797555
 20
-144.3429377739682
 30
0.0
 40
5.004027527250067
100
AcDbArc
 50
-1.62569967411014
 51
1.62569967410917
  0
ARC
  5
583
330
50
100
AcDbEntity
  8
0
  6
Continuous
 62
     3
100
AcDbCircle
 10
716.8421609381385
 20
-142.640232454682
 30
0.0
 40
5.0
100
AcDbArc
 50
90.0
 51
180.0
  0
ARC
  5
584
330
50
100
AcDbEntity
  8
0
  6
Continuous
 62
     3
100
AcDbCircle
 10
718.3986531063392
 20
-144.1901210985515
 30
0.0
 40
4.999185259507152
100
AcDbArc
 50
89.94557196047865
 51
143.039293698154
  0
ARC
  5
585
330
50
100
AcDbEntity
  8
0
  6
Continuous
 62
     3
100
AcDbCircle
 10
757.8361977151358
 20
-158.8106324043822
 30
0.0
 40
0.8554472052482957
100
AcDbArc
 50
129.8552690289663
 51
155.1511350265858
  0
ARC
  5
586
330
50
100
AcDbEntity
  8
0
  6
Continuous
 62
     3
100
AcDbCircle
 10
718.3840987065396
 20
-144.1702359765936
 30
0.0
 40
4.975604443862244
100
AcDbArc
 50
143.1214912067877
 51
-179.909757991941
  0
ARC
  5
587
330
50
100
AcDbEntity
  8
0
  6
Continuous
 62
     3
100
AcDbCircle
 10
699.8421609382845
 20
-187.3681545159915
 30
0.0
 40
11.99999999985403
100
AcDbArc
 50
0.00000000147822
 51
50.47880364393625
  0
ARC
  5
588
330
50
100
AcDbEntity
  8
0
  6
Continuous
 62
     3
100
AcDbCircle
 10
699.8421609382845
 20
-161.9123103933723
 30
0.0
 40
11.99999999985403
100
AcDbArc
 50
-50.47880364393616
 51
-0.00000000147822
  0
ARC
  5
589
330
50
100
AcDbEntity
  8
0
  6
Continuous
 62
     3
100
AcDbCircle
 10
716.8421609381385
 20
-206.640232454682
 30
0.0
 40
5.0
100
AcDbArc
 50
180.0
 51
-90.0
  0
ARC
  5
58A
330
50
100
AcDbEntity
  8
0
  6
Continuous
 62
     3
100
AcDbCircle
 10
718.3856038050026
 20
-205.1128432452721
 30
0.0
 40
4.976715395561221
100
AcDbArc
 50
-176.2353097039755
 51
-89.79509218492589
  0
ARC
  5
58B
330
50
100
AcDbEntity
  8
0
  6
Continuous
 62
     3
100
AcDbCircle
 10
710.3421609381385
 20
-174.640232454682
 30
0.0
 40
4.500000000015926
100
AcDbArc
 50
129.5211963644742
 51
-129.5211963644761
  0
ARC
  5
58C
330
50
100
AcDbEntity
  8
0
  6
Continuous
 62
     3
100
AcDbCircle
 10
784.8421609381385
 20
-174.640232454682
 30
0.0
 40
9.000000000375625
100
AcDbArc
 50
40.54160187350413
 51
78.78772858012394
  0
ARC
  5
58D
330
50
100
AcDbEntity
  8
0
  6
Continuous
 62
     3
100
AcDbCircle
 10
784.8421609381385
 20
-174.640232454682
 30
0.0
 40
6.499999999999967
100
AcDbArc
 50
-74.381501720543
 51
74.381501720543
  0
ARC
  5
58E
330
50
100
AcDbEntity
  8
0
  6
Continuous
 62
     3
100
AcDbCircle
 10
784.8421609381385
 20
-174.640232454682
 30
0.0
 40
6.499999999999931
100
AcDbArc
 50
105.6184982718403
 51
-105.6184982718403
  0
ARC
  5
58F
330
50
100
AcDbEntity
  8
0
  6
Continuous
 62
     3
100
AcDbCircle
 10
784.8421609381385
 20
-174.640232454682
 30
0.0
 40
9.000000000375518
100
AcDbArc
 50
101.2122714144753
 51
-102.8395884036423
  0
ARC
  5
590
330
50
100
AcDbEntity
  8
0
  6
Continuous
 62
     3
100
AcDbCircle
 10
600.4999108066086
 20
-308.7356070183579
 30
0.0
 40
0.9999999998566977
100
AcDbArc
 50
-89.99999994635255
 51
-3.06648547141961
  0
ARC
  5
591
330
50
100
AcDbEntity
  8
0
  6
Continuous
 62
     3
100
AcDbCircle
 10
659.447773300004
 20
-313.2356070189823
 30
0.0
 40
8.500000000097785
100
AcDbArc
 50
28.2737136331973
 51
33.49501290598473
  0
ARC
  5
592
330
50
100
AcDbEntity
  8
0
  6
Continuous
 62
     3
100
AcDbCircle
 10
673.3956357919897
 20
-308.7356070178922
 30
0.0
 40
1.00000000029981
100
AcDbArc
 50
-176.9335145016032
 51
-90.00000001862939
  0
ARC
  5
593
330
50
100
AcDbEntity
  8
0
  6
Continuous
 62
     3
100
AcDbCircle
 10
659.4477732993796
 20
-313.2356070176908
 30
0.0
 40
8.500000000035783
100
AcDbArc
 50
6.7563270270041
 51
28.27371362353686
  0
ARC
  5
594
330
50
100
AcDbEntity
  8
0
  6
Continuous
 62
     3
100
AcDbCircle
 10
667.8143735652234
 20
-308.73560701862
 30
0.0
 40
0.9999999999669675
100
AcDbArc
 50
-151.726286362633
 51
-89.99999999963522
  0
ARC
  5
595
330
50
100
AcDbEntity
  8
0
  6
Continuous
 62
     3
100
AcDbCircle
 10
659.4477732995979
 20
-313.2356070182431
 30
0.0
 40
8.500000000028152
100
AcDbArc
 50
33.4950129003189
 51
90.00000000035864
  0
ARC
  5
596
330
50
100
AcDbEntity
  8
0
  6
Continuous
 62
     3
100
AcDbCircle
 10
659.4477732995447
 20
-313.2356070182146
 30
0.0
 40
5.5000000000001
100
AcDbArc
 50
5.21590857045403
 51
169.5243183036104
  0
ARC
  5
597
330
50
100
AcDbEntity
  8
0
  6
Continuous
 62
     3
100
AcDbCircle
 10
659.4477732995561
 20
-313.2356070182078
 30
0.0
 40
8.499999999993236
100
AcDbArc
 50
90.00000000007664
 51
151.7262863709029
  0
ARC
  5
598
330
50
100
AcDbEntity
  8
0
  6
Continuous
 62
     3
100
AcDbCircle
 10
659.4477732995447
 20
-313.2356070182146
 30
0.0
 40
5.200000000000264
100
AcDbArc
 50
5.51773437372485
 51
174.4822656262747
  0
ARC
  5
599
330
50
100
AcDbEntity
  8
0
  6
Continuous
 62
     3
100
AcDbCircle
 10
659.4477732995447
 20
-313.2356070182146
 30
0.0
 40
5.50000000000012
100
AcDbArc
 50
169.5243183036104
 51
174.7840914295456
  0
ARC
  5
59A
330
50
100
AcDbEntity
  8
0
  6
Continuous
 62
     3
100
AcDbCircle
 10
659.4477732995874
 20
-313.2356070180791
 30
0.0
 40
8.499999999959842
100
AcDbArc
 50
151.7262863717671
 51
173.2436729702997
  0
ARC
  5
59B
330
50
100
AcDbEntity
  8
0
  6
Continuous
 62
     3
100
AcDbCircle
 10
651.0811730343053
 20
-308.7356070183579
 30
0.0
 40
0.9999999998566977
100
AcDbArc
 50
-89.99999998626896
 51
-28.273713645512
  0
ARC
  5
59C
330
50
100
AcDbEntity
  8
0
  6
Continuous
 62
     3
100
AcDbCircle
 10
850.4251324782231
 20
-308.735607017922
 30
0.0
 40
1.000000000293312
100
AcDbArc
 50
-89.99999999804587
 51
-3.06648549733519
  0
ARC
  5
59D
330
50
100
AcDbEntity
  8
0
  6
Continuous
 62
     3
100
AcDbCircle
 10
858.6837360038562
 20
-266.7356070169325
 30
0.0
 40
4.999999999509332
100
AcDbArc
 50
138.1896851145884
 51
176.9335145117535
  0
ARC
  5
59E
330
50
100
AcDbEntity
  8
0
  6
Continuous
 62
     3
100
AcDbCircle
 10
858.6837360028112
 20
-266.7356070184345
 30
0.0
 40
4.999999999732609
100
AcDbArc
 50
89.99999999180307
 51
138.1896850937761
  0
ARC
  5
59F
330
50
100
AcDbEntity
  8
0
  6
Continuous
 62
     3
100
AcDbCircle
 10
923.320857462249
 20
-308.7356070178815
 30
0.0
 40
1.000000000332984
100
AcDbArc
 50
-176.9335145002178
 51
-89.99999999953101
  0
ARC
  5
5A0
330
50
100
AcDbEntity
  8
0
  6
Continuous
 62
     3
100
AcDbCircle
 10
915.0622539378451
 20
-266.7356070185439
 30
0.0
 40
5.000000000266972
100
AcDbArc
 50
41.81031490014431
 51
90.00000000647208
  0
ARC
  5
5A1
330
50
100
AcDbEntity
  8
0
  6
Continuous
 62
     3
100
AcDbCircle
 10
910.3729683967881
 20
-264.7356335915332
 30
0.0
 40
3.000026573586548
100
AcDbArc
 50
0.00050750850611
 51
89.99949249556389
  0
ARC
  5
5A2
330
50
100
AcDbEntity
  8
0
  6
Continuous
 62
     3
100
AcDbCircle
 10
915.0622539363876
 20
-266.7356070164645
 30
0.0
 40
4.999999999967156
100
AcDbArc
 50
3.06648548272806
 51
41.81031487124972
  0
ARC
  5
5A3
330
50
100
AcDbEntity
  8
0
  6
Continuous
 62
     3
100
AcDbCircle
 10
863.3729683983324
 20
-264.7355804462899
 30
0.0
 40
2.999973428192233
100
AcDbArc
 50
89.99949250912853
 51
-179.9994925091253
  0
ARC
  5
5A4
330
50
100
AcDbEntity
  8
0
  6
Continuous
 62
     3
100
AcDbCircle
 10
881.872994970046
 20
-262.7356070183538
 30
0.0
 40
1.000000000138698
100
AcDbArc
 50
-0.00000003830426
 51
89.99999998540915
  0
ARC
  5
5A5
330
50
100
AcDbEntity
  8
0
  6
Continuous
 62
     3
100
AcDbCircle
 10
891.872994970096
 20
-262.7356070178404
 30
0.0
 40
0.9999999996257998
100
AcDbArc
 50
89.99999999077649
 51
-179.9999999671673
  0
ARC
  5
5A6
330
50
100
AcDbEntity
  8
0
  6
Continuous
 62
     3
100
AcDbCircle
 10
914.6336825080921
 20
-258.7356070180516
 30
0.0
 40
5.00000000012701
100
AcDbArc
 50
3.0664855005561
 51
89.99999999487235
  0
ARC
  5
5A7
330
50
100
AcDbEntity
  8
0
  6
Continuous
 62
     3
100
AcDbCircle
 10
859.112307431838
 20
-258.7356070174488
 30
0.0
 40
4.999999999524079
100
AcDbArc
 50
89.99999999519544
 51
176.9335145078677
  0
ARC
  5
5A8
330
50
100
AcDbEntity
  8
0
  6
Continuous
 62
     3
100
AcDbCircle
 10
812.3421609384725
 20
-308.7356070181033
 30
0.0
 40
1.000000000082082
100
AcDbArc
 50
-179.9999999935579
 51
-89.99999999529706
  0
ARC
  5
5A9
330
50
100
AcDbEntity
  8
0
  6
Continuous
 62
     3
100
AcDbCircle
 10
802.3421609387003
 20
-264.7356070183309
 30
0.0
 40
3.000000000145519
100
AcDbArc
 50
-0.00000005405348
 51
90.00000000278355
  0
ARC
  5
5AA
330
50
100
AcDbEntity
  8
0
  6
Continuous
 62
     3
100
AcDbCircle
 10
776.6012172898284
 20
-259.7367032087079
 30
0.0
 40
1.998904196626069
100
AcDbArc
 50
-172.7679618465336
 51
-90.03565992956081
  0
ARC
  5
5AB
330
50
100
AcDbEntity
  8
0
  6
Continuous
 62
     3
100
AcDbCircle
 10
771.1938142824843
 20
-256.7356070181231
 30
0.0
 40
2.999999999937676
100
AcDbArc
 50
7.12501634360498
 51
89.99999999865817
  0
ARC
  5
5AC
330
50
100
AcDbEntity
  8
0
  6
Continuous
 62
     3
100
AcDbCircle
 10
712.7681845926545
 20
-303.7356070181102
 30
0.0
 40
1.000000000075204
100
AcDbArc
 50
-90.00000000573212
 51
-4.08561678467794
  0
ARC
  5
5AD
330
50
100
AcDbEntity
  8
0
  6
Continuous
 62
     3
100
AcDbCircle
 10
712.4234691421573
 20
-308.7367387885927
 30
0.0
 40
0.9988689726811919
100
AcDbArc
 50
-89.93011183296811
 51
-4.22192896674751
  0
ARC
  5
5AE
330
50
100
AcDbEntity
  8
0
  6
Continuous
 62
     3
100
AcDbCircle
 10
1056.791686766654
 20
-308.5905347398741
 30
0.0
 40
0.9988689726814027
100
AcDbArc
 50
-175.7780710332567
 51
-90.06988816704494
  0
ARC
  5
5AF
330
50
100
AcDbEntity
  8
0
  6
Continuous
 62
     3
100
AcDbCircle
 10
1056.446971316157
 20
-303.5894029693916
 30
0.0
 40
1.000000000075417
100
AcDbArc
 50
-175.9143832153188
 51
-89.99999999426788
  0
ARC
  5
5B0
330
50
100
AcDbEntity
  8
0
  6
Continuous
 62
     3
100
AcDbCircle
 10
998.0213416263273
 20
-256.5894029694046
 30
0.0
 40
2.999999999937813
100
AcDbArc
 50
90.00000000134619
 51
172.8749836563951
  0
ARC
  5
5B1
330
50
100
AcDbEntity
  8
0
  6
Continuous
 62
     3
100
AcDbCircle
 10
992.613938618983
 20
-259.5904991599894
 30
0.0
 40
1.998904196626074
100
AcDbArc
 50
-89.96434007043921
 51
-7.23203815346402
  0
ARC
  5
5B2
330
50
100
AcDbEntity
  8
0
  6
Continuous
 62
     3
100
AcDbCircle
 10
966.872994970111
 20
-264.5894029696123
 30
0.0
 40
3.000000000145406
100
AcDbArc
 50
89.9999999972121
 51
-179.9999999459476
  0
ARC
  5
5B3
330
50
100
AcDbEntity
  8
0
  6
Continuous
 62
     3
100
AcDbCircle
 10
956.8729949703388
 20
-308.5894029693847
 30
0.0
 40
1.000000000082196
100
AcDbArc
 50
-90.00000000468992
 51
-0.00000000643887
  0
CIRCLE
  5
5B4
330
50
100
AcDbEntity
  8
0
  6
Continuous
 62
     3
100
AcDbCircle
 10
784.8421609381385
 20
-174.640232454682
 30
0.0
 40
4.5
  0
CIRCLE
  5
5B5
330
50
100
AcDbEntity
  8
0
  6
Continuous
 62
     3
100
AcDbCircle
 10
757.8421609381385
 20
-174.640232454682
 30
0.0
 40
2.0
  0
SPLINE
  5
5B6
330
50
100
AcDbEntity
  8
0
  6
Continuous
 62
     3
100
AcDbSpline
210
0.0
220
0.0
230
1.0
 70
     8
 71
     3
 72
    13
 73
     9
 74
     7
 42
0.0000000001
 43
0.0000000001
 44
0.00000001
 40
0.0
 40
0.0
 40
0.0
 40
0.0
 40
0.1328956156471303
 40
0.2523540999691765
 40
0.3536070220280355
 40
0.4318930311897462
 40
0.4824824288588927
 40
0.5009373200282075
 40
0.5009373200282075
 40
0.5009373200282075
 40
0.5009373200282075
 10
812.2139741941387
 20
-150.640232454682
 30
0.0
 10
812.2140743722916
 20
-150.5959302796022
 30
0.0
 10
812.214264599543
 20
-150.5118053409087
 30
0.0
 10
812.2162409325709
 20
-150.3939895391097
 30
0.0
 10
812.2182457859024
 20
-150.2942286993221
 30
0.0
 10
812.2230478451868
 20
-150.2179028814635
 30
0.0
 10
812.2236350904441
 20
-150.168294015702
 30
0.0
 10
812.2301026255119
 20
-150.1461510593434
 30
0.0
 10
812.2318313370074
 20
-150.140232454682
 30
0.0
 11
812.2139741941387
 21
-150.640232454682
 31
0.0
 11
812.2146131285958
 21
-150.5073383749757
 31
0.0
 11
812.2164148529084
 21
-150.3878934786175
 31
0.0
 11
812.2192084514911
 21
-150.2866791020082
 31
0.0
 11
812.222823008759
 21
-150.2084765815486
 31
0.0
 11
812.227087609126
 21
-150.1580672536396
 31
0.0
 11
812.2318313370074
 21
-150.140232454682
 31
0.0
  0
SPLINE
  5
5B7
330
50
100
AcDbEntity
  8
0
  6
Continuous
 62
     3
100
AcDbSpline
210
0.0
220
0.0
230
1.0
 70
     8
 71
     3
 72
    11
 73
     7
 74
     5
 42
0.0000000001
 43
0.0000000001
 44
0.00000001
 40
0.0
 40
0.0
 40
0.0
 40
0.0
 40
0.498286687536979
 40
0.9313442970719779
 40
1.320434178224868
 40
1.68247189780467
 40
1.68247189780467
 40
1.68247189780467
 40
1.68247189780467
 10
811.5461674281387
 20
-178.640232454682
 30
0.0
 10
811.7139673768115
 20
-178.6593538784816
 30
0.0
 10
812.0276011325478
 20
-178.6950936031283
 30
0.0
 10
812.3963917474989
 20
-178.9585672518406
 30
0.0
 10
812.6465510297732
 20
-179.2756388939979
 30
0.0
 10
812.7058233218011
 20
-179.5216547206519
 30
0.0
 10
812.7343921101387
 20
-179.640232454682
 30
0.0
 11
811.5461674281387
 21
-178.640232454682
 31
0.0
 11
812.0342491586385
 21
-178.7405611511195
 31
0.0
 11
812.3931501031386
 21
-178.9829018311819
 31
0.0
 11
812.6255926612637
 21
-179.2949297029944
 31
0.0
 11
812.7343921101387
 21
-179.640232454682
 31
0.0
  0
SPLINE
  5
5B8
330
50
100
AcDbEntity
  8
0
  6
Continuous
 62
     3
100
AcDbSpline
210
0.0
220
0.0
230
1.0
 70
     8
 71
     3
 72
    11
 73
     7
 74
     5
 42
0.0000000001
 43
0.0000000001
 44
0.00000001
 40
0.0
 40
0.0
 40
0.0
 40
0.0
 40
0.4982866875370018
 40
0.9313442970720645
 40
1.320434178224863
 40
1.682471897804557
 40
1.682471897804557
 40
1.682471897804557
 40
1.682471897804557
 10
811.5461674281387
 20
-170.640232454682
 30
0.0
 10
811.7139673768118
 20
-170.6211110308824
 30
0.0
 10
812.0276011325481
 20
-170.5853713062356
 30
0.0
 10
812.3963917474985
 20
-170.3218976575233
 30
0.0
 10
812.6465510297733
 20
-170.004826015366
 30
0.0
 10
812.7058233218011
 20
-169.7588101887121
 30
0.0
 10
812.7343921101387
 20
-169.640232454682
 30
0.0
 11
811.5461674281387
 21
-170.640232454682
 31
0.0
 11
812.0342491586385
 21
-170.5399037582444
 31
0.0
 11
812.3931501031386
 21
-170.2975630781819
 31
0.0
 11
812.6255926612637
 21
-169.9855352063695
 31
0.0
 11
812.7343921101387
 21
-169.640232454682
 31
0.0
  0
SPLINE
  5
5B9
330
50
100
AcDbEntity
  8
0
  6
Continuous
 62
     3
100
AcDbSpline
210
0.0
220
0.0
230
1.0
 70
     8
 71
     3
 72
    15
 73
    11
 74
     9
 42
0.0000000001
 43
0.0000000001
 44
0.00000001
 40
0.0
 40
0.0
 40
0.0
 40
0.0
 40
0.9137121868572548
 40
1.882103045636791
 40
2.891139468141829
 40
3.921889412804381
 40
4.953063718342857
 40
5.963267141961531
 40
6.933304798080769
 40
7.848820200631841
 40
7.848820200631841
 40
7.848820200631841
 40
7.848820200631841
 10
806.3421609381385
 20
-210.0895268146819
 30
0.0
 10
806.647115456366
 20
-210.0730874429832
 30
0.0
 10
807.2752736836418
 20
-210.0392249291767
 30
0.0
 10
808.20749456313
 20
-209.7613455876531
 30
0.0
 10
809.1028943267662
 20
-209.2978546616006
 30
0.0
 10
809.9032313387247
 20
-208.6474013394262
 30
0.0
 10
810.5522786102961
 20
-207.8454414361892
 30
0.0
 10
811.0147366521775
 20
-206.9483119786299
 30
0.0
 10
811.2919721601772
 20
-206.0143480998063
 30
0.0
 10
811.3257569836462
 20
-205.3850447127846
 30
0.0
 10
811.3421609379743
 20
-205.0794914211141
 30
0.0
 11
806.3421609381385
 21
-210.0895268146819
 31
0.0
 11
807.252006356375
 21
-210.0055549424537
 31
0.0
 11
808.1826344858969
 21
-209.7377637179702
 31
0.0
 11
809.0779423988997
 21
-209.2723840419462
 31
0.0
 11
809.8776948440236
 21
-208.6221214219685
 31
0.0
 11
810.5266534549656
 21
-207.8207643419555
 31
0.0
 11
810.9911024434337
 21
-206.9236589444676
 31
0.0
 11
811.2583560659529
 21
-205.9911630701927
 31
0.0
 11
811.3421609379743
 21
-205.0794914211141
 31
0.0
  0
SPLINE
  5
5BA
330
50
100
AcDbEntity
  8
0
  6
Continuous
 62
     3
100
AcDbSpline
210
0.0
220
0.0
230
1.0
 70
     8
 71
     3
 72
    13
 73
     9
 74
     7
 42
0.0000000001
 43
0.0000000001
 44
0.00000001
 40
0.0
 40
0.0
 40
0.0
 40
0.0
 40
0.0942178267644582
 40
0.2187236797129274
 40
0.4649440134846954
 40
0.7685385090802485
 40
0.8974359904921857
 40
1.028247506368831
 40
1.028247506368831
 40
1.028247506368831
 40
1.028247506368831
 10
811.3421609381385
 20
-201.639954413682
 30
0.0
 10
811.3735732718184
 20
-201.6396872708829
 30
0.0
 10
811.4464960025446
 20
-201.6390671073952
 30
0.0
 10
811.6011040395613
 20
-201.6269369502579
 30
0.0
 10
811.8240596753484
 20
-201.5966536397978
 30
0.0
 10
812.0443195739024
 20
-201.5422757634065
 30
0.0
 10
812.2220600850753
 20
-201.4813977686122
 30
0.0
 10
812.301931106113
 20
-201.4479500616307
 30
0.0
 10
812.3421609381385
 20
-201.431102954682
 30
0.0
 11
811.3421609381385
 21
-201.639954413682
 31
0.0
 11
811.4363626001766
 21
-201.6382092061095
 31
0.0
 11
811.5605511133358
 21
-201.6293254784159
 31
0.0
 11
811.8044157856659
 21
-201.5953479218233
 31
0.0
 11
812.0990966419959
 21
-201.5223218260179
 31
0.0
 11
812.2209448689437
 21
-201.4802793438836
 31
0.0
 11
812.3421609381385
 21
-201.431102954682
 31
0.0
  0
SPLINE
  5
5BB
330
50
100
AcDbEntity
  8
0
  6
Continuous
 62
     3
100
AcDbSpline
210
0.0
220
0.0
230
1.0
 70
     8
 71
     3
 72
    13
 73
     9
 74
     7
 42
0.0000000001
 43
0.0000000001
 44
0.00000001
 40
0.0
 40
0.0
 40
0.0
 40
0.0
 40
0.0184757862906403
 40
0.0690723579880904
 40
0.1473554645438949
 40
0.2485997115964923
 40
0.3680480789679641
 40
0.50093646742904
 40
0.50093646742904
 40
0.50093646742904
 40
0.50093646742904
 10
812.2318313372002
 20
-199.1402324544894
 30
0.0
 10
812.2301026923523
 20
-199.1343065979741
 30
0.0
 10
812.2236400945556
 20
-199.1121525810258
 30
0.0
 10
812.2230461197198
 20
-199.0625371989173
 30
0.0
 10
812.2182479832557
 20
-198.9862117842576
 30
0.0
 10
812.2162415979005
 20
-198.8864586107271
 30
0.0
 10
812.2142655589528
 20
-198.768651341249
 30
0.0
 10
812.2140747043111
 20
-198.6845322080513
 30
0.0
 10
812.2139741943174
 20
-198.640232454682
 30
0.0
 11
812.2318313372002
 21
-199.1402324544894
 31
0.0
 11
812.2270878677437
 21
-199.1223759661288
 31
0.0
 11
812.2228236290282
 21
-199.0719594079786
 31
0.0
 11
812.2192093816909
 21
-198.9937597788988
 31
0.0
 11
812.2164158863687
 21
-198.8925540777495
 31
0.0
 11
812.2146139036986
 21
-198.7731193033906
 31
0.0
 11
812.2139741943174
 21
-198.640232454682
 31
0.0
  0
SPLINE
  5
5BC
330
50
100
AcDbEntity
  8
0
  6
Continuous
 62
     3
100
AcDbSpline
210
0.0
220
0.0
230
1.0
 70
     8
 71
     3
 72
    11
 73
     7
 74
     5
 42
0.0000000001
 43
0.0000000001
 44
0.00000001
 40
0.0
 40
0.0
 40
0.0
 40
0.0
 40
0.6835629293914669
 40
1.312056447255182
 40
1.911486295732711
 40
2.553987813295704
 40
2.553987813295704
 40
2.553987813295704
 40
2.553987813295704
 10
773.6129412807159
 20
-161.8768228042015
 30
0.0
 10
773.7751464434234
 20
-161.7151458718713
 30
0.0
 10
774.0864891455476
 20
-161.4048170750405
 30
0.0
 10
774.3933644661292
 20
-160.8386649724548
 30
0.0
 10
774.5886968696104
 20
-160.241068563939
 30
0.0
 10
774.6114160616871
 20
-159.825990422337
 30
0.0
 10
774.6231696221385
 20
-159.6112536476819
 30
0.0
 11
773.6129412807159
 21
-161.8768228042015
 31
0.0
 11
774.0722237268357
 21
-161.3705443105595
 31
0.0
 11
774.3799804851385
 21
-160.8225571941821
 31
0.0
 11
774.5592771267636
 21
-160.2505704307445
 31
0.0
 11
774.6231696221385
 21
-159.6112536476819
 31
0.0
  0
SPLINE
  5
5BD
330
50
100
AcDbEntity
  8
0
  6
Continuous
 62
     3
100
AcDbSpline
210
0.0
220
0.0
230
1.0
 70
     8
 71
     3
 72
    15
 73
    11
 74
     9
 42
0.0000000001
 43
0.0000000001
 44
0.00000001
 40
0.0
 40
0.0
 40
0.0
 40
0.0
 40
0.2215712036752509
 40
0.4344639125844779
 40
0.6270637858880339
 40
0.7849906115543712
 40
0.9081738926753482
 40
0.9901814113579265
 40
1.018639777051191
 40
1.028258343253369
 40
1.028258343253369
 40
1.028258343253369
 40
1.028258343253369
 10
812.3421609381385
 20
-147.849361954682
 30
0.0
 10
812.2735846225909
 20
-147.8218037563073
 30
0.0
 10
812.139117986723
 20
-147.7677667583084
 30
0.0
 10
811.9374613878426
 20
-147.7114154380922
 30
0.0
 10
811.7533913121688
 20
-147.6734423045418
 30
0.0
 10
811.5966572371565
 20
-147.6533183597145
 30
0.0
 10
811.4759306838134
 20
-147.6440325001625
 30
0.0
 10
811.3980801697936
 20
-147.6414157424422
 30
0.0
 10
811.3580591717368
 20
-147.6406165733204
 30
0.0
 10
811.3453670732763
 20
-147.6405318879481
 30
0.0
 10
811.3421609381385
 20
-147.640510495682
 30
0.0
 11
812.3421609381385
 21
-147.849361954682
 31
0.0
 11
812.1350660052353
 21
-147.7705870407567
 31
0.0
 11
811.9303639398897
 21
-147.712103111768
 31
0.0
 11
811.741622979332
 21
-147.6737421810666
 31
0.0
 11
811.585019212354
 21
-147.6533426116258
 31
0.0
 11
811.462187508427
 21
-147.6440424364609
 31
0.0
 11
811.380233057052
 21
-147.6410926872672
 31
0.0
 11
811.3517792123777
 21
-147.6405854386302
 31
0.0
 11
811.3421609381385
 21
-147.640510495682
 31
0.0
  0
SPLINE
  5
5BE
330
50
100
AcDbEntity
  8
0
  6
Continuous
 62
     3
100
AcDbSpline
210
0.0
220
0.0
230
1.0
 70
     8
 71
     3
 72
    11
 73
     7
 74
     5
 42
0.0000000001
 43
0.0000000001
 44
0.00000001
 40
0.0
 40
0.0
 40
0.0
 40
0.0
 40
0.6425015175628512
 40
1.241931366040298
 40
1.870424883903989
 40
2.553987813295645
 40
2.553987813295645
 40
2.553987813295645
 40
2.553987813295645
 10
774.6231696221385
 20
-189.6692112616819
 30
0.0
 10
774.6114160616869
 20
-189.4544744870269
 30
0.0
 10
774.5886968696102
 20
-189.0393963454249
 30
0.0
 10
774.3933644661292
 20
-188.4417999369092
 30
0.0
 10
774.0864891455473
 20
-187.8756478343236
 30
0.0
 10
773.7751464434234
 20
-187.5653190374926
 30
0.0
 10
773.6129412807159
 20
-187.4036421051623
 30
0.0
 11
774.6231696221385
 21
-189.6692112616819
 31
0.0
 11
774.5592771267636
 21
-189.0298944786194
 31
0.0
 11
774.3799804851385
 21
-188.457907715182
 31
0.0
 11
774.0722237268357
 21
-187.9099205988046
 31
0.0
 11
773.6129412807159
 21
-187.4036421051623
 31
0.0
  0
SPLINE
  5
5BF
330
50
100
AcDbEntity
  8
0
  6
Continuous
 62
     3
100
AcDbSpline
210
0.0
220
0.0
230
1.0
 70
     8
 71
     3
 72
    15
 73
    11
 74
     9
 42
0.0000000001
 43
0.0000000001
 44
0.00000001
 40
0.0
 40
0.0
 40
0.0
 40
0.0
 40
0.7549739715124377
 40
1.575153274799954
 40
2.458168493413462
 40
3.392144330247209
 40
4.356325108266892
 40
5.323457792057325
 40
6.265095721353095
 40
7.157215617969724
 40
7.157215617969724
 40
7.157215617969724
 40
7.157215617969724
 10
770.4282498451385
 20
-207.8223320826818
 30
0.0
 10
770.6779887843541
 20
-207.7850071171513
 30
0.0
 10
771.1990360294167
 20
-207.7071335163311
 30
0.0
 10
771.9589140748626
 20
-207.377268454817
 30
0.0
 10
772.6885207396097
 20
-206.8793304401599
 30
0.0
 10
773.3436593939343
 20
-206.21510354136
 30
0.0
 10
773.8830468033619
 20
-205.4207827218276
 30
0.0
 10
774.2812954917481
 20
-204.5460248217458
 30
0.0
 10
774.5378264375864
 20
-203.6425242336192
 30
0.0
 10
774.5919058909672
 20
-203.0326100528126
 30
0.0
 10
774.6182154481385
 20
-202.735887896682
 30
0.0
 11
770.4282498451385
 21
-207.8223320826818
 31
0.0
 11
771.169625944632
 21
-207.6796885522958
 31
0.0
 11
771.926669216934
 21
-207.3641262392679
 31
0.0
 11
772.656784549388
 21
-206.867490077054
 31
0.0
 11
773.3148011298322
 21
-206.2046740817356
 31
0.0
 11
773.858602116748
 21
-205.4084799726566
 31
0.0
 11
774.2617832066699
 21
-204.5293948591522
 31
0.0
 11
774.5123353251714
 21
-203.6217023860079
 31
0.0
 11
774.6182154481385
 21
-202.735887896682
 31
0.0
  0
SPLINE
  5
5C0
330
50
100
AcDbEntity
  8
0
  6
Continuous
 62
     3
100
AcDbSpline
210
0.0
220
0.0
230
1.0
 70
     8
 71
     3
 72
    11
 73
     7
 74
     5
 42
0.0000000001
 43
0.0000000001
 44
0.00000001
 40
0.0
 40
0.0
 40
0.0
 40
0.0
 40
1.939322108389495
 40
3.881062094644728
 40
5.824345003710469
 40
7.767394362995516
 40
7.767394362995516
 40
7.767394362995516
 40
7.767394362995516
 10
769.1916235258254
 20
-207.2923493744681
 30
0.0
 10
769.8425968543768
 20
-207.2153636582081
 30
0.0
 10
771.1453551218846
 20
-207.0612962426339
 30
0.0
 10
772.7874415921056
 20
-205.9079460003766
 30
0.0
 10
773.9396889905509
 20
-204.2637955605559
 30
0.0
 10
774.0936646896731
 20
-202.9592834363334
 30
0.0
 10
774.1706479126369
 20
-202.3070665716581
 30
0.0
 11
769.1916235258254
 21
-207.2923493744681
 31
0.0
 11
771.0924706581195
 21
-206.9079662066035
 31
0.0
 11
772.7052641199434
 21
-205.8266469088377
 31
0.0
 11
773.7861224023436
 21
-204.2116875167681
 31
0.0
 11
774.1706479126369
 21
-202.3070665716581
 31
0.0
  0
SPLINE
  5
5C1
330
50
100
AcDbEntity
  8
0
  6
Continuous
 62
     3
100
AcDbSpline
210
0.0
220
0.0
230
1.0
 70
     8
 71
     3
 72
    15
 73
    11
 74
     9
 42
0.0000000001
 43
0.0000000001
 44
0.00000001
 40
0.0
 40
0.0
 40
0.0
 40
0.0
 40
0.9155154029118554
 40
1.885553058666518
 40
2.895756483296001
 40
3.92693078771566
 40
4.957680731592233
 40
5.966717154790739
 40
6.93510801356983
 40
7.84882020042754
 40
7.84882020042754
 40
7.84882020042754
 40
7.84882020042754
 10
811.3421609379002
 20
-144.2009734882547
 30
0.0
 10
811.3257569835694
 20
-143.8954201964706
 30
0.0
 10
811.2919721601087
 20
-143.2661168094641
 30
0.0
 10
811.0147366522356
 20
-142.3321529301736
 30
0.0
 10
810.5522786092868
 20
-141.435023473416
 30
0.0
 10
809.903231338927
 20
-140.6330635695871
 30
0.0
 10
809.1028943264944
 20
-139.9826102486045
 30
0.0
 10
808.2074945634656
 20
-139.5191193215934
 30
0.0
 10
807.2752736836164
 20
-139.2412399802293
 30
0.0
 10
806.6471154563577
 20
-139.2073774663945
 30
0.0
 10
806.3421609381385
 20
-139.1909380946819
 30
0.0
 11
811.3421609379002
 21
-144.2009734882547
 31
0.0
 11
811.2583560658761
 21
-143.289301838814
 31
0.0
 11
810.9911024434337
 21
-142.3568059648964
 31
0.0
 11
810.5266534539337
 21
-141.4597005668045
 31
0.0
 11
809.8776948440236
 21
-140.6583434873955
 31
0.0
 11
809.0779423992708
 21
-140.0080808682073
 31
0.0
 11
808.1826344858969
 21
-139.5427011913936
 31
0.0
 11
807.2520063563754
 21
-139.2749099669102
 31
0.0
 11
806.3421609381385
 21
-139.1909380946819
 31
0.0
  0
SPLINE
  5
5C2
330
50
100
AcDbEntity
  8
0
  6
Continuous
 62
     3
100
AcDbSpline
210
0.0
220
0.0
230
1.0
 70
     8
 71
     3
 72
    15
 73
    11
 74
     9
 42
0.0000000001
 43
0.0000000001
 44
0.00000001
 40
0.0
 40
0.0
 40
0.0
 40
0.0
 40
0.8921198960870839
 40
1.833757825933985
 40
2.800890509927089
 40
3.765071287761953
 40
4.699047124595539
 40
5.582062343209047
 40
6.402241646953927
 40
7.157215618008884
 40
7.157215618008884
 40
7.157215618008884
 40
7.157215618008884
 10
774.6182154481385
 20
-146.5445770126821
 30
0.0
 10
774.5919058910674
 20
-146.247854856715
 30
0.0
 10
774.5378264378595
 20
-145.6379406758754
 30
0.0
 10
774.2812954917016
 20
-144.7344400877572
 30
0.0
 10
773.8830468035033
 20
-143.8596821873855
 30
0.0
 10
773.3436593938474
 20
-143.0653613679857
 30
0.0
 10
772.6885207396201
 20
-142.4011344691978
 30
0.0
 10
771.9589140747346
 20
-141.9031964544617
 30
0.0
 10
771.1990360292659
 20
-141.573331392984
 30
0.0
 10
770.6779887842029
 20
-141.4954577921814
 30
0.0
 10
770.4282498451385
 20
-141.458132826682
 30
0.0
 11
774.6182154481385
 21
-146.5445770126821
 31
0.0
 11
774.5123353254164
 21
-145.6587625238602
 31
0.0
 11
774.2617832066699
 21
-144.7510700502118
 31
0.0
 11
773.8586021167432
 21
-143.8719849364866
 31
0.0
 11
773.3148011298322
 21
-143.0757908276282
 31
0.0
 11
772.656784549388
 21
-142.4129748323101
 31
0.0
 11
771.926669216934
 21
-141.9163386700961
 31
0.0
 11
771.1696259441915
 21
-141.6007763569364
 31
0.0
 11
770.4282498451385
 21
-141.458132826682
 31
0.0
  0
SPLINE
  5
5C3
330
50
100
AcDbEntity
  8
0
  6
Continuous
 62
     3
100
AcDbSpline
210
0.0
220
0.0
230
1.0
 70
     8
 71
     3
 72
     9
 73
     5
 74
     3
 42
0.0000000001
 43
0.0000000001
 44
0.00000001
 40
0.0
 40
0.0
 40
0.0
 40
0.0
 40
3.430967506259447
 40
7.930364134636999
 40
7.930364134636999
 40
7.930364134636999
 40
7.930364134636999
 10
713.4615512776959
 20
-205.0626041262084
 30
0.0
 10
713.5475728934258
 20
-203.9218534798997
 30
0.0
 10
713.7464039039039
 20
-201.2851138443459
 30
0.0
 10
713.7586789072075
 20
-198.6406205719796
 30
0.0
 10
713.7656432921385
 20
-197.140232454682
 30
0.0
 11
713.4615512776959
 21
-205.0626041262084
 31
0.0
 11
713.6846975757961
 21
-201.6389009032856
 31
0.0
 11
713.7656432921385
 21
-197.140232454682
 31
0.0
  0
SPLINE
  5
5C4
330
50
100
AcDbEntity
  8
0
  6
Continuous
 62
     3
100
AcDbSpline
210
0.0
220
0.0
230
1.0
 70
     8
 71
     3
 72
     9
 73
     5
 74
     3
 42
0.0000000001
 43
0.0000000001
 44
0.00000001
 40
0.0
 40
0.0
 40
0.0
 40
0.0
 40
3.50087939009777
 40
8.377285749951161
 40
8.377285749951161
 40
8.377285749951161
 40
8.377285749951161
 10
713.40850043404
 20
-188.773632189682
 30
0.0
 10
713.5088299831625
 20
-189.9367161044545
 30
0.0
 10
713.7489094627754
 20
-192.719870055082
 30
0.0
 10
713.7594864453329
 20
-195.5138567142708
 30
0.0
 10
713.7656432921385
 20
-197.140232454682
 30
0.0
 11
713.40850043404
 21
-188.773632189682
 31
0.0
 11
713.6694084038934
 21
-192.2647757752823
 31
0.0
 11
713.7656432921385
 21
-197.140232454682
 31
0.0
  0
SPLINE
  5
5C5
330
50
100
AcDbEntity
  8
0
  6
Continuous
 62
     3
100
AcDbSpline
210
0.0
220
0.0
230
1.0
 70
     8
 71
     3
 72
     9
 73
     5
 74
     3
 42
0.0000000001
 43
0.0000000001
 44
0.00000001
 40
0.0
 40
0.0
 40
0.0
 40
0.0
 40
0.1974345858052146
 40
0.3793403395462426
 40
0.3793403395462426
 40
0.3793403395462426
 40
0.3793403395462426
 10
713.4615512776959
 20
-205.0626041262084
 30
0.0
 10
713.4535282235183
 20
-205.1279273907676
 30
0.0
 10
713.438113152833
 20
-205.2534360459868
 30
0.0
 10
713.4256189326012
 20
-205.379268567833
 30
0.0
 10
713.4196275567529
 20
-205.4396092628378
 30
0.0
 11
713.4615512776959
 21
-205.0626041262084
 31
0.0
 11
713.4382733360268
 21
-205.2586616511946
 31
0.0
 11
713.4196275567529
 21
-205.4396092628378
 31
0.0
  0
SPLINE
  5
5C6
330
50
100
AcDbEntity
  8
0
  6
Continuous
 62
     3
100
AcDbSpline
210
0.0
220
0.0
230
1.0
 70
     8
 71
     3
 72
    13
 73
     9
 74
     7
 42
0.0000000001
 43
0.0000000001
 44
0.00000001
 40
0.0
 40
0.0
 40
0.0
 40
0.0
 40
0.1215634364175405
 40
0.2849135560839105
 40
0.5197135900177613
 40
0.8127382264286596
 40
0.9479815850455737
 40
1.086042785086554
 40
1.086042785086554
 40
1.086042785086554
 40
1.086042785086554
 10
913.163865470257
 20
-309.7356070182146
 30
0.0
 10
913.2048846998782
 20
-309.7232205690154
 30
0.0
 10
913.3010232668981
 20
-309.6941899049227
 30
0.0
 10
913.3509898800623
 20
-309.5067951542347
 30
0.0
 10
913.3696366287797
 20
-309.2848567401304
 30
0.0
 10
913.3720334908463
 20
-309.06121520271
 30
0.0
 10
913.3727555767739
 20
-308.8727789512221
 30
0.0
 10
913.3727299000075
 20
-308.7816442035722
 30
0.0
 10
913.372716929257
 20
-308.7356070182146
 30
0.0
 11
913.163865470257
 21
-309.7356070182146
 31
0.0
 11
913.2744082226282
 21
-309.6850306504937
 31
0.0
 11
913.3394852438723
 21
-309.535203273486
 31
0.0
 11
913.3656255146611
 21
-309.3018628736868
 31
0.0
 11
913.3721347376718
 21
-309.0089105438454
 31
0.0
 11
913.3726603658089
 21
-308.8736682066686
 31
0.0
 11
913.372716929257
 21
-308.7356070182146
 31
0.0
  0
SPLINE
  5
5C7
330
50
100
AcDbEntity
  8
0
  6
Continuous
 62
     3
100
AcDbSpline
210
0.0
220
0.0
230
1.0
 70
     8
 71
     3
 72
    13
 73
     9
 74
     7
 42
0.0000000001
 43
0.0000000001
 44
0.00000001
 40
0.0
 40
0.0
 40
0.0
 40
0.0
 40
0.330310662014628
 40
0.6239395169194387
 40
0.8446310280977615
 40
0.9924297327935772
 40
1.040123808570502
 40
1.089817894492428
 40
1.089817894492428
 40
1.089817894492428
 40
1.089817894492428
 10
860.373273011257
 20
-308.7356070182146
 30
0.0
 10
860.3729873150633
 20
-308.8456043430659
 30
0.0
 10
860.3724476499369
 20
-309.0533835207395
 30
0.0
 10
860.3787549874771
 20
-309.336192249741
 30
0.0
 10
860.4018774333504
 20
-309.5529954605853
 30
0.0
 10
860.4587827920425
 20
-309.6910698445043
 30
0.0
 10
860.5327593722798
 20
-309.7321529674334
 30
0.0
 10
860.5654456836587
 20
-309.7344400120048
 30
0.0
 10
860.582124470257
 20
-309.7356070182146
 30
0.0
 11
860.373273011257
 21
-308.7356070182146
 31
0.0
 11
860.373872984148
 21
-309.0659171353365
 31
0.0
 11
860.3839019465233
 21
-309.3593746694813
 31
0.0
 11
860.4178795031157
 21
-309.5774349105942
 31
0.0
 11
860.490905598921
 21
-309.7059325620949
 31
0.0
 11
860.5329480810555
 21
-309.7284526544613
 31
0.0
 11
860.582124470257
 21
-309.7356070182146
 31
0.0
  0
SPLINE
  5
5C8
330
50
100
AcDbEntity
  8
0
  6
Continuous
 62
     3
100
AcDbSpline
210
0.0
220
0.0
230
1.0
 70
     8
 71
     3
 72
     9
 73
     5
 74
     3
 42
0.0000000001
 43
0.0000000001
 44
0.00000001
 40
0.0
 40
0.0
 40
0.0
 40
0.0
 40
0.3698397816448452
 40
0.747314397664594
 40
0.747314397664594
 40
0.747314397664594
 40
0.747314397664594
 10
713.4614648189893
 20
-308.0641498104642
 30
0.0
 10
713.4533229124561
 20
-308.1871640001567
 30
0.0
 10
713.4368710209109
 20
-308.435731838547
 30
0.0
 10
713.4254143936892
 20
-308.6845801175308
 30
0.0
 10
713.419627557553
 20
-308.8102754190666
 30
0.0
 11
713.4614648189893
 21
-308.0641498104642
 31
0.0
 11
713.4382625291004
 21
-308.4332610644663
 31
0.0
 11
713.419627557553
 21
-308.8102754190666
 31
0.0
  0
SPLINE
  5
5C9
330
50
100
AcDbEntity
  8
0
  6
Continuous
 62
     3
100
AcDbSpline
210
0.0
220
0.0
230
1.0
 70
     8
 71
     3
 72
     9
 73
     5
 74
     3
 42
0.0000000001
 43
0.0000000001
 44
0.00000001
 40
0.0
 40
0.0
 40
0.0
 40
0.0
 40
0.3698397816447956
 40
0.7473143976645276
 40
0.7473143976645276
 40
0.7473143976645276
 40
0.7473143976645276
 10
1055.753691089822
 20
-307.9179457617456
 30
0.0
 10
1055.761832996355
 20
-308.0409599514381
 30
0.0
 10
1055.778284887901
 20
-308.2895277898285
 30
0.0
 10
1055.789741515122
 20
-308.5383760688121
 30
0.0
 10
1055.795528351258
 20
-308.664071370348
 30
0.0
 11
1055.753691089822
 21
-307.9179457617456
 31
0.0
 11
1055.776893379711
 21
-308.2870570157477
 31
0.0
 11
1055.795528351258
 21
-308.664071370348
 31
0.0
  0
ARC
  5
5CA
330
50
100
AcDbEntity
  8
1
  6
Continuous
 62
     3
100
AcDbCircle
 10
784.5650486472019
 20
-201.6213806410295
 30
0.0
 40
1.0
100
AcDbArc
 50
180.0
 51
-90.0
  0
ARC
  5
5CB
330
50
100
AcDbEntity
  8
1
  6
Continuous
 62
     3
100
AcDbCircle
 10
609.1872896749769
 20
-258.7356070182146
 30
0.0
 40
4.999999999999972
100
AcDbArc
 50
90.0
 51
176.9332829850908
  0
ARC
  5
5CC
330
50
100
AcDbEntity
  8
1
  6
Continuous
 62
     3
100
AcDbCircle
 10
664.7081514079491
 20
-258.7356070182146
 30
0.0
 40
4.999999999999803
100
AcDbArc
 50
3.06683681132631
 51
90.0
  0
ARC
  5
5CD
330
50
100
AcDbEntity
  8
1
  6
Continuous
 62
     3
100
AcDbCircle
 10
814.8070842043494
 20
-308.73560701819
 30
0.0
 40
0.9999999999999413
100
AcDbArc
 50
-177.954591511143
 51
-89.99999999950495
  0
ARC
  5
5CE
330
50
100
AcDbEntity
  8
1
  6
Continuous
 62
     3
100
AcDbCircle
 10
720.3421609381978
 20
-309.2356070181857
 30
0.0
 40
0.5
100
AcDbArc
 50
180.0
 51
-90.0
  0
ARC
  5
5CF
330
50
100
AcDbEntity
  8
1
  6
Continuous
 62
     3
100
AcDbCircle
 10
807.0298124932033
 20
-266.7356070181854
 30
0.0
 40
4.999999999999979
100
AcDbArc
 50
2.41584238145298
 51
90.0
  0
ARC
  5
5D0
330
50
100
AcDbEntity
  8
1
  6
Continuous
 62
     3
100
AcDbCircle
 10
721.9977569556681
 20
-258.7356070181854
 30
0.0
 40
5.000000000000028
100
AcDbArc
 50
90.0
 51
175.9143832204277
  0
ARC
  5
5D1
330
50
100
AcDbEntity
  8
1
  6
Continuous
 62
     3
100
AcDbCircle
 10
1047.217398953143
 20
-258.5894029694669
 30
0.0
 40
4.999999999999889
100
AcDbArc
 50
4.08561677957233
 51
90.0
  0
ARC
  5
5D2
330
50
100
AcDbEntity
  8
1
  6
Continuous
 62
     3
100
AcDbCircle
 10
962.1853434156083
 20
-266.5894029694669
 30
0.0
 40
5.0
100
AcDbArc
 50
90.0
 51
177.5841576185457
  0
ARC
  5
5D3
330
50
100
AcDbEntity
  8
1
  6
Continuous
 62
     3
100
AcDbCircle
 10
1048.872994970614
 20
-309.0894029694671
 30
0.0
 40
0.5
100
AcDbArc
 50
-90.0
 51
0.0
  0
ARC
  5
5D4
330
50
100
AcDbEntity
  8
1
  6
Continuous
 62
     3
100
AcDbCircle
 10
954.4080717044622
 20
-308.5894029694715
 30
0.0
 40
1.0
100
AcDbArc
 50
-90.00000000049505
 51
-2.04540848885049
  0
MTEXT
  5
5D6
330
50
100
AcDbEntity
  8
1
 62
     3
100
AcDbMText
 10
808.8421609381385
 20
-184.6402324546863
 30
0.0
 40
3.5
 41
0.0
 71
     9
 72
     1
  1
O
  7
CONVERTER_3
 73
     1
 44
0.84033613445378
  0
ENDBLK
  5
59
330
50
100
AcDbEntity
  8
0
100
AcDbBlockEnd
  0
ENDSEC
  0
SECTION
  2
ENTITIES
  0
INSERT
  5
5A
330
1F
100
AcDbEntity
  8
1
100
AcDbBlockReference
  2
1
 10
612.9477732995447
 20
-408.4437277987026
 30
0.0
  0
INSERT
  5
5B
330
1F
100
AcDbEntity
  8
1
100
AcDbBlockReference
  2
7
 10
612.4477732995447
 20
-335.6356070182147
 30
0.0
  0
INSERT
  5
5C
330
1F
100
AcDbEntity
  8
1
100
AcDbBlockReference
  2
3
 10
613.9477732995449
 20
-347.3739443588877
 30
0.0
  0
INSERT
  5
5D
330
1F
100
AcDbEntity
  8
1
100
AcDbBlockReference
  2
2
 10
599.9477732995447
 20
-337.6696805778882
 30
0.0
  0
ENDSEC
  0
SECTION
  2
OBJECTS
  0
DICTIONARY
  5
C
330
0
100
AcDbDictionary
281
     1
  3
ACAD_GROUP
350
D
  3
ACAD_LAYOUT
350
1A
  3
ACAD_MLINESTYLE
350
17
  3
ACAD_PLOTSETTINGS
350
19
  3
ACAD_PLOTSTYLENAME
350
E
  0
DICTIONARY
  5
D
102
{ACAD_REACTORS
330
C
102
}
330
C
100
AcDbDictionary
281
     1
  0
DICTIONARY
  5
1A
102
{ACAD_REACTORS
330
C
102
}
330
C
100
AcDbDictionary
281
     1
  3
Layout1
350
1E
  3
Layout2
350
26
  3
Model
350
22
  0
DICTIONARY
  5
17
102
{ACAD_REACTORS
330
C
102
}
330
C
100
AcDbDictionary
281
     1
  3
Standard
350
18
  0
DICTIONARY
  5
19
102
{ACAD_REACTORS
330
C
102
}
330
C
100
AcDbDictionary
281
     1
  0
ACDBDICTIONARYWDFLT
  5
E
102
{ACAD_REACTORS
330
C
102
}
330
C
100
AcDbDictionary
281
     1
  3
Normal
350
F
100
AcDbDictionaryWithDefault
340
F
  0
LAYOUT
  5
1E
102
{ACAD_REACTORS
330
1A
102
}
330
1A
100
AcDbPlotSettings
  1

  2

  4

  6

 40
0.0
 41
0.0
 42
0.0
 43
0.0
 44
0.0
 45
0.0
 46
0.0
 47
0.0
 48
0.0
 49
0.0
140
0.0
141
0.0
142
1.0
143
1.0
 70
   688
 72
     0
 73
     0
 74
     5
  7

 75
    16
147
1.0
148
0.0
149
0.0
100
AcDbLayout
  1
Layout1
 70
     1
 71
     1
 10
0.0
 20
0.0
 11
0.0
 21
0.0
 12
0.0
 22
0.0
 32
0.0
 14
0.0
 24
0.0
 34
0.0
 15
0.0
 25
0.0
 35
0.0
146
0.0
 13
0.0
 23
0.0
 33
0.0
 16
1.0
 26
0.0
 36
0.0
 17
0.0
 27
1.0
 37
0.0
 76
     0
330
1B
  0
LAYOUT
  5
26
102
{ACAD_REACTORS
330
1A
102
}
330
1A
100
AcDbPlotSettings
  1

  2

  4

  6

 40
0.0
 41
0.0
 42
0.0
 43
0.0
 44
0.0
 45
0.0
 46
0.0
 47
0.0
 48
0.0
 49
0.0
140
0.0
141
0.0
142
1.0
143
1.0
 70
   688
 72
     0
 73
     0
 74
     5
  7

 75
    16
147
1.0
148
0.0
149
0.0
100
AcDbLayout
  1
Layout2
 70
     1
 71
     2
 10
0.0
 20
0.0
 11
0.0
 21
0.0
 12
0.0
 22
0.0
 32
0.0
 14
0.0
 24
0.0
 34
0.0
 15
0.0
 25
0.0
 35
0.0
146
0.0
 13
0.0
 23
0.0
 33
0.0
 16
1.0
 26
0.0
 36
0.0
 17
0.0
 27
1.0
 37
0.0
 76
     0
330
23
  0
LAYOUT
  5
22
102
{ACAD_REACTORS
330
1A
102
}
330
1A
100
AcDbPlotSettings
  1

  2

  4

  6

 40
0.0
 41
0.0
 42
0.0
 43
0.0
 44
0.0
 45
0.0
 46
0.0
 47
0.0
 48
0.0
 49
0.0
140
0.0
141
0.0
142
1.0
143
1.0
 70
  1712
 72
     0
 73
     0
 74
     0
  7

 75
     0
147
1.0
148
0.0
149
0.0
100
AcDbLayout
  1
Model
 70
     1
 71
     0
 10
0.0
 20
0.0
 11
0.0
 21
0.0
 12
0.0
 22
0.0
 32
0.0
 14
599.9477732995447
 24
-408.4437277987026
 34
0.0
 15
1071.188143717352
 25
-134.282001261038
 35
0.0
146
0.0
 13
0.0
 23
0.0
 33
0.0
 16
1.0
 26
0.0
 36
0.0
 17
0.0
 27
1.0
 37
0.0
 76
     0
330
1F
  0
MLINESTYLE
  5
18
102
{ACAD_REACTORS
330
17
102
}
330
17
100
AcDbMlineStyle
  2
Standard
 70
     0
  3

 62
   256
 51
90.0
 52
90.0
 71
     2
 49
0.5
 62
   256
  6
BYLAYER
 49
-0.5
 62
   256
  6
BYLAYER
  0
ACDBPLACEHOLDER
  5
F
102
{ACAD_REACTORS
330
E
102
}
330
E
  0
ENDSEC
  0
EOF
