  0
SECTION
  2
HEADER
  9
$ACADVER
  1
AC1009
  9
$INSBASE
 10
0
 20
0
  9
$EXTMIN
 10
-177
 20
-61
  9
$EXTMAX
 10
86.50024243294583
 20
107.5596583191922
  9
$LIMMIN
 10
-177
 20
-61
  9
$LIMMAX
 10
86.50024243294583
 20
107.5596583191922
  9
$VIEWCTR
 10
10
 20
10
  9
$VIEWSIZE
 40
10
  9
$SNAPMODE
 70
0
  9
$SNAPUNIT
 10
1
 20
1
  9
$SNAPBASE
 10
0
 20
0
  9
$SNAPANG
 50
0
  9
$SNAPSTYLE
 70
0
  9
$SNAPISOPAIR
 70
0
  9
$GRIDMODE
 70
0
  9
$GRIDUNIT
 10
0
 20
0
  9
$ORTHOMODE
 70
0
  9
$REGENMODE
 70
1
  9
$FILLMODE
 70
1
  9
$QTEXTMODE
 70
0
  9
$DRAGMODE
 70
2
  9
$LTSCALE
 40
1
  9
$OSMODE
 70
0
  9
$ATTMODE
 70
1
  9
$TEXTSIZE
 40
3.5
  9
$TRACEWID
 40
0.5
  9
$TEXTSTYLE
  7
STANDARD
  9
$CLAYER
  8
0
  9
$CELTYPE
  6
BYLAYER
  9
$CECOLOR
 62
256
  9
$DIMSCALE
 40
1
  9
$DIMASZ
 40
0.18
  9
$DIMEXO
 40
0.0625
  9
$DIMDLI
 40
0.38
  9
$DIMRND
 40
0
  9
$DIMDLE
 40
0
  9
$DIMEXE
 40
0.18
  9
$DIMTP
 40
0
  9
$DIMTM
 40
0
  9
$DIMTXT
 40
0.18
  9
$DIMCEN
 40
0.09
  9
$DIMTSZ
 40
0
  9
$DIMTOL
 70
0
  9
$DIMLIM
 70
0
  9
$DIMTIH
 70
1
  9
$DIMTOH
 70
1
  9
$DIMSE1
 70
0
  9
$DIMSE2
 70
0
  9
$DIMTAD
 70
0
  9
$DIMZIN
 70
0
  9
$DIMBLK
  1

  9
$DIMASO
 70
1
  9
$DIMSHO
 70
1
  9
$DIMPOST
  1

  9
$DIMAPOST
  1

  9
$DIMALT
 70
0
  9
$DIMALTD
 70
2
  9
$DIMALTF
 40
25.4
  9
$DIMLFAC
 40
1
  9
$DIMTOFL
 70
0
  9
$DIMTVP
 40
0
  9
$DIMTIX
 70
0
  9
$DIMSOXD
 70
0
  9
$DIMSAH
 70
0
  9
$DIMBLK1
  1

  9
$DIMBLK2
  1

  9
$DIMSTYLE
  2
*UNNAMED
  9
$DIMCLRD
 70
0
  9
$DIMCLRE
 70
0
  9
$DIMCLRT
 70
0
  9
$DIMTFAC
 40
1
  9
$DIMGAP
 40
0.09
  9
$LUNITS
 70
2
  9
$LUPREC
 70
4
  9
$AXISMODE
 70
0
  9
$AXISUNIT
 10
0
 20
0
  9
$SKETCHINC
 40
0.1
  9
$FILLETRAD
 40
2
  9
$AUNITS
 70
0
  9
$AUPREC
 70
0
  9
$MENU
  1
ACAD
  9
$ELEVATION
 40
0
  9
$THICKNESS
 40
0
  9
$VIEWDIR
 10
0
 20
0
 30
1
  9
$LIMCHECK
 70
0
  9
$BLIPMODE
 70
1
  9
$CHAMFERA
 40
0
  9
$CHAMFERB
 40
0
  9
$FASTZOOM
 70
1
  9
$SKPOLY
 70
0
  9
$ANGBASE
 50
0
  9
$ANGDIR
 70
0
  9
$PDMODE
 70
0
  9
$PDSIZE
 40
0
  9
$PLINEWID
 40
0
  9
$COORDS
 70
2
  0
ENDSEC
  0
SECTION
  2
TABLES
  0
TABLE
  2
DIMSTYLE
 70
0
  0
ENDTAB
  0
TABLE
  2
LTYPE
 70
9
  0
LTYPE
  2
CONTINUOUS
 70
64
  3
Solid line
 72
65
 73
0
 40
0
  0
LTYPE
  2
BORDER
 70
64
  3
__ __ . __ __ .
 72
65
 73
6
 40
12.13487958572777
 49
3.467108453065077
 49
-1.733554226532538
 49
3.467108453065077
 49
-1.733554226532538
 49
0
 49
-1.733554226532538
  0
LTYPE
  2
CENTER
 70
64
  3
____ _ ____ _
 72
65
 73
4
 40
13.86843381226031
 49
8.667771132662692
 49
-1.733554226532538
 49
1.733554226532538
 49
-1.733554226532538
  0
LTYPE
  2
DASHDOT
 70
64
  3
__ . __ . __ .
 72
65
 73
4
 40
6.934216906130153
 49
3.467108453065077
 49
-1.733554226532538
 49
0
 49
-1.733554226532538
  0
LTYPE
  2
DASHED
 70
64
  3
__ __ __ __ __
 72
65
 73
2
 40
5.200662679597615
 49
3.467108453065077
 49
-1.733554226532538
  0
LTYPE
  2
DIVIDE
 70
64
  3
__ . . __ . . 
 72
65
 73
6
 40
8.667771132662692
 49
3.467108453065077
 49
-1.733554226532538
 49
0
 49
-1.733554226532538
 49
0
 49
-1.733554226532538
  0
LTYPE
  2
DOT
 70
64
  3
..............
 72
65
 73
4
 40
3.467108453065077
 49
0
 49
-1.733554226532538
 49
0
 49
-1.733554226532538
  0
LTYPE
  2
HIDDEN
 70
64
  3
_ _ _ _ _ _ _
 72
65
 73
2
 40
2.600331339798807
 49
1.733554226532538
 49
-0.8667771132662692
  0
LTYPE
  2
PHANTOM
 70
64
  3
_____ _ _ _____ _ _ 
 72
65
 73
6
 40
17.33554226532538
 49
8.667771132662692
 49
-1.733554226532538
 49
1.733554226532538
 49
-1.733554226532538
 49
1.733554226532538
 49
-1.733554226532538
  0
ENDTAB
  0
TABLE
  2
LAYER
 70
3
  0
LAYER
  2
1
 70
0
 62
7
  6
CONTINUOUS
  0
LAYER
  2
0
 70
0
 62
7
  6
CONTINUOUS
  0
ENDTAB
  0
TABLE
  2
STYLE
 70
4
  0
STYLE
  2
STANDARD
 70
0
 40
0
 41
1
 50
0
 71
0
 42
3.5
  3
txt
  4

  0
STYLE
  2
SIMPLEX
 70
0
 40
0
 41
1
 50
0
 71
0
 42
3.5
  3
simplex
  4

  0
STYLE
  2
COMPLEX
 70
0
 40
0
 41
1
 50
0
 71
0
 42
3.5
  3
complex
  4

  0
STYLE
  2
ITALIC
 70
0
 40
0
 41
1
 50
0
 71
0
 42
3.5
  3
italic
  4

  0
ENDTAB
  0
TABLE
  2
VIEW
 70
0
  0
ENDTAB
  0
ENDSEC
  0
SECTION
  2
BLOCKS
  0
ENDSEC
  0
SECTION
  2
ENTITIES
  0
LINE
  8
1
 62
2
  6
DASHDOT
 10
-19
 20
0
 30
0
 11
19
 21
0
 31
0
  0
LINE
  8
1
 62
7
 10
-131
 20
2.5
 30
0
 11
-136
 21
2.5
 31
0
  0
LINE
  8
1
 62
7
 10
-136
 20
-2.5
 30
0
 11
-131
 21
-2.5
 31
0
  0
LINE
  8
1
 62
7
 10
-136.6
 20
-1
 30
0
 11
-136
 21
-2.5
 31
0
  0
LINE
  8
1
 62
7
 10
-144
 20
-1
 30
0
 11
-136.6
 21
-1
 31
0
  0
LINE
  8
1
 62
7
 10
-136.6
 20
1
 30
0
 11
-136
 21
2.5
 31
0
  0
LINE
  8
1
 62
7
 10
-136.6
 20
1
 30
0
 11
-144
 21
1
 31
0
  0
LINE
  8
1
 62
7
 10
-132
 20
0
 30
0
 11
-131
 21
-2.5
 31
0
  0
LINE
  8
1
 62
2
  6
DASHDOT
 10
-103
 20
0
 30
0
 11
-177
 21
0
 31
0
  0
LINE
  8
1
 62
7
 10
-131
 20
2.5
 30
0
 11
-132
 21
0
 31
0
  0
LINE
  8
1
 62
7
 10
-144
 20
-2.5
 30
0
 11
-144
 21
-1
 31
0
  0
LINE
  8
1
 62
7
 10
-149
 20
0
 30
0
 11
-144
 21
-2.5
 31
0
  0
LINE
  8
1
 62
7
 10
-144
 20
2.5
 30
0
 11
-144
 21
1
 31
0
  0
LINE
  8
1
 62
7
 10
-149
 20
0
 30
0
 11
-144
 21
2.5
 31
0
  0
LINE
  8
1
 62
7
 10
-150.0029154596357
 20
-17.00000000000001
 30
0
 11
-130
 21
-17
 31
0
  0
LINE
  8
1
 62
7
 10
0
 20
-29.93782217350892
 30
0
 11
0
 21
-41.06217782649107
 31
0
  0
LINE
  8
1
 62
7
 10
10.5
 20
-41.06217782649107
 30
0
 11
10.5
 21
-29
 31
0
  0
LINE
  8
1
 62
7
 10
-10.5
 20
-41.06217782649107
 30
0
 11
-10.5
 21
-42
 31
0
  0
LINE
  8
1
 62
7
 10
-127.8756443470179
 20
-29.93782217350892
 30
0
 11
-127.8756443470179
 21
-41.03876075745093
 31
0
  0
LINE
  8
1
 62
7
 10
-133.9378221735089
 20
-29.93782217350892
 30
0
 11
-133.9378221735089
 21
-41.06217782649107
 31
0
  0
LINE
  8
1
 62
7
 10
-146.0621778264911
 20
-29.93782217350892
 30
0
 11
-146.0621778264911
 21
-41.06217782649107
 31
0
  0
LINE
  8
1
 62
7
 10
-152.1243556529821
 20
-29.93782217350892
 30
0
 11
-152.1243556529821
 21
-41.03876075745094
 31
0
  0
LINE
  8
1
 62
7
 10
-130.9235881597943
 20
-28.99999999999999
 30
0
 11
-149.0764118402058
 21
-28.99999999999999
 31
0
  0
LINE
  8
1
 62
7
 10
-152.1243556529821
 20
-29.93782217350892
 30
0
 11
-151.7328635109085
 21
-29.7117940798971
 31
0
  0
LINE
  8
1
 62
7
 10
-127.8756443470179
 20
-29.93782217350892
 30
0
 11
-128.2671364890915
 21
-29.7117940798971
 31
0
  0
LINE
  8
1
 62
7
 10
-149.0764118402058
 20
-41.99999999999999
 30
0
 11
-130.9235881597943
 21
-41.99999999999999
 31
0
  0
LINE
  8
1
 62
7
 10
-151.7328635109085
 20
-41.28820592010288
 30
0
 11
-152.1243556529821
 21
-41.06217782649107
 31
0
  0
LINE
  8
1
 62
7
 10
-128.2671364890915
 20
-41.28820592010288
 30
0
 11
-127.8756443470179
 21
-41.06217782649107
 31
0
  0
LINE
  8
1
 62
7
 10
-10.5
 20
-29
 30
0
 11
-10.5
 21
-41.06217782649107
 31
0
  0
LINE
  8
1
 62
7
 10
10.5
 20
-29
 30
0
 11
-10.5
 21
-29
 31
0
  0
LINE
  8
1
 62
7
 10
10.5
 20
-42
 30
0
 11
10.5
 21
-41.06217782649107
 31
0
  0
LINE
  8
1
 62
7
 10
-10.5
 20
-42
 30
0
 11
10.5
 21
-42
 31
0
  0
LINE
  8
1
 62
7
 10
-160.9490587731962
 20
15.64381801454473
 30
0
 11
-159.8997191988644
 21
13.82630855740937
 31
0
  0
LINE
  8
1
 62
7
 10
-156
 20
14.87123516745322
 30
0
 11
-156
 21
22.8
 31
0
  0
LINE
  8
1
 62
7
 10
-120.1002808011356
 20
13.82630855740937
 30
0
 11
-119.0509412268038
 21
15.64381801454473
 31
0
  0
LINE
  8
1
 62
7
 10
-124
 20
22.8
 30
0
 11
-123.5760166701039
 21
22.8
 31
0
  0
LINE
  8
1
 62
7
 10
-124
 20
22.8
 30
0
 11
-124
 21
14.87123516745322
 31
0
  0
LINE
  8
1
 62
7
 10
-131
 20
-16.99999999999999
 30
0
 11
-131
 21
-20.11769145362397
 31
0
  0
LINE
  8
1
 62
2
 10
-131
 20
-16.99999999999999
 30
0
 11
-132.8
 21
-20.11769145362397
 31
0
  0
LINE
  8
1
 62
2
 10
-149
 20
-16.99999999999999
 30
0
 11
-147.2
 21
-20.11769145362397
 31
0
  0
LINE
  8
1
 62
7
 10
-149
 20
-16.99999999999999
 30
0
 11
-149
 21
-20.11769145362397
 31
0
  0
LINE
  8
1
 62
7
 10
-147.2
 20
-20.11769145362397
 30
0
 11
-132.8
 21
-20.11769145362397
 31
0
  0
LINE
  8
1
 62
2
 10
-147.2
 20
-20.11769145362397
 30
0
 11
-147.2
 21
-28.99999999999999
 31
0
  0
LINE
  8
1
 62
7
 10
-132.8
 20
-20.11769145362397
 30
0
 11
-131
 21
-20.11769145362397
 31
0
  0
LINE
  8
1
 62
2
 10
-132.8
 20
-20.11769145362397
 30
0
 11
-132.8
 21
-28.99999999999999
 31
0
  0
LINE
  8
1
 62
7
 10
-131
 20
-20.11769145362397
 30
0
 11
-131
 21
-28.99999999999999
 31
0
  0
LINE
  8
1
 62
7
 10
-149
 20
-20.11769145362397
 30
0
 11
-149
 21
-28.99999999999999
 31
0
  0
LINE
  8
1
 62
7
 10
-149
 20
-20.11769145362397
 30
0
 11
-147.2
 21
-20.11769145362397
 31
0
  0
LINE
  8
1
 62
7
 10
-133
 20
-57.99999999999999
 30
0
 11
-133
 21
-41.99999999999999
 31
0
  0
LINE
  8
1
 62
7
 10
-146
 20
-58.99999999999999
 30
0
 11
-134
 21
-58.99999999999999
 31
0
  0
LINE
  8
1
 62
7
 10
-147
 20
-41.99999999999999
 30
0
 11
-147
 21
-57.99999999999999
 31
0
  0
LINE
  8
1
 62
7
 10
-120
 20
-12.10188245360768
 30
0
 11
-120
 21
12.10188245360769
 31
0
  0
LINE
  8
1
 62
7
 10
-160
 20
12.10188245360769
 30
0
 11
-160
 21
-12.10188245360769
 31
0
  0
LINE
  8
1
 62
7
 10
-161.2504295646786
 20
-8.082903768654759
 30
0
 11
-173.7495704353214
 21
-8.082903768654759
 31
0
  0
LINE
  8
1
 62
7
 10
-173.7495704353214
 20
8.082903768654763
 30
0
 11
-161.2504295646786
 21
8.082903768654763
 31
0
  0
LINE
  8
1
 62
7
 10
-175
 20
12.10188245360769
 30
0
 11
-175
 21
-12.10188245360768
 31
0
  0
LINE
  8
1
 62
7
 10
-173.7495704353214
 20
-16.16580753730952
 30
0
 11
-161.2504295646786
 21
-16.16580753730952
 31
0
  0
LINE
  8
1
 62
7
 10
-173.7495704353214
 20
16.16580753730952
 30
0
 11
-174.0509412268038
 21
15.64381801454473
 31
0
  0
LINE
  8
1
 62
7
 10
-173.7495704353214
 20
-16.16580753730952
 30
0
 11
-174.0509412268038
 21
-15.64381801454473
 31
0
  0
LINE
  8
1
 62
7
 10
-161.2504295646786
 20
16.16580753730952
 30
0
 11
-173.7495704353214
 21
16.16580753730952
 31
0
  0
LINE
  8
1
 62
7
 10
-160.9490587731962
 20
15.64381801454473
 30
0
 11
-161.2504295646786
 21
16.16580753730952
 31
0
  0
LINE
  8
1
 62
7
 10
-160.9490587731962
 20
-15.64381801454473
 30
0
 11
-161.2504295646786
 21
-16.16580753730952
 31
0
  0
LINE
  8
1
 62
7
 10
-106.2504295646786
 20
-8.082903768654759
 30
0
 11
-118.7495704353214
 21
-8.082903768654759
 31
0
  0
LINE
  8
1
 62
7
 10
-118.7495704353214
 20
8.082903768654763
 30
0
 11
-106.2504295646786
 21
8.082903768654763
 31
0
  0
LINE
  8
1
 62
7
 10
-118.7495704353214
 20
-16.16580753730952
 30
0
 11
-106.2504295646786
 21
-16.16580753730952
 31
0
  0
LINE
  8
1
 62
7
 10
-118.7495704353214
 20
16.16580753730952
 30
0
 11
-119.0509412268038
 21
15.64381801454473
 31
0
  0
LINE
  8
1
 62
7
 10
-118.7495704353214
 20
-16.16580753730952
 30
0
 11
-119.0509412268038
 21
-15.64381801454473
 31
0
  0
LINE
  8
1
 62
7
 10
-106.2504295646786
 20
16.16580753730952
 30
0
 11
-118.7495704353214
 21
16.16580753730952
 31
0
  0
LINE
  8
1
 62
7
 10
-105.9490587731962
 20
15.64381801454473
 30
0
 11
-106.2504295646786
 21
16.16580753730952
 31
0
  0
LINE
  8
1
 62
7
 10
-105
 20
-12.10188245360769
 30
0
 11
-105
 21
12.10188245360769
 31
0
  0
LINE
  8
1
 62
7
 10
-105.9490587731962
 20
-15.64381801454473
 30
0
 11
-106.2504295646786
 21
-16.16580753730952
 31
0
  0
LINE
  8
1
 62
7
 10
-150.9696551146029
 20
24.49701155206377
 30
0
 11
-150.9696551146029
 21
32.8
 31
0
  0
LINE
  8
1
 62
7
 10
-161.2308958768821
 20
24.08800833505192
 30
0
 11
-161.9393102292058
 21
24.49701155206377
 31
0
  0
LINE
  8
1
 62
7
 10
-156.4239833298961
 20
22.8
 30
0
 11
-124
 21
22.8
 31
0
  0
LINE
  8
1
 62
7
 10
-170
 20
32.8
 30
0
 11
-110
 21
32.8
 31
0
  0
LINE
  8
1
 62
7
 10
-129.0303448853971
 20
24.49701155206377
 30
0
 11
-129.0303448853971
 21
32.8
 31
0
  0
LINE
  8
1
 62
7
 10
-118.0606897707942
 20
24.49701155206377
 30
0
 11
-118.0606897707942
 21
32.8
 31
0
  0
LINE
  8
1
 62
7
 10
-118.7691041231179
 20
24.08800833505192
 30
0
 11
-118.0606897707942
 21
24.49701155206377
 31
0
  0
LINE
  8
1
 62
7
 10
-161.9393102292058
 20
32.8
 30
0
 11
-161.9393102292058
 21
24.49701155206377
 31
0
  0
LINE
  8
1
 62
7
 10
-16
 20
22.8
 30
0
 11
-16
 21
10.47213595499958
 31
0
  0
LINE
  8
1
 62
7
 10
0
 20
32.8
 30
0
 11
-19
 21
32.8
 31
0
  0
LINE
  8
1
 62
7
 10
0
 20
32.8
 30
0
 11
0
 21
24.49701155206377
 31
0
  0
LINE
  8
1
 62
7
 10
19
 20
24.49701155206377
 30
0
 11
19
 21
32.8
 31
0
  0
LINE
  8
1
 62
7
 10
-19
 20
24.49701155206377
 30
0
 11
-19
 21
22.8
 31
0
  0
LINE
  8
1
 62
7
 10
19
 20
32.8
 30
0
 11
0
 21
32.8
 31
0
  0
LINE
  8
1
 62
7
 10
19
 20
22.8
 30
0
 11
19
 21
24.49701155206377
 31
0
  0
LINE
  8
1
 62
7
 10
-19
 20
22.8
 30
0
 11
19
 21
22.8
 31
0
  0
LINE
  8
1
 62
7
 10
-19
 20
32.8
 30
0
 11
-30
 21
32.8
 31
0
  0
LINE
  8
1
 62
7
 10
-19
 20
32.8
 30
0
 11
-19
 21
24.49701155206377
 31
0
  0
LINE
  8
1
 62
7
 10
-7.199999999999998
 20
-20.11769145362398
 30
0
 11
7.200000000000002
 21
-20.11769145362398
 31
0
  0
LINE
  8
1
 62
2
 10
-7.199999999999998
 20
-20.11769145362398
 30
0
 11
-7.199999999999998
 21
-29
 31
0
  0
LINE
  8
1
 62
2
 10
-8.999999999999998
 20
-17
 30
0
 11
-7.199999999999998
 21
-20.11769145362398
 31
0
  0
LINE
  8
1
 62
7
 10
7.200000000000002
 20
-20.11769145362398
 30
0
 11
9.000000000000002
 21
-20.11769145362398
 31
0
  0
LINE
  8
1
 62
2
 10
7.200000000000002
 20
-20.11769145362398
 30
0
 11
7.200000000000002
 21
-29
 31
0
  0
LINE
  8
1
 62
2
 10
9.000000000000002
 20
-17
 30
0
 11
7.200000000000002
 21
-20.11769145362398
 31
0
  0
LINE
  8
1
 62
7
 10
9.000000000000002
 20
-20.11769145362398
 30
0
 11
9.000000000000002
 21
-29
 31
0
  0
LINE
  8
1
 62
7
 10
-8.999999999999998
 20
-20.11769145362398
 30
0
 11
-8.999999999999998
 21
-29
 31
0
  0
LINE
  8
1
 62
7
 10
-8.999999999999998
 20
-20.11769145362398
 30
0
 11
-7.199999999999998
 21
-20.11769145362398
 31
0
  0
LINE
  8
1
 62
7
 10
-8.999999999999998
 20
-17
 30
0
 11
9.000000000000002
 21
-17
 31
0
  0
LINE
  8
1
 62
7
 10
9.000000000000002
 20
-17
 30
0
 11
10
 21
-17
 31
0
  0
LINE
  8
1
 62
7
 10
9.000000000000002
 20
-17
 30
0
 11
9.000000000000002
 21
-20.11769145362398
 31
0
  0
LINE
  8
1
 62
7
 10
-8.999999999999998
 20
-17
 30
0
 11
-8.999999999999998
 21
-20.11769145362398
 31
0
  0
LINE
  8
1
 62
7
 10
10
 20
-17
 30
0
 11
9.999999999999998
 21
-14.73091986265624
 31
0
  0
LINE
  8
1
 62
7
 10
-9.999999999999998
 20
-17
 30
0
 11
-8.999999999999998
 21
-17
 31
0
  0
LINE
  8
1
 62
7
 10
-9.999999999999996
 20
-14.73091986265623
 30
0
 11
-9.999999999999998
 21
-17
 31
0
  0
LINE
  8
1
 62
7
 10
16
 20
10.47213595499959
 30
0
 11
16
 21
22.8
 31
0
  0
LINE
  8
1
 62
7
 10
17
 20
0
 30
0
 11
17
 21
6
 31
0
  0
LINE
  8
1
 62
7
 10
-17
 20
6
 30
0
 11
-17
 21
0
 31
0
  0
LINE
  8
1
 62
7
 10
14
 20
8.082903768654759
 30
0
 11
2.221313410988301e-15
 21
16.16580753730952
 31
0
  0
LINE
  8
1
 62
7
 10
14
 20
-8.082903768654759
 30
0
 11
14
 21
8.082903768654759
 31
0
  0
LINE
  8
1
 62
7
 10
1.981487890434508e-15
 20
-16.16580753730952
 30
0
 11
14
 21
-8.082903768654759
 31
0
  0
LINE
  8
1
 62
7
 10
-14
 20
-8.082903768654759
 30
0
 11
1.981487890434508e-15
 21
-16.16580753730952
 31
0
  0
LINE
  8
1
 62
7
 10
-14
 20
8.082903768654763
 30
0
 11
-14
 21
-8.082903768654759
 31
0
  0
LINE
  8
1
 62
7
 10
2.221313410988301e-15
 20
16.16580753730952
 30
0
 11
-14
 21
8.082903768654763
 31
0
  0
LINE
  8
1
 62
7
 10
7.000000000000001
 20
-58
 30
0
 11
7.000000000000001
 21
-42
 31
0
  0
LINE
  8
1
 62
7
 10
-5.999999999999999
 20
-59
 30
0
 11
6.000000000000002
 21
-59
 31
0
  0
LINE
  8
1
 62
7
 10
-6.999999999999999
 20
-42
 30
0
 11
-6.999999999999999
 21
-58
 31
0
  0
LINE
  8
1
 62
7
 10
-63
 20
63.5
 30
0
 11
-62.02680968756652
 21
63.5
 31
0
  0
LINE
  8
1
 62
7
 10
-63
 20
56.5
 30
0
 11
-62.01519762301344
 21
56.5
 31
0
  0
LINE
  8
1
 62
7
 10
-63
 20
63.5
 30
0
 11
-63
 21
56.5
 31
0
  0
LINE
  8
1
 62
7
 10
-60.4
 20
59.98052604957006
 30
0
 11
-61.13905104194563
 21
57.95
 31
0
  0
LINE
  8
1
 62
7
 10
-61.15322691854578
 20
62.05
 30
0
 11
-60.4
 21
59.98052604957006
 31
0
  0
LINE
  8
1
 62
7
 10
-20
 20
82
 30
0
 11
20
 21
82
 31
0
  0
LINE
  8
1
 62
7
 10
-22
 20
68
 30
0
 11
-22
 21
80
 31
0
  0
LINE
  8
1
 62
2
  6
DASHDOT
 10
-24
 20
68
 30
0
 11
-24
 21
52.25403330758517
 31
0
  0
LINE
  8
1
 62
7
 10
-22
 20
52
 30
0
 11
-22
 21
40
 31
0
  0
LINE
  8
1
 62
7
 10
-20
 20
38
 30
0
 11
20
 21
38
 31
0
  0
LINE
  8
1
 62
7
 10
22
 20
52
 30
0
 11
22
 21
40
 31
0
  0
LINE
  8
1
 62
2
  6
DASHDOT
 10
24
 20
52
 30
0
 11
24
 21
68
 31
0
  0
LINE
  8
1
 62
7
 10
22
 20
68
 30
0
 11
22
 21
80
 31
0
  0
LINE
  8
1
 62
7
 10
22.55043109856756
 20
58.55043109856757
 30
0
 11
25.44956890143242
 21
61.4495689014324
 31
0
  0
LINE
  8
1
 62
7
 10
22.55043109856758
 20
61.4495689014324
 30
0
 11
25.44956890143242
 21
58.55043109856756
 31
0
  0
LINE
  8
1
 62
7
 10
-25.44956890143244
 20
58.55043109856757
 30
0
 11
-22.55043109856757
 21
61.4495689014324
 31
0
  0
LINE
  8
1
 62
7
 10
-25.44956890143241
 20
61.4495689014324
 30
0
 11
-22.55043109856757
 21
58.55043109856756
 31
0
  0
LINE
  8
1
 62
7
 10
-4.333333333333331
 20
55
 30
0
 11
3.000000000000001
 21
55
 31
0
  0
LINE
  8
1
 62
7
 10
4.333333333333335
 20
45
 30
0
 11
4.333333333333335
 21
53.66666666666666
 31
0
  0
LINE
  8
1
 62
7
 10
4.333333333333335
 20
45
 30
0
 11
-2.999999999999999
 21
45
 31
0
  0
LINE
  8
1
 62
7
 10
-4.333333333333331
 20
55
 30
0
 11
-4.333333333333331
 21
46.33333333333334
 31
0
  0
LINE
  8
1
 62
7
 10
4.000000000000002
 20
45.33333333333334
 30
0
 11
-2.999999999999999
 21
45.33333333333334
 31
0
  0
LINE
  8
1
 62
7
 10
4.000000000000002
 20
45.33333333333334
 30
0
 11
4.000000000000002
 21
53.66666666666666
 31
0
  0
LINE
  8
1
 62
7
 10
-3.999999999999999
 20
54.66666666666666
 30
0
 11
3.000000000000001
 21
54.66666666666666
 31
0
  0
LINE
  8
1
 62
7
 10
-3.999999999999999
 20
54.66666666666666
 30
0
 11
-3.999999999999999
 21
46.33333333333334
 31
0
  0
LINE
  8
1
 62
7
 10
-2.833333333333332
 20
53
 30
0
 11
2.833333333333334
 21
53
 31
0
  0
LINE
  8
1
 62
7
 10
2.833333333333334
 20
53
 30
0
 11
2.833333333333334
 21
54
 31
0
  0
LINE
  8
1
 62
7
 10
2.833333333333334
 20
54
 30
0
 11
-2.833333333333332
 21
54
 31
0
  0
LINE
  8
1
 62
7
 10
-2.833333333333332
 20
54
 30
0
 11
-2.833333333333332
 21
53
 31
0
  0
LINE
  8
1
 62
7
 10
-2.833333333333332
 20
46
 30
0
 11
2.833333333333334
 21
46
 31
0
  0
LINE
  8
1
 62
7
 10
2.833333333333334
 20
46
 30
0
 11
2.833333333333334
 21
47
 31
0
  0
LINE
  8
1
 62
7
 10
2.833333333333334
 20
47
 30
0
 11
-2.833333333333332
 21
47
 31
0
  0
LINE
  8
1
 62
7
 10
-2.833333333333332
 20
47
 30
0
 11
-2.833333333333332
 21
46
 31
0
  0
LINE
  8
1
 62
7
 10
-1.083333333333331
 20
49.33333333333334
 30
0
 11
-1.083333333333331
 21
47.33333333333334
 31
0
  0
LINE
  8
1
 62
7
 10
1.083333333333335
 20
49.33333333333334
 30
0
 11
1.083333333333335
 21
47.33333333333334
 31
0
  0
LINE
  8
1
 62
7
 10
-1.083333333333331
 20
47.33333333333334
 30
0
 11
1.083333333333335
 21
47.33333333333334
 31
0
  0
LINE
  8
1
 62
7
 10
-2.833333333333332
 20
52.5
 30
0
 11
-1.083333333333331
 21
49.33333333333334
 31
0
  0
LINE
  8
1
 62
7
 10
1.083333333333335
 20
49.33333333333334
 30
0
 11
2.833333333333334
 21
52.5
 31
0
  0
LINE
  8
1
 62
7
 10
-2.833333333333332
 20
52.5
 30
0
 11
-0.8333333333333318
 21
52.5
 31
0
  0
LINE
  8
1
 62
7
 10
-0.8333333333333318
 20
52.5
 30
0
 11
1.479719125008216e-15
 21
50.99206349206349
 31
0
  0
LINE
  8
1
 62
7
 10
1.479719125008216e-15
 20
50.99206349206349
 30
0
 11
0.8333333333333347
 21
52.5
 31
0
  0
LINE
  8
1
 62
7
 10
0.8333333333333347
 20
52.5
 30
0
 11
2.833333333333334
 21
52.5
 31
0
  0
LINE
  8
1
 62
7
 10
1.479719125008216e-15
 20
88.4465819873852
 30
0
 11
1.479719125008216e-15
 21
93.0534180126148
 31
0
  0
LINE
  8
1
 62
7
 10
5.000000000000002
 20
88.4465819873852
 30
0
 11
5.000000000000002
 21
88
 31
0
  0
LINE
  8
1
 62
7
 10
-4.999999999999998
 20
88.4465819873852
 30
0
 11
-4.999999999999998
 21
88
 31
0
  0
LINE
  8
1
 62
7
 10
-4.999999999999998
 20
93.0534180126148
 30
0
 11
-4.999999999999998
 21
88.4465819873852
 31
0
  0
LINE
  8
1
 62
7
 10
5.000000000000002
 20
93.0534180126148
 30
0
 11
5.000000000000002
 21
88.4465819873852
 31
0
  0
LINE
  8
1
 62
7
 10
-145.7735026918963
 20
88.4465819873852
 30
0
 11
-145.7735026918963
 21
93.0534180126148
 31
0
  0
LINE
  8
1
 62
7
 10
-137.1132486540519
 20
93.0534180126148
 30
0
 11
-137.1132486540519
 21
88.4465819873852
 31
0
  0
LINE
  8
1
 62
7
 10
-142.8867513459481
 20
93.0534180126148
 30
0
 11
-142.8867513459481
 21
88.4465819873852
 31
0
  0
LINE
  8
1
 62
7
 10
-134.2264973081037
 20
88.4465819873852
 30
0
 11
-134.4129221376626
 21
88.33894956185577
 31
0
  0
LINE
  8
1
 62
7
 10
-145.7735026918963
 20
88.4465819873852
 30
0
 11
-145.5870778623374
 21
88.33894956185577
 31
0
  0
LINE
  8
1
 62
7
 10
-134.2264973081037
 20
93.0534180126148
 30
0
 11
-134.2264973081037
 21
88.4465819873852
 31
0
  0
LINE
  8
1
 62
7
 10
-134.4129221376626
 20
93.1610504381442
 30
0
 11
-134.2264973081037
 21
93.0534180126148
 31
0
  0
LINE
  8
1
 62
7
 10
-145.5870778623374
 20
93.1610504381442
 30
0
 11
-145.7735026918963
 21
93.0534180126148
 31
0
  0
LINE
  8
1
 62
7
 10
-133.9
 20
88
 30
0
 11
-146.1
 21
88
 31
0
  0
LINE
  8
1
 62
7
 10
5.000000000000002
 20
88
 30
0
 11
6.100000000000001
 21
88
 31
0
  0
LINE
  8
1
 62
7
 10
5.000000000000002
 20
93.5
 30
0
 11
5.000000000000002
 21
93.0534180126148
 31
0
  0
LINE
  8
1
 62
7
 10
4.500000000000002
 20
93.5
 30
0
 11
5.000000000000002
 21
93.5
 31
0
  0
LINE
  8
1
 62
7
 10
-4.999999999999998
 20
88
 30
0
 11
5.000000000000002
 21
88
 31
0
  0
LINE
  8
1
 62
7
 10
-4.999999999999998
 20
93.5
 30
0
 11
-4.999999999999998
 21
93.0534180126148
 31
0
  0
LINE
  8
1
 62
7
 10
-4.499999999999998
 20
93.5
 30
0
 11
-4.999999999999998
 21
93.5
 31
0
  0
LINE
  8
1
 62
7
 10
-69.5
 20
82
 30
0
 11
-68
 21
82
 31
0
  0
LINE
  8
1
 62
7
 10
-69.5
 20
38
 30
0
 11
-96
 21
38
 31
0
  0
LINE
  8
1
 62
7
 10
-69.5
 20
38
 30
0
 11
-69.5
 21
82
 31
0
  0
LINE
  8
1
 62
7
 10
-68
 20
38
 30
0
 11
-69.5
 21
38
 31
0
  0
LINE
  8
1
 62
7
 10
-68
 20
82
 30
0
 11
-65
 21
82
 31
0
  0
LINE
  8
1
 62
7
 10
-68
 20
82
 30
0
 11
-68
 21
38
 31
0
  0
LINE
  8
1
 62
7
 10
-144.5
 20
93.5
 30
0
 11
-135.5
 21
93.5
 31
0
  0
LINE
  8
1
 62
7
 10
-4.499999999999998
 20
93.5
 30
0
 11
4.500000000000002
 21
93.5
 31
0
  0
LINE
  8
1
 62
7
 10
6.100000000000001
 20
88
 30
0
 11
6.100000000000001
 21
86.5
 31
0
  0
LINE
  8
1
 62
7
 10
-6.099999999999998
 20
88
 30
0
 11
-4.999999999999998
 21
88
 31
0
  0
LINE
  8
1
 62
7
 10
-6.099999999999998
 20
86.5
 30
0
 11
-6.099999999999998
 21
88
 31
0
  0
LINE
  8
1
 62
7
 10
-133.9
 20
88
 30
0
 11
-133.9
 21
86.5
 31
0
  0
LINE
  8
1
 62
7
 10
-146.1
 20
86.5
 30
0
 11
-146.1
 21
88
 31
0
  0
LINE
  8
1
 62
7
 10
-99.5
 20
48
 30
0
 11
-109.25
 21
48
 31
0
  0
LINE
  8
1
 62
7
 10
-98
 20
46.5
 30
0
 11
-98
 21
73.5
 31
0
  0
LINE
  8
1
 62
7
 10
-110.75
 20
46.5
 30
0
 11
-110.75
 21
38.125
 31
0
  0
LINE
  8
1
 62
7
 10
-98
 20
73.5
 30
0
 11
-98
 21
80
 31
0
  0
LINE
  8
1
 62
7
 10
-109.25
 20
72
 30
0
 11
-99.5
 21
72
 31
0
  0
LINE
  8
1
 62
7
 10
-110.75
 20
73.5
 30
0
 11
-110.75
 21
46.5
 31
0
  0
LINE
  8
1
 62
7
 10
-98
 20
40
 30
0
 11
-98
 21
46.5
 31
0
  0
LINE
  8
1
 62
7
 10
-65
 20
38
 30
0
 11
-68
 21
38
 31
0
  0
LINE
  8
1
 62
7
 10
-63
 20
80
 30
0
 11
-63
 21
40
 31
0
  0
LINE
  8
1
 62
7
 10
-96
 20
82
 30
0
 11
-69.5
 21
82
 31
0
  0
LINE
  8
1
 62
7
 10
29.25
 20
57.09526249034444
 30
0
 11
29.25
 21
38.125
 31
0
  0
LINE
  8
1
 62
7
 10
-29.25
 20
57.09526249034444
 30
0
 11
-29.25
 21
38.125
 31
0
  0
LINE
  8
1
 62
2
  6
DASHDOT
 10
-31.25
 20
60
 30
0
 11
31.25
 21
60
 31
0
  0
LINE
  8
1
 62
7
 10
-115
 20
86
 30
0
 11
-115
 21
86.5
 31
0
  0
LINE
  8
1
 62
7
 10
-115
 20
86.5
 30
0
 11
-165
 21
86.5
 31
0
  0
LINE
  8
1
 62
7
 10
-165
 20
86.5
 30
0
 11
-165
 21
86
 31
0
  0
LINE
  8
1
 62
7
 10
-165.25
 20
86
 30
0
 11
-114.75
 21
86
 31
0
  0
LINE
  8
1
 62
7
 10
-110
 20
32.8
 30
0
 11
-110
 21
37.47499999999999
 31
0
  0
LINE
  8
1
 62
7
 10
-170
 20
32.8
 30
0
 11
-170
 21
37.47499999999999
 31
0
  0
LINE
  8
1
 62
2
  6
DASHDOT
 10
-171.25
 20
60
 30
0
 11
-112.75
 21
60
 31
0
  0
LINE
  8
1
 62
2
  6
DASHDOT
 10
-140
 20
100
 30
0
 11
-140
 21
-60.99999999999999
 31
0
  0
LINE
  8
1
 62
7
 10
-169.575
 20
37.8
 30
0
 11
-169.675
 21
37.8
 31
0
  0
LINE
  8
1
 62
7
 10
-169.25
 20
82
 30
0
 11
-169.25
 21
38.125
 31
0
  0
LINE
  8
1
 62
7
 10
-110.75
 20
82
 30
0
 11
-110.75
 21
73.5
 31
0
  0
LINE
  8
1
 62
7
 10
-110.425
 20
37.8
 30
0
 11
-110.325
 21
37.8
 31
0
  0
LINE
  8
1
 62
7
 10
-113.25
 20
38
 30
0
 11
-166.25
 21
38
 31
0
  0
LINE
  8
1
 62
7
 10
29.575
 20
37.8
 30
0
 11
29.675
 21
37.8
 31
0
  0
LINE
  8
1
 62
7
 10
-29.57499999999999
 20
37.8
 30
0
 11
-29.67500000000001
 21
37.8
 31
0
  0
LINE
  8
1
 62
7
 10
-30
 20
32.8
 30
0
 11
-30
 21
37.47499999999999
 31
0
  0
LINE
  8
1
 62
7
 10
30
 20
32.8
 30
0
 11
19
 21
32.8
 31
0
  0
LINE
  8
1
 62
7
 10
30
 20
32.8
 30
0
 11
30
 21
37.47499999999999
 31
0
  0
LINE
  8
1
 62
7
 10
-29.25
 20
82
 30
0
 11
-29.25
 21
62.90473750965556
 31
0
  0
LINE
  8
1
 62
7
 10
-25.25
 20
86
 30
0
 11
25.25
 21
86
 31
0
  0
LINE
  8
1
 62
7
 10
-25
 20
86.5
 30
0
 11
-25
 21
86
 31
0
  0
LINE
  8
1
 62
7
 10
25
 20
86.5
 30
0
 11
-25
 21
86.5
 31
0
  0
LINE
  8
1
 62
7
 10
25
 20
86
 30
0
 11
25
 21
86.5
 31
0
  0
LINE
  8
1
 62
7
 10
-26.25
 20
38
 30
0
 11
-20
 21
38
 31
0
  0
LINE
  8
1
 62
2
  6
DASHDOT
 10
-112.75
 20
60
 30
0
 11
-57.99999999999998
 21
60
 31
0
  0
LINE
  8
1
 62
7
 10
20
 20
38
 30
0
 11
26.75
 21
38
 31
0
  0
LINE
  8
1
 62
7
 10
29.25
 20
82
 30
0
 11
29.25
 21
62.90473750965556
 31
0
  0
LINE
  8
1
 62
2
  6
DASHDOT
 10
1.479719125008216e-15
 20
100
 30
0
 11
1.399577826115061e-15
 21
-61
 31
0
  0
ARC
  8
1
 62
7
 10
-128
 20
-17.10795063055895
 30
0
 40
2.000000000000007
 50
107.9202131393921
 51
176.9059386552807
  0
ARC
  8
1
 62
7
 10
-140
 20
20
 30
0
 40
37.00000000000001
 50
242.0068081290708
 51
252.0797868606077
  0
ARC
  8
1
 62
7
 10
-152
 20
-17.10795063055895
 30
0
 40
2.000000000000052
 50
3.094061344719231
 51
72.07978686060784
  0
ARC
  8
1
 62
7
 10
-167.0838711218741
 20
-12.10188245360768
 30
0
 40
7.08387112187405
 50
329.9999999999998
 51
345.1033425805553
  0
ARC
  8
1
 62
7
 10
-158.3052991109411
 20
-14.43713147837632
 30
0
 40
1.999999999999965
 50
62.00680812907295
 51
165.1033425805559
  0
ARC
  8
1
 62
7
 10
-140
 20
20
 30
0
 40
36.99999999999999
 50
287.9202131393923
 51
297.9931918709292
  0
ARC
  8
1
 62
7
 10
-112.9161288781259
 20
-12.10188245360768
 30
0
 40
7.083871121874067
 50
145.4349069054726
 51
194.8966574194446
  0
ARC
  8
1
 62
7
 10
-121.6947008890589
 20
-14.43713147837632
 30
0
 40
2.000000000000004
 50
14.89665741944452
 51
117.9931918709274
  0
ARC
  8
1
 62
7
 10
5.25
 20
-44.16386114155695
 30
0
 40
15.16386114155696
 50
69.74384199958371
 51
110.2561580004163
  0
ARC
  8
1
 62
7
 10
-5.25
 20
-44.16386114155684
 30
0
 40
15.16386114155686
 50
69.74384199958357
 51
110.2561580004164
  0
ARC
  8
1
 62
7
 10
5.25
 20
-26.83613885844304
 30
0
 40
15.16386114155696
 50
249.7438419995837
 51
290.2561580004163
  0
ARC
  8
1
 62
7
 10
-5.25
 20
-26.83613885844315
 30
0
 40
15.16386114155686
 50
249.7438419995835
 51
290.2561580004165
  0
ARC
  8
1
 62
7
 10
-140
 20
-49.06217782649118
 30
0
 40
20.0621778264912
 50
72.41204622600623
 51
107.5879537739938
  0
ARC
  8
1
 62
7
 10
-130.9235881597943
 20
-34.31290334140556
 30
0
 40
5.312903341405569
 50
90
 51
124.5650930945265
  0
ARC
  8
1
 62
7
 10
-149.0764118402058
 20
-34.31290334140554
 30
0
 40
5.312903341405548
 50
90
 51
119.9999999999992
  0
ARC
  8
1
 62
7
 10
-149.0764118402058
 20
-34.31290334140554
 30
0
 40
5.312903341405542
 50
55.43490690547265
 51
90
  0
ARC
  8
1
 62
7
 10
-130.9235881597943
 20
-34.31290334140556
 30
0
 40
5.312903341405574
 50
60.00000000000009
 51
90
  0
ARC
  8
1
 62
7
 10
-140
 20
-21.93782217350881
 30
0
 40
20.0621778264912
 50
252.4120462260062
 51
287.5879537739938
  0
ARC
  8
1
 62
7
 10
-130.9235881597943
 20
-36.68709665859443
 30
0
 40
5.312903341405516
 50
235.4349069054736
 51
270
  0
ARC
  8
1
 62
7
 10
-149.0764118402058
 20
-36.68709665859445
 30
0
 40
5.312903341405509
 50
240.0000000000007
 51
270
  0
ARC
  8
1
 62
7
 10
-149.0764118402058
 20
-36.68709665859445
 30
0
 40
5.312903341405544
 50
270
 51
304.5650930945273
  0
ARC
  8
1
 62
7
 10
-130.9235881597943
 20
-36.68709665859443
 30
0
 40
5.312903341405566
 50
270
 51
299.9999999999999
  0
ARC
  8
1
 62
7
 10
-158.0898532200877
 20
14.87123516745322
 30
0
 40
2.089853220087746
 50
209.9999999999993
 51
0
  0
ARC
  8
1
 62
7
 10
-121.9101467799123
 20
14.87123516745322
 30
0
 40
2.089853220087704
 50
180
 51
330.0000000000006
  0
ARC
  8
1
 62
7
 10
-167.9161288781259
 20
12.10188245360769
 30
0
 40
7.083871121874044
 50
149.9999999999998
 51
214.5650930945274
  0
ARC
  8
1
 62
7
 10
-148.2504295646785
 20
1.77635683940025e-15
 30
0
 40
26.74957043532146
 50
162.4120462260063
 51
197.5879537739938
  0
ARC
  8
1
 62
7
 10
-167.9161288781259
 20
-12.10188245360768
 30
0
 40
7.083871121874067
 50
145.4349069054726
 51
210.0000000000002
  0
ARC
  8
1
 62
7
 10
-167.0838711218741
 20
12.10188245360769
 30
0
 40
7.083871121874071
 50
325.4349069054726
 51
30.00000000000017
  0
ARC
  8
1
 62
7
 10
-167.0838711218741
 20
-12.10188245360768
 30
0
 40
7.083871121874051
 50
345.1033425805553
 51
34.56509309452736
  0
ARC
  8
1
 62
7
 10
-186.7495704353215
 20
1.77635683940025e-15
 30
0
 40
26.74957043532146
 50
342.4120462260063
 51
17.58795377399375
  0
ARC
  8
1
 62
7
 10
-112.9161288781259
 20
12.10188245360769
 30
0
 40
7.083871121874056
 50
149.9999999999999
 51
214.5650930945274
  0
ARC
  8
1
 62
7
 10
-93.25042956467851
 20
1.77635683940025e-15
 30
0
 40
26.74957043532146
 50
162.4120462260063
 51
197.5879537739938
  0
ARC
  8
1
 62
7
 10
-112.9161288781259
 20
-12.10188245360768
 30
0
 40
7.083871121874136
 50
194.8966574194446
 51
210.0000000000001
  0
ARC
  8
1
 62
7
 10
-112.0838711218741
 20
12.10188245360769
 30
0
 40
7.083871121874071
 50
325.4349069054726
 51
30.00000000000011
  0
ARC
  8
1
 62
7
 10
-112.0838711218741
 20
-12.10188245360768
 30
0
 40
7.083871121874062
 50
329.9999999999998
 51
34.56509309452736
  0
ARC
  8
1
 62
7
 10
-131.7495704353215
 20
1.77635683940025e-15
 30
0
 40
26.74957043532146
 50
342.4120462260063
 51
17.58795377399375
  0
ARC
  8
1
 62
7
 10
-156.4239833298961
 20
32.41382509397199
 30
0
 40
9.613825093972002
 50
239.9999999999999
 51
270
  0
ARC
  8
1
 62
7
 10
-156.4239833298961
 20
32.41382509397199
 30
0
 40
9.613825093971986
 50
270
 51
304.565093094527
  0
ARC
  8
1
 62
7
 10
-123.5760166701039
 20
32.41382509397198
 30
0
 40
9.613825093971979
 50
270
 51
300.0000000000001
  0
ARC
  8
1
 62
7
 10
-123.5760166701039
 20
32.41382509397198
 30
0
 40
9.613825093971954
 50
235.4349069054729
 51
270
  0
ARC
  8
1
 62
7
 10
-140
 20
59.10298844793648
 30
0
 40
36.30298844793648
 50
252.4120462260064
 51
287.5879537739937
  0
ARC
  8
1
 62
7
 10
9.5
 20
50.23936777996024
 30
0
 40
27.43936777996024
 50
249.7438419995838
 51
290.2561580004162
  0
ARC
  8
1
 62
7
 10
-9.5
 20
50.23936777996024
 30
0
 40
27.43936777996024
 50
249.7438419995838
 51
290.2561580004162
  0
ARC
  8
1
 62
7
 10
1.325798159376036e-15
 20
0
 30
0
 40
17
 50
180
 51
230.8332892838798
  0
ARC
  8
1
 62
7
 10
10
 20
6
 30
0
 40
7
 50
0
 51
25.20876529675842
  0
ARC
  8
1
 62
7
 10
1.325798159376036e-15
 20
0
 30
0
 40
17
 50
309.1667107161202
 51
0
  0
ARC
  8
1
 62
7
 10
-10
 20
6
 30
0
 40
6.999999999999996
 50
154.7912347032416
 51
180
  0
ARC
  8
1
 62
7
 10
1.479719125008216e-15
 20
93.5
 30
0
 40
4.5
 50
0
 51
90
  0
ARC
  8
1
 62
7
 10
-69.40000000000001
 20
59.98052604957006
 30
0
 40
9.000000000000007
 50
0
 51
16.7528183473863
  0
ARC
  8
1
 62
7
 10
-69.40000000000001
 20
59.98052604957006
 30
0
 40
9.000000000000009
 50
343.5496001733873
 51
0
  0
ARC
  8
1
 62
7
 10
-24
 20
68
 30
0
 40
2
 50
270
 51
0
  0
ARC
  8
1
 62
7
 10
-24
 20
60
 30
0
 40
6
 50
90
 51
270
  0
ARC
  8
1
 62
7
 10
-24
 20
52
 30
0
 40
2
 50
0
 51
90
  0
ARC
  8
1
 62
7
 10
24
 20
52
 30
0
 40
2
 50
90
 51
180
  0
ARC
  8
1
 62
7
 10
24
 20
60
 30
0
 40
6
 50
28.95502437185983
 51
90
  0
ARC
  8
1
 62
7
 10
24
 20
68
 30
0
 40
2
 50
180
 51
270
  0
ARC
  8
1
 62
7
 10
2.500000000000001
 20
95.2208862578843
 30
0
 40
7.220886257884302
 50
249.7438419995838
 51
290.2561580004162
  0
ARC
  8
1
 62
7
 10
-2.499999999999999
 20
95.2208862578843
 30
0
 40
7.220886257884301
 50
249.7438419995838
 51
290.2561580004162
  0
ARC
  8
1
 62
7
 10
-2.499999999999999
 20
86.2791137421157
 30
0
 40
7.220886257884302
 50
69.74384199958381
 51
110.2561580004162
  0
ARC
  8
1
 62
7
 10
2.500000000000001
 20
86.2791137421157
 30
0
 40
7.220886257884302
 50
69.74384199958379
 51
110.2561580004162
  0
ARC
  8
1
 62
7
 10
-144.3221008762885
 20
90.52995397209787
 30
0
 40
2.529953972097855
 50
240.0000000000006
 51
304.5650930945283
  0
ARC
  8
1
 62
7
 10
-140
 20
97.5534180126149
 30
0
 40
9.553418012614893
 50
252.4120462260065
 51
287.5879537739935
  0
ARC
  8
1
 62
7
 10
-135.6778991237115
 20
90.52995397209789
 30
0
 40
2.529953972097912
 50
235.4349069054719
 51
299.9999999999993
  0
ARC
  8
1
 62
7
 10
-135.6778991237115
 20
90.97004602790211
 30
0
 40
2.529953972097843
 50
60.00000000000038
 51
124.5650930945282
  0
ARC
  8
1
 62
7
 10
-144.3221008762885
 20
90.97004602790213
 30
0
 40
2.529953972097901
 50
55.43490690547168
 51
119.9999999999998
  0
ARC
  8
1
 62
7
 10
-140
 20
83.94658198738514
 30
0
 40
9.553418012614852
 50
72.41204622600644
 51
107.5879537739936
  0
ARC
  8
1
 62
7
 10
-140
 20
93.5
 30
0
 40
4.5
 50
0
 51
180
  0
ARC
  8
1
 62
7
 10
1.479719125008216e-15
 20
93.5
 30
0
 40
4.5
 50
90
 51
180
  0
ARC
  8
1
 62
7
 10
-99.5
 20
46.5
 30
0
 40
1.5
 50
0
 51
90
  0
ARC
  8
1
 62
7
 10
-109.25
 20
46.5
 30
0
 40
1.5
 50
90
 51
180
  0
ARC
  8
1
 62
7
 10
-99.5
 20
73.5
 30
0
 40
1.5
 50
270
 51
0
  0
ARC
  8
1
 62
7
 10
-109.25
 20
73.5
 30
0
 40
1.5
 50
180
 51
270
  0
ARC
  8
1
 62
7
 10
24
 20
60
 30
0
 40
6
 50
270
 51
28.95502437185983
  0
CIRCLE
  8
1
 62
2
 10
1.325798159376036e-15
 20
0
 30
0
 40
10.4775
  0
CIRCLE
  8
1
 62
7
 10
1.325798159376036e-15
 20
0
 30
0
 40
9.3155
  0
CIRCLE
  8
1
 62
7
 10
1.325798159376036e-15
 20
0
 30
0
 40
14
  0
CIRCLE
  8
1
 62
7
 10
24
 20
60
 30
0
 40
3.5
  0
CIRCLE
  8
1
 62
7
 10
-24
 20
60
 30
0
 40
3.500000000000011
  0
ARC
  8
1
 62
7
 10
6.000000000000001
 20
-58
 30
0
 40
1
 50
270
 51
0
  0
ARC
  8
1
 62
7
 10
-5.999999999999999
 20
-58
 30
0
 40
1
 50
180
 51
270
  0
ARC
  8
1
 62
7
 10
-134
 20
-57.99999999999999
 30
0
 40
1
 50
270
 51
0
  0
ARC
  8
1
 62
7
 10
-146
 20
-57.99999999999999
 30
0
 40
1
 50
180
 51
270
  0
ARC
  8
1
 62
7
 10
-62.01519762301344
 20
57.8
 30
0
 40
1.299999999999997
 50
270
 51
343.5496001733876
  0
ARC
  8
1
 62
7
 10
-62.02680968756652
 20
62.2
 30
0
 40
1.300000000000003
 50
16.75281834738631
 51
90
  0
ARC
  8
1
 62
7
 10
-20
 20
40
 30
0
 40
2
 50
180
 51
270
  0
ARC
  8
1
 62
7
 10
-20
 20
80
 30
0
 40
2
 50
90
 51
180
  0
ARC
  8
1
 62
7
 10
20
 20
80
 30
0
 40
2
 50
0
 51
90
  0
ARC
  8
1
 62
7
 10
20
 20
40
 30
0
 40
2
 50
270
 51
0
  0
ARC
  8
1
 62
7
 10
-2.999999999999999
 20
46.33333333333334
 30
0
 40
1.333333333333332
 50
180
 51
270
  0
ARC
  8
1
 62
7
 10
3.000000000000001
 20
53.66666666666666
 30
0
 40
1.333333333333334
 50
0
 51
90
  0
ARC
  8
1
 62
7
 10
-2.999999999999999
 20
46.33333333333334
 30
0
 40
1
 50
180
 51
270
  0
ARC
  8
1
 62
7
 10
3.000000000000001
 20
53.66666666666666
 30
0
 40
1.000000000000001
 50
0
 51
90
  0
ARC
  8
1
 62
7
 10
-65
 20
40
 30
0
 40
2
 50
270
 51
0
  0
ARC
  8
1
 62
7
 10
-96
 20
40
 30
0
 40
2
 50
180
 51
270
  0
ARC
  8
1
 62
7
 10
-96
 20
80
 30
0
 40
2
 50
90
 51
180
  0
ARC
  8
1
 62
7
 10
-65
 20
80
 30
0
 40
2
 50
0
 51
90
  0
ARC
  8
1
 62
7
 10
-165.25
 20
82
 30
0
 40
4
 50
90
 51
180
  0
ARC
  8
1
 62
7
 10
-114.75
 20
82
 30
0
 40
4
 50
0
 51
90
  0
ARC
  8
1
 62
7
 10
-169.575
 20
38.125
 30
0
 40
0.3250000000000028
 50
270
 51
0
  0
ARC
  8
1
 62
7
 10
-169.675
 20
37.47499999999999
 30
0
 40
0.3250000000000099
 50
90
 51
180
  0
ARC
  8
1
 62
7
 10
-110.425
 20
38.125
 30
0
 40
0.3250000000000028
 50
180
 51
270
  0
ARC
  8
1
 62
7
 10
-110.325
 20
37.47499999999999
 30
0
 40
0.3250000000000028
 50
0
 51
90
  0
ARC
  8
1
 62
7
 10
29.675
 20
37.47499999999999
 30
0
 40
0.3249999999999993
 50
0
 51
90
  0
ARC
  8
1
 62
7
 10
29.575
 20
38.125
 30
0
 40
0.3249999999999993
 50
180
 51
270
  0
ARC
  8
1
 62
7
 10
-29.67500000000001
 20
37.47499999999999
 30
0
 40
0.3250000000000099
 50
90
 51
180
  0
ARC
  8
1
 62
7
 10
-29.57499999999999
 20
38.125
 30
0
 40
0.3250000000000028
 50
270
 51
0
  0
ARC
  8
1
 62
7
 10
25.25
 20
82
 30
0
 40
4
 50
0
 51
90
  0
ARC
  8
1
 62
7
 10
-25.25
 20
82
 30
0
 40
4
 50
90
 51
180
  0
ARC
  8
1
 62
7
 10
-12
 20
-14.73091986265623
 30
0
 40
2.000000000000004
 50
0
 51
50.83328928387949
  0
ARC
  8
1
 62
7
 10
12
 20
-14.73091986265624
 30
0
 40
2
 50
129.1667107161201
 51
180
  0
ARC
  8
1
 62
7
 10
-19.5
 20
10.47213595499958
 30
0
 40
3.500000000000005
 50
334.7912347032417
 51
0
  0
ARC
  8
1
 62
7
 10
19.5
 20
10.47213595499959
 30
0
 40
3.5
 50
180
 51
205.2087652967584
  0
TEXT
  8
1
 62
7
 10
30.43024243294584
 20
104.4096583191922
 30
0
 40
3.149999999999999
  1
DWG No.  SV-4001
 41
0.9
  0
TEXT
  8
1
 62
7
 10
30.43024243294584
 20
97.47965831919221
 30
0
 40
3.149999999999999
  1
REV.     00
 41
0.9
  0
TEXT
  8
1
 62
7
 10
30.43024243294584
 20
90.54965831919222
 30
0
 40
3.149999999999999
  1
Yamatake Corporation
 41
0.9
  0
ENDSEC
  0
EOF
