  0
SECTION
  2
HEADER
  9
$ACADVER
  1
AC1009
  9
$INSBASE
 10
0
 20
0
  9
$EXTMIN
 10
-187
 20
-71.00000000000011
  9
$EXTMAX
 10
87.04698799507592
 20
121.2933861298431
  9
$LIMMIN
 10
-187
 20
-71.00000000000011
  9
$LIMMAX
 10
87.04698799507592
 20
121.2933861298431
  9
$VIEWCTR
 10
10
 20
10
  9
$VIEWSIZE
 40
10
  9
$SNAPMODE
 70
0
  9
$SNAPUNIT
 10
1
 20
1
  9
$SNAPBASE
 10
0
 20
0
  9
$SNAPANG
 50
0
  9
$SNAPSTYLE
 70
0
  9
$SNAPISOPAIR
 70
0
  9
$GRIDMODE
 70
0
  9
$GRIDUNIT
 10
0
 20
0
  9
$ORTHOMODE
 70
0
  9
$REGENMODE
 70
1
  9
$FILLMODE
 70
1
  9
$QTEXTMODE
 70
0
  9
$DRAGMODE
 70
2
  9
$LTSCALE
 40
1
  9
$OSMODE
 70
0
  9
$ATTMODE
 70
1
  9
$TEXTSIZE
 40
3.5
  9
$TRACEWID
 40
0.5
  9
$TEXTSTYLE
  7
STANDARD
  9
$CLAYER
  8
0
  9
$CELTYPE
  6
BYLAYER
  9
$CECOLOR
 62
256
  9
$DIMSCALE
 40
1
  9
$DIMASZ
 40
0.18
  9
$DIMEXO
 40
0.0625
  9
$DIMDLI
 40
0.38
  9
$DIMRND
 40
0
  9
$DIMDLE
 40
0
  9
$DIMEXE
 40
0.18
  9
$DIMTP
 40
0
  9
$DIMTM
 40
0
  9
$DIMTXT
 40
0.18
  9
$DIMCEN
 40
0.09
  9
$DIMTSZ
 40
0
  9
$DIMTOL
 70
0
  9
$DIMLIM
 70
0
  9
$DIMTIH
 70
1
  9
$DIMTOH
 70
1
  9
$DIMSE1
 70
0
  9
$DIMSE2
 70
0
  9
$DIMTAD
 70
0
  9
$DIMZIN
 70
0
  9
$DIMBLK
  1

  9
$DIMASO
 70
1
  9
$DIMSHO
 70
1
  9
$DIMPOST
  1

  9
$DIMAPOST
  1

  9
$DIMALT
 70
0
  9
$DIMALTD
 70
2
  9
$DIMALTF
 40
25.4
  9
$DIMLFAC
 40
1
  9
$DIMTOFL
 70
0
  9
$DIMTVP
 40
0
  9
$DIMTIX
 70
0
  9
$DIMSOXD
 70
0
  9
$DIMSAH
 70
0
  9
$DIMBLK1
  1

  9
$DIMBLK2
  1

  9
$DIMSTYLE
  2
*UNNAMED
  9
$DIMCLRD
 70
0
  9
$DIMCLRE
 70
0
  9
$DIMCLRT
 70
0
  9
$DIMTFAC
 40
1
  9
$DIMGAP
 40
0.09
  9
$LUNITS
 70
2
  9
$LUPREC
 70
4
  9
$AXISMODE
 70
0
  9
$AXISUNIT
 10
0
 20
0
  9
$SKETCHINC
 40
0.1
  9
$FILLETRAD
 40
2
  9
$AUNITS
 70
0
  9
$AUPREC
 70
0
  9
$MENU
  1
ACAD
  9
$ELEVATION
 40
0
  9
$THICKNESS
 40
0
  9
$VIEWDIR
 10
0
 20
0
 30
1
  9
$LIMCHECK
 70
0
  9
$BLIPMODE
 70
1
  9
$CHAMFERA
 40
0
  9
$CHAMFERB
 40
0
  9
$FASTZOOM
 70
1
  9
$SKPOLY
 70
0
  9
$ANGBASE
 50
0
  9
$ANGDIR
 70
0
  9
$PDMODE
 70
0
  9
$PDSIZE
 40
0
  9
$PLINEWID
 40
0
  9
$COORDS
 70
2
  0
ENDSEC
  0
SECTION
  2
TABLES
  0
TABLE
  2
DIMSTYLE
 70
0
  0
ENDTAB
  0
TABLE
  2
LTYPE
 70
9
  0
LTYPE
  2
CONTINUOUS
 70
64
  3
Solid line
 72
65
 73
0
 40
0
  0
LTYPE
  2
BORDER
 70
64
  3
__ __ . __ __ .
 72
65
 73
6
 40
12.62058497345744
 49
3.605881420987841
 49
-1.802940710493921
 49
3.605881420987841
 49
-1.802940710493921
 49
0
 49
-1.802940710493921
  0
LTYPE
  2
CENTER
 70
64
  3
____ _ ____ _
 72
65
 73
4
 40
14.42352568395136
 49
9.014703552469603
 49
-1.802940710493921
 49
1.802940710493921
 49
-1.802940710493921
  0
LTYPE
  2
DASHDOT
 70
64
  3
__ . __ . __ .
 72
65
 73
4
 40
7.211762841975682
 49
3.605881420987841
 49
-1.802940710493921
 49
0
 49
-1.802940710493921
  0
LTYPE
  2
DASHED
 70
64
  3
__ __ __ __ __
 72
65
 73
2
 40
5.408822131481761
 49
3.605881420987841
 49
-1.802940710493921
  0
LTYPE
  2
DIVIDE
 70
64
  3
__ . . __ . . 
 72
65
 73
6
 40
9.014703552469603
 49
3.605881420987841
 49
-1.802940710493921
 49
0
 49
-1.802940710493921
 49
0
 49
-1.802940710493921
  0
LTYPE
  2
DOT
 70
64
  3
..............
 72
65
 73
4
 40
3.605881420987841
 49
0
 49
-1.802940710493921
 49
0
 49
-1.802940710493921
  0
LTYPE
  2
HIDDEN
 70
64
  3
_ _ _ _ _ _ _
 72
65
 73
2
 40
2.704411065740881
 49
1.802940710493921
 49
-0.9014703552469603
  0
LTYPE
  2
PHANTOM
 70
64
  3
_____ _ _ _____ _ _ 
 72
65
 73
6
 40
18.02940710493921
 49
9.014703552469603
 49
-1.802940710493921
 49
1.802940710493921
 49
-1.802940710493921
 49
1.802940710493921
 49
-1.802940710493921
  0
ENDTAB
  0
TABLE
  2
LAYER
 70
3
  0
LAYER
  2
1
 70
0
 62
7
  6
CONTINUOUS
  0
LAYER
  2
0
 70
0
 62
7
  6
CONTINUOUS
  0
ENDTAB
  0
TABLE
  2
STYLE
 70
4
  0
STYLE
  2
STANDARD
 70
0
 40
0
 41
1
 50
0
 71
0
 42
3.5
  3
txt
  4

  0
STYLE
  2
SIMPLEX
 70
0
 40
0
 41
1
 50
0
 71
0
 42
3.5
  3
simplex
  4

  0
STYLE
  2
COMPLEX
 70
0
 40
0
 41
1
 50
0
 71
0
 42
3.5
  3
complex
  4

  0
STYLE
  2
ITALIC
 70
0
 40
0
 41
1
 50
0
 71
0
 42
3.5
  3
italic
  4

  0
ENDTAB
  0
TABLE
  2
VIEW
 70
0
  0
ENDTAB
  0
ENDSEC
  0
SECTION
  2
BLOCKS
  0
ENDSEC
  0
SECTION
  2
ENTITIES
  0
LINE
  8
1
 62
7
 10
20
 20
49
 30
0
 11
26.75
 21
49
 31
0
  0
LINE
  8
1
 62
7
 10
-20
 20
49
 30
0
 11
-26.25
 21
49
 31
0
  0
LINE
  8
1
 62
2
  6
DASHDOT
 10
-112.75
 20
71
 30
0
 11
-57.99999999999998
 21
71
 31
0
  0
LINE
  8
1
 62
2
  6
DASHDOT
 10
-26
 20
0
 30
0
 11
15.1455
 21
0
 31
0
  0
LINE
  8
1
 62
2
  6
DASHDOT
 10
3.208358546106087e-31
 20
-39.93782217350889
 30
0
 11
-3.955169525227118e-16
 21
-25.40341184434349
 31
0
  0
LINE
  8
1
 62
2
  6
DASHDOT
 10
2.56509794468075e-31
 20
30.42627613092819
 30
0
 11
2.56509794468075e-31
 21
42.77286142901403
 31
0
  0
LINE
  8
1
 62
2
  6
DASHDOT
 10
2.56509794468075e-31
 20
42.77286142901403
 30
0
 11
2.56509794468075e-31
 21
99.4465819873852
 31
0
  0
LINE
  8
1
 62
7
 10
2.56509794468075e-31
 20
42.77286142901403
 30
0
 11
2.56509794468075e-31
 21
30.42627613092819
 31
0
  0
LINE
  8
1
 62
7
 10
23
 20
30.42627613092819
 30
0
 11
23
 21
28.37199898895626
 31
0
  0
LINE
  8
1
 62
7
 10
-23
 20
30.42627613092819
 30
0
 11
-23
 21
28.37199898895626
 31
0
  0
LINE
  8
1
 62
7
 10
-126.7209438086386
 20
42.77286142901403
 30
0
 11
-126.7209438086386
 21
30.42627613092819
 31
0
  0
LINE
  8
1
 62
7
 10
-166.5581123827228
 20
42.77286142901403
 30
0
 11
-166.5581123827228
 21
30.42627613092819
 31
0
  0
LINE
  8
1
 62
7
 10
-113.4418876172772
 20
42.772861429014
 30
0
 11
-114.2994418332479
 21
43.26797058644939
 31
0
  0
LINE
  8
1
 62
7
 10
-166.5581123827228
 20
42.77286142901403
 30
0
 11
-165.700558166752
 21
43.26797058644942
 31
0
  0
LINE
  8
1
 62
7
 10
-170
 20
43.8
 30
0
 11
-110
 21
43.8
 31
0
  0
LINE
  8
1
 62
7
 10
-153.2790561913614
 20
30.42627613092819
 30
0
 11
-153.2790561913614
 21
42.77286142901403
 31
0
  0
LINE
  8
1
 62
7
 10
-120.1183359690731
 20
28.37199898895628
 30
0
 11
-159.8816640309269
 21
28.37199898895625
 31
0
  0
LINE
  8
1
 62
7
 10
-113.4418876172772
 20
30.42627613092822
 30
0
 11
-113.4418876172772
 21
42.772861429014
 31
0
  0
LINE
  8
1
 62
7
 10
-114.2994418332479
 20
29.93116697349282
 30
0
 11
-113.4418876172772
 21
30.42627613092822
 31
0
  0
LINE
  8
1
 62
7
 10
-165.700558166752
 20
29.93116697349279
 30
0
 11
-166.5581123827228
 21
30.42627613092819
 31
0
  0
LINE
  8
1
 62
7
 10
-23
 20
28.37199898895626
 30
0
 11
-20
 21
28.37199898895626
 31
0
  0
LINE
  8
1
 62
7
 10
23
 20
43.8
 30
0
 11
-23
 21
43.8
 31
0
  0
LINE
  8
1
 62
7
 10
23
 20
43.8
 30
0
 11
23
 21
30.42627613092819
 31
0
  0
LINE
  8
1
 62
7
 10
-23
 20
43.8
 30
0
 11
-30
 21
43.8
 31
0
  0
LINE
  8
1
 62
7
 10
-23
 20
43.8
 30
0
 11
-23
 21
30.42627613092819
 31
0
  0
LINE
  8
1
 62
7
 10
-147
 20
-52
 30
0
 11
-147
 21
-67
 31
0
  0
LINE
  8
1
 62
7
 10
-133
 20
-52
 30
0
 11
-133
 21
-67
 31
0
  0
LINE
  8
1
 62
7
 10
-145
 20
-69
 30
0
 11
-135
 21
-69
 31
0
  0
LINE
  8
1
 62
7
 10
-9
 20
-37
 30
0
 11
-9
 21
-38.40642525574589
 31
0
  0
LINE
  8
1
 62
7
 10
7
 20
-52
 30
0
 11
7
 21
-67
 31
0
  0
LINE
  8
1
 62
7
 10
-5
 20
-69
 30
0
 11
5
 21
-69
 31
0
  0
LINE
  8
1
 62
7
 10
-7
 20
-52
 30
0
 11
-7
 21
-67
 31
0
  0
LINE
  8
1
 62
7
 10
25
 20
97
 30
0
 11
25
 21
97.5
 31
0
  0
LINE
  8
1
 62
7
 10
25
 20
97.5
 30
0
 11
-25
 21
97.5
 31
0
  0
LINE
  8
1
 62
7
 10
-25
 20
97.5
 30
0
 11
-25
 21
97
 31
0
  0
LINE
  8
1
 62
7
 10
-25.25
 20
97
 30
0
 11
25.25
 21
97
 31
0
  0
LINE
  8
1
 62
7
 10
-29.25
 20
93
 30
0
 11
-29.25
 21
73.90473750965556
 31
0
  0
LINE
  8
1
 62
7
 10
29.25
 20
93
 30
0
 11
29.25
 21
73.90473750965556
 31
0
  0
LINE
  8
1
 62
7
 10
30
 20
43.8
 30
0
 11
30
 21
48.47499999999999
 31
0
  0
LINE
  8
1
 62
7
 10
30
 20
43.8
 30
0
 11
23
 21
43.8
 31
0
  0
LINE
  8
1
 62
7
 10
-30
 20
43.8
 30
0
 11
-30
 21
48.47499999999999
 31
0
  0
LINE
  8
1
 62
7
 10
-29.57499999999999
 20
48.8
 30
0
 11
-29.67500000000001
 21
48.8
 31
0
  0
LINE
  8
1
 62
7
 10
29.575
 20
48.8
 30
0
 11
29.675
 21
48.8
 31
0
  0
LINE
  8
1
 62
7
 10
-113.25
 20
49
 30
0
 11
-166.25
 21
49
 31
0
  0
LINE
  8
1
 62
7
 10
-110.425
 20
48.8
 30
0
 11
-110.325
 21
48.8
 31
0
  0
LINE
  8
1
 62
7
 10
-110.75
 20
93
 30
0
 11
-110.75
 21
84.5
 31
0
  0
LINE
  8
1
 62
7
 10
-169.25
 20
93
 30
0
 11
-169.25
 21
49.125
 31
0
  0
LINE
  8
1
 62
7
 10
-169.575
 20
48.8
 30
0
 11
-169.675
 21
48.8
 31
0
  0
LINE
  8
1
 62
2
  6
DASHDOT
 10
-140
 20
111
 30
0
 11
-140
 21
-71.00000000000011
 31
0
  0
LINE
  8
1
 62
2
  6
DASHDOT
 10
-171.25
 20
71
 30
0
 11
-112.75
 21
71
 31
0
  0
LINE
  8
1
 62
7
 10
-170
 20
43.8
 30
0
 11
-170
 21
48.47499999999999
 31
0
  0
LINE
  8
1
 62
7
 10
-110
 20
43.8
 30
0
 11
-110
 21
48.47499999999999
 31
0
  0
LINE
  8
1
 62
7
 10
-165.25
 20
97
 30
0
 11
-114.75
 21
97
 31
0
  0
LINE
  8
1
 62
7
 10
-165
 20
97.5
 30
0
 11
-165
 21
97
 31
0
  0
LINE
  8
1
 62
7
 10
-115
 20
97.5
 30
0
 11
-165
 21
97.5
 31
0
  0
LINE
  8
1
 62
7
 10
-115
 20
97
 30
0
 11
-115
 21
97.5
 31
0
  0
LINE
  8
1
 62
2
  6
DASHDOT
 10
-31.25
 20
71
 30
0
 11
31.25
 21
71
 31
0
  0
LINE
  8
1
 62
7
 10
-29.25
 20
68.09526249034444
 30
0
 11
-29.25
 21
49.125
 31
0
  0
LINE
  8
1
 62
7
 10
29.25
 20
68.09526249034444
 30
0
 11
29.25
 21
49.125
 31
0
  0
LINE
  8
1
 62
7
 10
-96
 20
93
 30
0
 11
-69.5
 21
93
 31
0
  0
LINE
  8
1
 62
7
 10
-63
 20
91
 30
0
 11
-63
 21
51
 31
0
  0
LINE
  8
1
 62
7
 10
-65
 20
49
 30
0
 11
-68
 21
49
 31
0
  0
LINE
  8
1
 62
7
 10
-98
 20
51
 30
0
 11
-98
 21
57.5
 31
0
  0
LINE
  8
1
 62
7
 10
-110.75
 20
84.5
 30
0
 11
-110.75
 21
57.5
 31
0
  0
LINE
  8
1
 62
7
 10
-109.25
 20
83
 30
0
 11
-99.5
 21
83
 31
0
  0
LINE
  8
1
 62
7
 10
-98
 20
84.5
 30
0
 11
-98
 21
91
 31
0
  0
LINE
  8
1
 62
7
 10
-110.75
 20
57.5
 30
0
 11
-110.75
 21
49.125
 31
0
  0
LINE
  8
1
 62
7
 10
-98
 20
57.5
 30
0
 11
-98
 21
84.5
 31
0
  0
LINE
  8
1
 62
7
 10
-99.5
 20
59
 30
0
 11
-109.25
 21
59
 31
0
  0
LINE
  8
1
 62
7
 10
-146.1
 20
97.5
 30
0
 11
-146.1
 21
99
 31
0
  0
LINE
  8
1
 62
7
 10
-133.9
 20
99
 30
0
 11
-133.9
 21
97.5
 31
0
  0
LINE
  8
1
 62
7
 10
-6.1
 20
97.5
 30
0
 11
-6.1
 21
99
 31
0
  0
LINE
  8
1
 62
7
 10
-6.1
 20
99
 30
0
 11
-5
 21
99
 31
0
  0
LINE
  8
1
 62
7
 10
6.1
 20
99
 30
0
 11
6.1
 21
97.5
 31
0
  0
LINE
  8
1
 62
7
 10
-4.5
 20
104.5
 30
0
 11
4.5
 21
104.5
 31
0
  0
LINE
  8
1
 62
7
 10
-144.5
 20
104.5
 30
0
 11
-135.5
 21
104.5
 31
0
  0
LINE
  8
1
 62
7
 10
-68
 20
93
 30
0
 11
-68
 21
49
 31
0
  0
LINE
  8
1
 62
7
 10
-68
 20
93
 30
0
 11
-65
 21
93
 31
0
  0
LINE
  8
1
 62
7
 10
-68
 20
49
 30
0
 11
-69.5
 21
49
 31
0
  0
LINE
  8
1
 62
7
 10
-69.5
 20
49
 30
0
 11
-69.5
 21
93
 31
0
  0
LINE
  8
1
 62
7
 10
-69.5
 20
49
 30
0
 11
-96
 21
49
 31
0
  0
LINE
  8
1
 62
7
 10
-69.5
 20
93
 30
0
 11
-68
 21
93
 31
0
  0
LINE
  8
1
 62
2
  6
DASHDOT
 10
-187
 20
1.4210854715202e-14
 30
0
 11
-126.75
 21
1.4210854715202e-14
 31
0
  0
LINE
  8
1
 62
7
 10
-10.5
 20
-52
 30
0
 11
-10.5
 21
-51.06217782649111
 31
0
  0
LINE
  8
1
 62
7
 10
-10.5
 20
-39
 30
0
 11
-8.188000000000001
 21
-39
 31
0
  0
LINE
  8
1
 62
7
 10
10.5
 20
-39
 30
0
 11
10.5
 21
-39.93782217350889
 31
0
  0
LINE
  8
1
 62
7
 10
10.5
 20
-52
 30
0
 11
-10.5
 21
-52
 31
0
  0
LINE
  8
1
 62
7
 10
9
 20
-39
 30
0
 11
9.000000000000014
 21
-38.40642525574589
 31
0
  0
LINE
  8
1
 62
7
 10
-151.7328635109085
 20
-51.28820592010291
 30
0
 11
-152.1243556529822
 21
-51.06217782649111
 31
0
  0
LINE
  8
1
 62
7
 10
-127.8756443470178
 20
-51.06217782649111
 30
0
 11
-128.2671364890915
 21
-51.28820592010291
 31
0
  0
LINE
  8
1
 62
7
 10
-130.9235881597942
 20
-52
 30
0
 11
-149.0764118402058
 21
-52
 31
0
  0
LINE
  8
1
 62
7
 10
-128.2671364890915
 20
-39.71179407989709
 30
0
 11
-127.8756443470178
 21
-39.93782217350889
 31
0
  0
LINE
  8
1
 62
7
 10
-152.1243556529822
 20
-39.93782217350889
 30
0
 11
-151.7328635109085
 21
-39.71179407989709
 31
0
  0
LINE
  8
1
 62
7
 10
-127.8756443470178
 20
-39.93782217350889
 30
0
 11
-127.8756443470178
 21
-51.06217782649111
 31
0
  0
LINE
  8
1
 62
7
 10
-152.1243556529822
 20
-39.93782217350889
 30
0
 11
-152.1243556529822
 21
-51.06217782649111
 31
0
  0
LINE
  8
1
 62
7
 10
-149.0764118402058
 20
-39
 30
0
 11
-148.188
 21
-39
 31
0
  0
LINE
  8
1
 62
7
 10
-133.9378221735089
 20
-39.93782217350889
 30
0
 11
-133.9378221735089
 21
-51.06217782649111
 31
0
  0
LINE
  8
1
 62
7
 10
-146.0621778264911
 20
-39.93782217350889
 30
0
 11
-146.0621778264911
 21
-51.06217782649111
 31
0
  0
LINE
  8
1
 62
7
 10
-10.5
 20
-51.06217782649111
 30
0
 11
-10.5
 21
-39.93782217350889
 31
0
  0
LINE
  8
1
 62
2
  6
DASHDOT
 10
2.56509794468075e-31
 20
-51.06217782649111
 30
0
 11
2.56509794468075e-31
 21
-71
 31
0
  0
LINE
  8
1
 62
7
 10
10.5
 20
-51.06217782649111
 30
0
 11
10.5
 21
-52
 31
0
  0
LINE
  8
1
 62
7
 10
10.5
 20
-39.93782217350889
 30
0
 11
10.5
 21
-51.06217782649111
 31
0
  0
LINE
  8
1
 62
2
  6
DASHDOT
 10
3.208358546106087e-31
 20
-39.93782217350889
 30
0
 11
2.56509794468075e-31
 21
-51.06217782649111
 31
0
  0
LINE
  8
1
 62
7
 10
-10.5
 20
-39.93782217350889
 30
0
 11
-10.5
 21
-39
 31
0
  0
LINE
  8
1
 62
7
 10
3.208358546106087e-31
 20
-39.93782217350889
 30
0
 11
2.56509794468075e-31
 21
-51.06217782649111
 31
0
  0
LINE
  8
1
 62
7
 10
-149
 20
-37
 30
0
 11
-131
 21
-37
 31
0
  0
LINE
  8
1
 62
7
 10
-148.188
 20
-39
 30
0
 11
-131.812
 21
-39
 31
0
  0
LINE
  8
1
 62
2
 10
-131.812
 20
-39
 30
0
 11
-131.812
 21
-38.4064252557458
 31
0
  0
LINE
  8
1
 62
7
 10
-131.812
 20
-39
 30
0
 11
-131
 21
-39
 31
0
  0
LINE
  8
1
 62
2
 10
-149
 20
-37
 30
0
 11
-148.1879999999999
 21
-38.40642525574589
 31
0
  0
LINE
  8
1
 62
2
 10
-148.1879999999999
 20
-38.40642525574589
 30
0
 11
-148.188
 21
-39
 31
0
  0
LINE
  8
1
 62
2
 10
-131
 20
-37
 30
0
 11
-131.812
 21
-38.4064252557458
 31
0
  0
LINE
  8
1
 62
7
 10
-148.9999999999999
 20
-38.40642525574589
 30
0
 11
-131
 21
-38.40642525574589
 31
0
  0
LINE
  8
1
 62
7
 10
-148.9999999999999
 20
-38.40642525574589
 30
0
 11
-149
 21
-39
 31
0
  0
LINE
  8
1
 62
7
 10
-131
 20
-38.40642525574589
 30
0
 11
-131
 21
-39
 31
0
  0
LINE
  8
1
 62
7
 10
-9
 20
-38.40642525574589
 30
0
 11
-8.188000000000001
 21
-38.40642525574589
 31
0
  0
LINE
  8
1
 62
7
 10
-9
 20
-38.40642525574589
 30
0
 11
-9
 21
-39
 31
0
  0
LINE
  8
1
 62
2
 10
-9
 20
-37
 30
0
 11
-8.188000000000001
 21
-38.40642525574589
 31
0
  0
LINE
  8
1
 62
7
 10
-8.188000000000001
 20
-38.40642525574589
 30
0
 11
8.188000000000001
 21
-38.40642525574589
 31
0
  0
LINE
  8
1
 62
2
 10
-8.188000000000001
 20
-38.40642525574589
 30
0
 11
-8.188000000000001
 21
-39
 31
0
  0
LINE
  8
1
 62
7
 10
-8.188000000000001
 20
-39
 30
0
 11
8.188000000000001
 21
-39
 31
0
  0
LINE
  8
1
 62
2
 10
8.188000000000001
 20
-39
 30
0
 11
8.188000000000001
 21
-38.40642525574589
 31
0
  0
LINE
  8
1
 62
7
 10
8.188000000000001
 20
-39
 30
0
 11
10.5
 21
-39
 31
0
  0
LINE
  8
1
 62
7
 10
8.188000000000001
 20
-38.40642525574589
 30
0
 11
9.000000000000014
 21
-38.40642525574589
 31
0
  0
LINE
  8
1
 62
7
 10
9
 20
-37
 30
0
 11
9.000000000000014
 21
-38.40642525574589
 31
0
  0
LINE
  8
1
 62
2
 10
9
 20
-37
 30
0
 11
8.188000000000001
 21
-38.40642525574589
 31
0
  0
LINE
  8
1
 62
7
 10
-4.5
 20
104.5
 30
0
 11
-5
 21
104.5
 31
0
  0
LINE
  8
1
 62
7
 10
-5
 20
104.5
 30
0
 11
-5
 21
104.0534180126148
 31
0
  0
LINE
  8
1
 62
7
 10
-5
 20
99
 30
0
 11
5
 21
99
 31
0
  0
LINE
  8
1
 62
7
 10
4.5
 20
104.5
 30
0
 11
5
 21
104.5
 31
0
  0
LINE
  8
1
 62
7
 10
5
 20
104.5
 30
0
 11
5
 21
104.0534180126148
 31
0
  0
LINE
  8
1
 62
7
 10
5
 20
99
 30
0
 11
6.1
 21
99
 31
0
  0
LINE
  8
1
 62
7
 10
-133.9
 20
99
 30
0
 11
-146.1
 21
99
 31
0
  0
LINE
  8
1
 62
7
 10
-145.5870778623374
 20
104.1610504381442
 30
0
 11
-145.7735026918963
 21
104.0534180126148
 31
0
  0
LINE
  8
1
 62
7
 10
-134.4129221376626
 20
104.1610504381442
 30
0
 11
-134.2264973081037
 21
104.0534180126148
 31
0
  0
LINE
  8
1
 62
7
 10
-134.2264973081037
 20
104.0534180126148
 30
0
 11
-134.2264973081037
 21
99.4465819873852
 31
0
  0
LINE
  8
1
 62
7
 10
-145.7735026918963
 20
99.4465819873852
 30
0
 11
-145.5870778623374
 21
99.33894956185577
 31
0
  0
LINE
  8
1
 62
7
 10
-134.2264973081037
 20
99.4465819873852
 30
0
 11
-134.4129221376626
 21
99.33894956185577
 31
0
  0
LINE
  8
1
 62
7
 10
-142.8867513459481
 20
104.0534180126148
 30
0
 11
-142.8867513459481
 21
99.4465819873852
 31
0
  0
LINE
  8
1
 62
7
 10
-137.1132486540519
 20
104.0534180126148
 30
0
 11
-137.1132486540519
 21
99.4465819873852
 31
0
  0
LINE
  8
1
 62
7
 10
-145.7735026918963
 20
99.4465819873852
 30
0
 11
-145.7735026918963
 21
104.0534180126148
 31
0
  0
LINE
  8
1
 62
7
 10
5
 20
104.0534180126148
 30
0
 11
5
 21
99.4465819873852
 31
0
  0
LINE
  8
1
 62
7
 10
-5
 20
104.0534180126148
 30
0
 11
-5
 21
99.4465819873852
 31
0
  0
LINE
  8
1
 62
7
 10
-5
 20
99.4465819873852
 30
0
 11
-5
 21
99
 31
0
  0
LINE
  8
1
 62
7
 10
5
 20
99.4465819873852
 30
0
 11
5
 21
99
 31
0
  0
LINE
  8
1
 62
7
 10
2.56509794468075e-31
 20
104.0534180126148
 30
0
 11
2.56509794468075e-31
 21
99.4465819873852
 31
0
  0
LINE
  8
1
 62
2
  6
DASHDOT
 10
2.56509794468075e-31
 20
104.0534180126148
 30
0
 11
2.56509794468075e-31
 21
111
 31
0
  0
LINE
  8
1
 62
2
  6
DASHDOT
 10
2.56509794468075e-31
 20
99.4465819873852
 30
0
 11
2.56509794468075e-31
 21
104.0534180126148
 31
0
  0
LINE
  8
1
 62
7
 10
0.8333333333333333
 20
63.5
 30
0
 11
2.833333333333333
 21
63.5
 31
0
  0
LINE
  8
1
 62
7
 10
2.56509794468075e-31
 20
61.99206349206349
 30
0
 11
0.8333333333333333
 21
63.5
 31
0
  0
LINE
  8
1
 62
7
 10
-0.8333333333333333
 20
63.5
 30
0
 11
2.56509794468075e-31
 21
61.99206349206349
 31
0
  0
LINE
  8
1
 62
7
 10
-2.833333333333333
 20
63.5
 30
0
 11
-0.8333333333333333
 21
63.5
 31
0
  0
LINE
  8
1
 62
7
 10
1.083333333333333
 20
60.33333333333334
 30
0
 11
2.833333333333333
 21
63.5
 31
0
  0
LINE
  8
1
 62
7
 10
-2.833333333333333
 20
63.5
 30
0
 11
-1.083333333333333
 21
60.33333333333334
 31
0
  0
LINE
  8
1
 62
7
 10
-1.083333333333333
 20
58.33333333333334
 30
0
 11
1.083333333333333
 21
58.33333333333334
 31
0
  0
LINE
  8
1
 62
7
 10
1.083333333333333
 20
60.33333333333334
 30
0
 11
1.083333333333333
 21
58.33333333333334
 31
0
  0
LINE
  8
1
 62
7
 10
-1.083333333333333
 20
60.33333333333334
 30
0
 11
-1.083333333333333
 21
58.33333333333334
 31
0
  0
LINE
  8
1
 62
7
 10
-2.833333333333333
 20
58
 30
0
 11
-2.833333333333333
 21
57
 31
0
  0
LINE
  8
1
 62
7
 10
2.833333333333333
 20
58
 30
0
 11
-2.833333333333333
 21
58
 31
0
  0
LINE
  8
1
 62
7
 10
2.833333333333333
 20
57
 30
0
 11
2.833333333333333
 21
58
 31
0
  0
LINE
  8
1
 62
7
 10
-2.833333333333333
 20
57
 30
0
 11
2.833333333333333
 21
57
 31
0
  0
LINE
  8
1
 62
7
 10
-2.833333333333333
 20
65
 30
0
 11
-2.833333333333333
 21
64
 31
0
  0
LINE
  8
1
 62
7
 10
2.833333333333333
 20
65
 30
0
 11
-2.833333333333333
 21
65
 31
0
  0
LINE
  8
1
 62
7
 10
2.833333333333333
 20
64
 30
0
 11
2.833333333333333
 21
65
 31
0
  0
LINE
  8
1
 62
7
 10
-2.833333333333333
 20
64
 30
0
 11
2.833333333333333
 21
64
 31
0
  0
LINE
  8
1
 62
7
 10
-4
 20
65.66666666666666
 30
0
 11
-4
 21
57.33333333333334
 31
0
  0
LINE
  8
1
 62
7
 10
-4
 20
65.66666666666666
 30
0
 11
3
 21
65.66666666666666
 31
0
  0
LINE
  8
1
 62
7
 10
4
 20
56.33333333333334
 30
0
 11
4
 21
64.66666666666666
 31
0
  0
LINE
  8
1
 62
7
 10
4
 20
56.33333333333334
 30
0
 11
-3
 21
56.33333333333334
 31
0
  0
LINE
  8
1
 62
7
 10
-4.333333333333333
 20
66
 30
0
 11
-4.333333333333333
 21
57.33333333333334
 31
0
  0
LINE
  8
1
 62
7
 10
4.333333333333333
 20
56
 30
0
 11
-3
 21
56
 31
0
  0
LINE
  8
1
 62
7
 10
4.333333333333333
 20
56
 30
0
 11
4.333333333333333
 21
64.66666666666666
 31
0
  0
LINE
  8
1
 62
7
 10
-4.333333333333333
 20
66
 30
0
 11
3
 21
66
 31
0
  0
LINE
  8
1
 62
7
 10
-25.44956890143241
 20
72.4495689014324
 30
0
 11
-22.55043109856757
 21
69.55043109856756
 31
0
  0
LINE
  8
1
 62
7
 10
-25.44956890143244
 20
69.55043109856757
 30
0
 11
-22.55043109856757
 21
72.4495689014324
 31
0
  0
LINE
  8
1
 62
7
 10
22.55043109856758
 20
72.4495689014324
 30
0
 11
25.44956890143242
 21
69.55043109856756
 31
0
  0
LINE
  8
1
 62
7
 10
22.55043109856756
 20
69.55043109856757
 30
0
 11
25.44956890143242
 21
72.4495689014324
 31
0
  0
LINE
  8
1
 62
7
 10
22
 20
79
 30
0
 11
22
 21
91
 31
0
  0
LINE
  8
1
 62
2
  6
DASHDOT
 10
24
 20
63
 30
0
 11
24
 21
79
 31
0
  0
LINE
  8
1
 62
7
 10
22
 20
63
 30
0
 11
22
 21
51
 31
0
  0
LINE
  8
1
 62
7
 10
-20
 20
49
 30
0
 11
20
 21
49
 31
0
  0
LINE
  8
1
 62
7
 10
-22
 20
63
 30
0
 11
-22
 21
51
 31
0
  0
LINE
  8
1
 62
2
  6
DASHDOT
 10
-24
 20
79
 30
0
 11
-24
 21
63.25403330758517
 31
0
  0
LINE
  8
1
 62
7
 10
-22
 20
79
 30
0
 11
-22
 21
91
 31
0
  0
LINE
  8
1
 62
7
 10
-20
 20
93
 30
0
 11
20
 21
93
 31
0
  0
LINE
  8
1
 62
7
 10
-155
 20
1.4210854715202e-14
 30
0
 11
-148
 21
3.500000000000014
 31
0
  0
LINE
  8
1
 62
7
 10
-148
 20
3.500000000000014
 30
0
 11
-148
 21
1.500000000000014
 31
0
  0
LINE
  8
1
 62
7
 10
-148
 20
1.500000000000014
 30
0
 11
-134
 21
1.500000000000014
 31
0
  0
LINE
  8
1
 62
7
 10
-134
 20
1.500000000000014
 30
0
 11
-133
 21
3.500000000000014
 31
0
  0
LINE
  8
1
 62
7
 10
-133
 20
3.500000000000014
 30
0
 11
-125
 21
3.500000000000014
 31
0
  0
LINE
  8
1
 62
7
 10
-125
 20
-3.5
 30
0
 11
-133
 21
-3.5
 31
0
  0
LINE
  8
1
 62
7
 10
-133
 20
-3.5
 30
0
 11
-134
 21
-1.499999999999986
 31
0
  0
LINE
  8
1
 62
7
 10
-134
 20
-1.499999999999986
 30
0
 11
-148
 21
-1.499999999999986
 31
0
  0
LINE
  8
1
 62
7
 10
-148
 20
-1.499999999999986
 30
0
 11
-148
 21
-3.5
 31
0
  0
LINE
  8
1
 62
7
 10
-148
 20
-3.5
 30
0
 11
-155
 21
1.4210854715202e-14
 31
0
  0
LINE
  8
1
 62
7
 10
-61.15322691854578
 20
73.05
 30
0
 11
-60.4
 21
70.98052604957006
 31
0
  0
LINE
  8
1
 62
7
 10
-60.4
 20
70.98052604957006
 30
0
 11
-61.13905104194563
 21
68.95
 31
0
  0
LINE
  8
1
 62
7
 10
-63
 20
74.5
 30
0
 11
-63
 21
67.5
 31
0
  0
LINE
  8
1
 62
7
 10
-63
 20
67.5
 30
0
 11
-62.01519762301344
 21
67.5
 31
0
  0
LINE
  8
1
 62
7
 10
-63
 20
74.5
 30
0
 11
-62.02680968756652
 21
74.5
 31
0
  0
LINE
  8
1
 62
7
 10
-9
 20
-37
 30
0
 11
9
 21
-37
 31
0
  0
LINE
  8
1
 62
7
 10
-9
 20
-37
 30
0
 11
-9
 21
-22.248595461287
 31
0
  0
LINE
  8
1
 62
7
 10
9
 20
-22.248595461287
 30
0
 11
9
 21
-37
 31
0
  0
LINE
  8
1
 62
7
 10
24
 20
12
 30
0
 11
24
 21
0
 31
0
  0
LINE
  8
1
 62
7
 10
-24
 20
12
 30
0
 11
-24
 21
0
 31
0
  0
LINE
  8
1
 62
7
 10
-20
 20
28.37199898895626
 30
0
 11
-20
 21
21.38083151964686
 31
0
  0
LINE
  8
1
 62
7
 10
-20
 20
28.37199898895626
 30
0
 11
20
 21
28.37199898895626
 31
0
  0
LINE
  8
1
 62
7
 10
20
 20
28.37199898895626
 30
0
 11
20
 21
21.38083151964686
 31
0
  0
LINE
  8
1
 62
7
 10
20
 20
28.37199898895626
 30
0
 11
23
 21
28.37199898895626
 31
0
  0
LINE
  8
1
 62
7
 10
3.955169525227123e-16
 20
25.40341184434352
 30
0
 11
-22
 21
12.70170592217177
 31
0
  0
LINE
  8
1
 62
2
  6
DASHDOT
 10
3.955169525227123e-16
 20
25.40341184434352
 30
0
 11
2.56509794468075e-31
 21
30.42627613092819
 31
0
  0
LINE
  8
1
 62
7
 10
-22
 20
12.70170592217177
 30
0
 11
-22
 21
-12.7017059221718
 31
0
  0
LINE
  8
1
 62
7
 10
-22
 20
-12.7017059221718
 30
0
 11
-3.955169525227118e-16
 21
-25.40341184434349
 31
0
  0
LINE
  8
1
 62
2
  6
DASHDOT
 10
-3.955169525227118e-16
 20
-25.40341184434349
 30
0
 11
3.425277285120726e-16
 21
22
 31
0
  0
LINE
  8
1
 62
7
 10
-3.955169525227118e-16
 20
-25.40341184434349
 30
0
 11
22
 21
-12.7017059221718
 31
0
  0
LINE
  8
1
 62
7
 10
22
 20
-12.7017059221718
 30
0
 11
22
 21
12.70170592217177
 31
0
  0
LINE
  8
1
 62
7
 10
22
 20
12.70170592217177
 30
0
 11
3.955169525227123e-16
 21
25.40341184434352
 31
0
  0
LINE
  8
1
 62
2
  6
DASHDOT
 10
3.425277285120726e-16
 20
22
 30
0
 11
3.955169525227123e-16
 21
25.40341184434352
 31
0
  0
LINE
  8
1
 62
7
 10
-96.96496074449489
 20
25.40341184434352
 30
0
 11
-96.49137807216539
 21
24.58314259428458
 31
0
  0
LINE
  8
1
 62
7
 10
-96.4913780721654
 20
-24.5831425942846
 30
0
 11
-96.96496074449489
 21
-25.40341184434349
 31
0
  0
LINE
  8
1
 62
7
 10
-95
 20
19.01724385566922
 30
0
 11
-95
 21
-19.01724385566919
 31
0
  0
LINE
  8
1
 62
7
 10
-113.5086219278346
 20
24.58314259428458
 30
0
 11
-113.0350392555051
 21
25.40341184434352
 31
0
  0
LINE
  8
1
 62
7
 10
-113.0350392555051
 20
-25.40341184434349
 30
0
 11
-113.5086219278346
 21
-24.5831425942846
 31
0
  0
LINE
  8
1
 62
7
 10
-115
 20
-19.01724385566919
 30
0
 11
-115
 21
19.01724385566922
 31
0
  0
LINE
  8
1
 62
7
 10
-113.0350392555051
 20
-25.40341184434349
 30
0
 11
-96.96496074449489
 21
-25.40341184434349
 31
0
  0
LINE
  8
1
 62
7
 10
-113.0350392555051
 20
-12.7017059221718
 30
0
 11
-96.96496074449489
 21
-12.7017059221718
 31
0
  0
LINE
  8
1
 62
7
 10
-113.0350392555051
 20
12.70170592217177
 30
0
 11
-96.96496074449489
 21
12.70170592217177
 31
0
  0
LINE
  8
1
 62
7
 10
-96.96496074449489
 20
25.40341184434352
 30
0
 11
-113.0350392555051
 21
25.40341184434352
 31
0
  0
LINE
  8
1
 62
7
 10
-183.5086219278346
 20
24.58314259428458
 30
0
 11
-183.0350392555051
 21
25.40341184434352
 31
0
  0
LINE
  8
1
 62
7
 10
-183.0350392555051
 20
-25.40341184434349
 30
0
 11
-183.5086219278346
 21
-24.5831425942846
 31
0
  0
LINE
  8
1
 62
7
 10
-185
 20
-19.01724385566919
 30
0
 11
-185
 21
19.01724385566922
 31
0
  0
LINE
  8
1
 62
7
 10
-166.9649607444949
 20
25.40341184434352
 30
0
 11
-166.4913780721654
 21
24.58314259428458
 31
0
  0
LINE
  8
1
 62
7
 10
-166.4913780721654
 20
-24.5831425942846
 30
0
 11
-166.9649607444949
 21
-25.40341184434349
 31
0
  0
LINE
  8
1
 62
7
 10
-165
 20
19.01724385566922
 30
0
 11
-165
 21
-19.01724385566919
 31
0
  0
LINE
  8
1
 62
7
 10
-183.0350392555051
 20
-25.40341184434349
 30
0
 11
-166.9649607444949
 21
-25.40341184434349
 31
0
  0
LINE
  8
1
 62
7
 10
-183.0350392555051
 20
-12.7017059221718
 30
0
 11
-166.9649607444949
 21
-12.7017059221718
 31
0
  0
LINE
  8
1
 62
7
 10
-183.0350392555051
 20
12.70170592217177
 30
0
 11
-166.9649607444949
 21
12.70170592217177
 31
0
  0
LINE
  8
1
 62
7
 10
-166.9649607444949
 20
25.40341184434352
 30
0
 11
-183.0350392555051
 21
25.40341184434352
 31
0
  0
LINE
  8
1
 62
7
 10
-148.9999999999999
 20
-38.40642525574589
 30
0
 11
-148.9999999999999
 21
-26.1684396980704
 31
0
  0
LINE
  8
1
 62
7
 10
-113.5086219278346
 20
-24.5831425942846
 30
0
 11
-114.7168646754028
 21
-22.49040476761991
 31
0
  0
LINE
  8
1
 62
7
 10
-131
 20
-26.1684396980704
 30
0
 11
-131
 21
-38.40642525574589
 31
0
  0
LINE
  8
1
 62
7
 10
-166.4913780721654
 20
-24.5831425942846
 30
0
 11
-165.2831353245973
 21
-22.49040476761991
 31
0
  0
LINE
  8
1
 62
7
 10
-120
 20
28.37260063951187
 30
0
 11
-120
 21
24.53589838486221
 31
0
  0
LINE
  8
1
 62
7
 10
-114.4019237886467
 20
23.03589838486221
 30
0
 11
-113.5086219278346
 21
24.58314259428458
 31
0
  0
LINE
  8
1
 62
7
 10
-160
 20
28.37260063951187
 30
0
 11
-160
 21
24.53589838486218
 31
0
  0
LINE
  8
1
 62
7
 10
-165.5980762113533
 20
23.03589838486218
 30
0
 11
-166.4913780721654
 21
24.58314259428458
 31
0
  0
LINE
  8
1
 62
7
 10
-125
 20
3.500000000000014
 30
0
 11
-126.75
 21
1.4210854715202e-14
 31
0
  0
LINE
  8
1
 62
2
  6
DASHDOT
 10
-126.75
 20
1.4210854715202e-14
 30
0
 11
-93
 21
1.4210854715202e-14
 31
0
  0
LINE
  8
1
 62
7
 10
-126.75
 20
1.4210854715202e-14
 30
0
 11
-125
 21
-3.5
 31
0
  0
LINE
  8
1
 62
2
  6
DASHDOT
 10
16.6245
 20
0
 30
0
 11
26
 21
0
 31
0
  0
LINE
  8
1
 62
2
  6
DASHDOT
 10
15.1455
 20
0
 30
0
 11
16.6245
 21
0
 31
0
  0
ARC
  8
1
 62
7
 10
-11.5
 20
11.61106178471815
 30
0
 40
33.2160767862678
 50
69.74384199958382
 51
75.71423443303568
  0
ARC
  8
1
 62
7
 10
11.5
 20
11.61106178471815
 30
0
 40
33.2160767862678
 50
69.74384199958382
 51
75.71423443303568
  0
ARC
  8
1
 62
7
 10
11.5
 20
11.61106178471815
 30
0
 40
33.21607678626781
 50
104.2857655669643
 51
110.2561580004162
  0
ARC
  8
1
 62
7
 10
-11.5
 20
11.61106178471815
 30
0
 40
33.21607678626781
 50
104.2857655669643
 51
110.2561580004162
  0
ARC
  8
1
 62
7
 10
11.5
 20
61.58807577522407
 30
0
 40
33.2160767862678
 50
249.7438419995838
 51
290.2561580004162
  0
ARC
  8
1
 62
7
 10
-11.5
 20
61.58807577522407
 30
0
 40
33.2160767862678
 50
249.7438419995838
 51
290.2561580004162
  0
ARC
  8
1
 62
7
 10
-120.1183359690731
 20
33.18935029933564
 30
0
 40
11.63778827165032
 50
59.99999999999974
 51
65.74707635709444
  0
ARC
  8
1
 62
7
 10
-140
 20
0.8814157129574482
 30
0
 40
43.94572285802851
 50
72.4120462260064
 51
77.58795377399387
  0
ARC
  8
1
 62
7
 10
-159.8816640309269
 20
33.18935029933569
 30
0
 40
11.63778827165026
 50
55.4349069054727
 51
65.74707635709441
  0
ARC
  8
1
 62
7
 10
-120.1183359690731
 20
33.18935029933564
 30
0
 40
11.63778827165028
 50
114.2529236429056
 51
124.5650930945271
  0
ARC
  8
1
 62
7
 10
-159.8816640309269
 20
33.18935029933569
 30
0
 40
11.63778827165025
 50
114.2529236429055
 51
119.9999999999998
  0
ARC
  8
1
 62
7
 10
-140
 20
0.8814157129574482
 30
0
 40
43.9457228580285
 50
102.4120462260061
 51
107.5879537739936
  0
ARC
  8
1
 62
7
 10
-120.1183359690731
 20
40.00978726060658
 30
0
 40
11.63778827165034
 50
270.5826079901745
 51
300.0000000000002
  0
ARC
  8
1
 62
7
 10
-159.8816640309269
 20
40.00978726060652
 30
0
 40
11.63778827165028
 50
269.4173920098256
 51
304.5650930945273
  0
ARC
  8
1
 62
7
 10
-140
 20
72.31772184698477
 30
0
 40
43.94572285802851
 50
252.4120462260064
 51
287.5879537739937
  0
ARC
  8
1
 62
7
 10
-109.25
 20
84.5
 30
0
 40
1.5
 50
180
 51
270
  0
ARC
  8
1
 62
7
 10
-99.5
 20
84.5
 30
0
 40
1.5
 50
270
 51
0
  0
ARC
  8
1
 62
7
 10
-109.25
 20
57.5
 30
0
 40
1.5
 50
90
 51
180
  0
ARC
  8
1
 62
7
 10
-99.5
 20
57.5
 30
0
 40
1.5
 50
0
 51
90
  0
ARC
  8
1
 62
7
 10
2.56509794468075e-31
 20
104.5
 30
0
 40
4.5
 50
90
 51
180
  0
ARC
  8
1
 62
7
 10
-140
 20
104.5
 30
0
 40
4.5
 50
0
 51
180
  0
ARC
  8
1
 62
7
 10
-140
 20
-31.93782217350901
 30
0
 40
20.06217782649104
 50
252.4120462260061
 51
287.5879537739939
  0
ARC
  8
1
 62
7
 10
-149.0764118402058
 20
-46.6870966585945
 30
0
 40
5.31290334140549
 50
240.0000000000006
 51
304.5650930945274
  0
ARC
  8
1
 62
7
 10
-130.9235881597942
 20
-46.6870966585945
 30
0
 40
5.312903341405536
 50
235.4349069054726
 51
299.9999999999993
  0
ARC
  8
1
 62
7
 10
-130.9235881597942
 20
-44.3129033414055
 30
0
 40
5.31290334140549
 50
60.00000000000065
 51
124.5650930945274
  0
ARC
  8
1
 62
7
 10
-140
 20
-59.06217782649099
 30
0
 40
20.06217782649104
 50
72.4120462260061
 51
107.5879537739939
  0
ARC
  8
1
 62
7
 10
-149.0764118402058
 20
-44.3129033414055
 30
0
 40
5.312903341405536
 50
55.4349069054726
 51
119.9999999999994
  0
ARC
  8
1
 62
7
 10
-5.25
 20
-36.83613885844309
 30
0
 40
15.16386114155694
 50
249.7438419995837
 51
290.2561580004163
  0
ARC
  8
1
 62
7
 10
5.25
 20
-36.83613885844309
 30
0
 40
15.16386114155694
 50
249.7438419995837
 51
290.2561580004163
  0
ARC
  8
1
 62
7
 10
5.25
 20
-54.16386114155711
 30
0
 40
15.16386114155714
 50
69.74384199958395
 51
110.2561580004161
  0
ARC
  8
1
 62
7
 10
-5.25
 20
-54.16386114155711
 30
0
 40
15.16386114155714
 50
69.74384199958395
 51
110.2561580004161
  0
ARC
  8
1
 62
7
 10
-140
 20
94.94658198738514
 30
0
 40
9.553418012614852
 50
72.41204622600644
 51
107.5879537739936
  0
ARC
  8
1
 62
7
 10
-144.3221008762885
 20
101.9700460279021
 30
0
 40
2.529953972097924
 50
55.43490690547204
 51
119.9999999999994
  0
ARC
  8
1
 62
7
 10
-135.6778991237115
 20
101.9700460279021
 30
0
 40
2.529953972097855
 50
60.00000000000053
 51
124.565093094528
  0
ARC
  8
1
 62
7
 10
-135.6778991237115
 20
101.5299539720979
 30
0
 40
2.529953972097924
 50
235.434906905472
 51
299.9999999999991
  0
ARC
  8
1
 62
7
 10
-140
 20
108.5534180126149
 30
0
 40
9.553418012614893
 50
252.4120462260065
 51
287.5879537739935
  0
ARC
  8
1
 62
7
 10
-144.3221008762885
 20
101.5299539720979
 30
0
 40
2.52995397209788
 50
240.0000000000009
 51
304.565093094528
  0
ARC
  8
1
 62
7
 10
2.5
 20
97.2791137421157
 30
0
 40
7.220886257884302
 50
69.74384199958381
 51
110.2561580004162
  0
ARC
  8
1
 62
7
 10
-2.5
 20
97.2791137421157
 30
0
 40
7.220886257884302
 50
69.74384199958381
 51
110.2561580004162
  0
ARC
  8
1
 62
7
 10
-2.5
 20
106.2208862578843
 30
0
 40
7.220886257884302
 50
249.7438419995838
 51
290.2561580004162
  0
ARC
  8
1
 62
7
 10
2.5
 20
106.2208862578843
 30
0
 40
7.220886257884302
 50
249.7438419995838
 51
290.2561580004162
  0
ARC
  8
1
 62
7
 10
24
 20
79
 30
0
 40
2
 50
180
 51
270
  0
ARC
  8
1
 62
7
 10
24
 20
71
 30
0
 40
6
 50
270
 51
90
  0
ARC
  8
1
 62
7
 10
24
 20
63
 30
0
 40
2
 50
90
 51
180
  0
ARC
  8
1
 62
7
 10
-24
 20
63
 30
0
 40
2
 50
0
 51
90
  0
ARC
  8
1
 62
7
 10
-24
 20
71
 30
0
 40
6
 50
90
 51
270
  0
ARC
  8
1
 62
7
 10
-24
 20
79
 30
0
 40
2
 50
270
 51
0
  0
ARC
  8
1
 62
7
 10
-69.40000000000001
 20
70.98052604957006
 30
0
 40
9.000000000000009
 50
343.5496001733873
 51
0
  0
ARC
  8
1
 62
7
 10
-69.40000000000001
 20
70.98052604957006
 30
0
 40
9.000000000000007
 50
0
 51
16.75281834738626
  0
ARC
  8
1
 62
7
 10
2.56509794468075e-31
 20
104.5
 30
0
 40
4.5
 50
0
 51
90
  0
ARC
  8
1
 62
7
 10
2.56509794468075e-31
 20
0
 30
0
 40
23.99999999999998
 50
216.4435356908987
 51
247.9756871629579
  0
ARC
  8
1
 62
7
 10
2.56509794468075e-31
 20
0
 30
0
 40
23.99999999999998
 50
336.4435356908989
 51
0
  0
ARC
  8
1
 62
7
 10
-16
 20
12
 30
0
 40
8.000000000000002
 50
133.8130614604031
 51
180
  0
ARC
  8
1
 62
7
 10
25
 20
21.38083151964686
 30
0
 40
5
 50
180
 51
226.1869385395969
  0
ARC
  8
1
 62
7
 10
16
 20
12
 30
0
 40
8
 50
0
 51
46.18693853959685
  0
ARC
  8
1
 62
7
 10
-25
 20
21.38083151964686
 30
0
 40
5
 50
313.8130614604032
 51
0
  0
ARC
  8
1
 62
7
 10
2.56509794468075e-31
 20
0
 30
0
 40
24.00000000000001
 50
292.0243128370421
 51
323.5564643091013
  0
ARC
  8
1
 62
7
 10
2.56509794468075e-31
 20
0
 30
0
 40
24
 50
180
 51
203.5564643091011
  0
ARC
  8
1
 62
7
 10
-137.0350392555054
 20
0
 30
0
 40
42.03503925550541
 50
342.4120462260063
 51
17.58795377399364
  0
ARC
  8
1
 62
7
 10
-106.1317974772307
 20
19.01724385566922
 30
0
 40
11.13179747723071
 50
0
 51
30.00000000000004
  0
ARC
  8
1
 62
7
 10
-106.1317974772307
 20
-19.01724385566919
 30
0
 40
11.13179747723071
 50
0
 51
34.56509309452702
  0
ARC
  8
1
 62
7
 10
-106.1317974772307
 20
19.01724385566922
 30
0
 40
11.13179747723071
 50
325.4349069054727
 51
0
  0
ARC
  8
1
 62
7
 10
-106.1317974772307
 20
-19.01724385566919
 30
0
 40
11.13179747723072
 50
329.9999999999998
 51
0
  0
ARC
  8
1
 62
7
 10
-72.96496074449462
 20
0
 30
0
 40
42.03503925550537
 50
162.4120462260063
 51
197.5879537739937
  0
ARC
  8
1
 62
7
 10
-103.8682025227693
 20
19.01724385566922
 30
0
 40
11.1317974772307
 50
149.9999999999999
 51
180
  0
ARC
  8
1
 62
7
 10
-103.8682025227692
 20
-19.01724385566919
 30
0
 40
11.13179747723074
 50
145.4349069054732
 51
180
  0
ARC
  8
1
 62
7
 10
-103.8682025227693
 20
19.01724385566922
 30
0
 40
11.13179747723071
 50
180
 51
214.5650930945273
  0
ARC
  8
1
 62
7
 10
-103.8682025227692
 20
-19.01724385566919
 30
0
 40
11.1317974772308
 50
180
 51
210.0000000000001
  0
ARC
  8
1
 62
7
 10
-142.9649607444946
 20
0
 30
0
 40
42.03503925550539
 50
162.4120462260063
 51
197.5879537739937
  0
ARC
  8
1
 62
7
 10
-173.8682025227693
 20
19.01724385566922
 30
0
 40
11.1317974772307
 50
149.9999999999999
 51
180
  0
ARC
  8
1
 62
7
 10
-173.8682025227693
 20
-19.01724385566919
 30
0
 40
11.13179747723065
 50
145.4349069054729
 51
180
  0
ARC
  8
1
 62
7
 10
-173.8682025227693
 20
19.01724385566922
 30
0
 40
11.13179747723069
 50
180
 51
214.5650930945273
  0
ARC
  8
1
 62
7
 10
-173.8682025227693
 20
-19.01724385566919
 30
0
 40
11.13179747723069
 50
180
 51
210.0000000000003
  0
ARC
  8
1
 62
7
 10
-207.0350392555054
 20
0
 30
0
 40
42.0350392555054
 50
342.4120462260063
 51
17.58795377399365
  0
ARC
  8
1
 62
7
 10
-176.1317974772307
 20
19.01724385566922
 30
0
 40
11.13179747723069
 50
0
 51
30.00000000000007
  0
ARC
  8
1
 62
7
 10
-176.1317974772308
 20
-19.01724385566919
 30
0
 40
11.1317974772308
 50
0
 51
34.56509309452678
  0
ARC
  8
1
 62
7
 10
-176.1317974772307
 20
19.01724385566922
 30
0
 40
11.13179747723068
 50
325.4349069054726
 51
0
  0
ARC
  8
1
 62
7
 10
-176.1317974772308
 20
-19.01724385566919
 30
0
 40
11.13179747723082
 50
329.9999999999999
 51
0
  0
ARC
  8
1
 62
7
 10
-117.3149408867561
 20
-23.99040476761991
 30
0
 40
2.999999999999988
 50
30.00000000000014
 51
105.1144389179206
  0
ARC
  8
1
 62
7
 10
-140
 20
60.00000000000001
 30
0
 40
83.99999999999999
 50
277.9281417662021
 51
285.1144389179221
  0
ARC
  8
1
 62
7
 10
-128
 20
-26.1684396980704
 30
0
 40
2.999999999999992
 50
97.92814176620294
 51
180
  0
ARC
  8
1
 62
7
 10
-162.6850591132439
 20
-23.99040476761991
 30
0
 40
3.000000000000033
 50
74.88556108207942
 51
150.0000000000008
  0
ARC
  8
1
 62
7
 10
-140
 20
60.00000000000001
 30
0
 40
83.99999999999999
 50
254.8855610820779
 51
262.0718582337979
  0
ARC
  8
1
 62
7
 10
-151.9999999999999
 20
-26.1684396980704
 30
0
 40
3
 50
0
 51
82.07185823379758
  0
ARC
  8
1
 62
7
 10
-120.1183359690731
 20
40.00978726060658
 30
0
 40
11.6377882716503
 50
235.4349069054729
 51
270.5826079901745
  0
ARC
  8
1
 62
7
 10
-117
 20
24.53589838486221
 30
0
 40
3
 50
180
 51
329.9999999999999
  0
ARC
  8
1
 62
7
 10
-159.8816640309269
 20
40.00978726060652
 30
0
 40
11.63778827165024
 50
240.0000000000002
 51
269.4173920098256
  0
ARC
  8
1
 62
7
 10
-163
 20
24.53589838486218
 30
0
 40
2.999999999999975
 50
210.0000000000003
 51
0
  0
CIRCLE
  8
1
 62
7
 10
-24
 20
71
 30
0
 40
3.500000000000011
  0
CIRCLE
  8
1
 62
7
 10
24
 20
71
 30
0
 40
3.5
  0
CIRCLE
  8
1
 62
7
 10
2.56509794468075e-31
 20
0
 30
0
 40
22
  0
CIRCLE
  8
1
 62
2
 10
2.56509794468075e-31
 20
0
 30
0
 40
16.6245
  0
CIRCLE
  8
1
 62
7
 10
2.56509794468075e-31
 20
0
 30
0
 40
15.1455
  0
ARC
  8
1
 62
7
 10
-135
 20
-67
 30
0
 40
2
 50
270
 51
0
  0
ARC
  8
1
 62
7
 10
-145
 20
-67
 30
0
 40
2
 50
180
 51
270
  0
ARC
  8
1
 62
7
 10
5
 20
-67
 30
0
 40
2
 50
270
 51
0
  0
ARC
  8
1
 62
7
 10
-5
 20
-67
 30
0
 40
2
 50
180
 51
270
  0
ARC
  8
1
 62
7
 10
-25.25
 20
93
 30
0
 40
4
 50
90
 51
180
  0
ARC
  8
1
 62
7
 10
25.25
 20
93
 30
0
 40
4
 50
0
 51
90
  0
ARC
  8
1
 62
7
 10
-29.57499999999999
 20
49.125
 30
0
 40
0.3250000000000028
 50
270
 51
0
  0
ARC
  8
1
 62
7
 10
-29.67500000000001
 20
48.47499999999999
 30
0
 40
0.3250000000000099
 50
90
 51
180
  0
ARC
  8
1
 62
7
 10
29.575
 20
49.125
 30
0
 40
0.3249999999999993
 50
180
 51
270
  0
ARC
  8
1
 62
7
 10
29.675
 20
48.47499999999999
 30
0
 40
0.3249999999999993
 50
0
 51
90
  0
ARC
  8
1
 62
7
 10
-110.325
 20
48.47499999999999
 30
0
 40
0.3250000000000028
 50
0
 51
90
  0
ARC
  8
1
 62
7
 10
-110.425
 20
49.125
 30
0
 40
0.3250000000000028
 50
180
 51
270
  0
ARC
  8
1
 62
7
 10
-169.675
 20
48.47499999999999
 30
0
 40
0.3250000000000099
 50
90
 51
180
  0
ARC
  8
1
 62
7
 10
-169.575
 20
49.125
 30
0
 40
0.3250000000000028
 50
270
 51
0
  0
ARC
  8
1
 62
7
 10
-114.75
 20
93
 30
0
 40
4
 50
0
 51
90
  0
ARC
  8
1
 62
7
 10
-165.25
 20
93
 30
0
 40
4
 50
90
 51
180
  0
ARC
  8
1
 62
7
 10
-65
 20
91
 30
0
 40
2
 50
0
 51
90
  0
ARC
  8
1
 62
7
 10
-96
 20
91
 30
0
 40
2
 50
90
 51
180
  0
ARC
  8
1
 62
7
 10
-96
 20
51
 30
0
 40
2
 50
180
 51
270
  0
ARC
  8
1
 62
7
 10
-65
 20
51
 30
0
 40
2
 50
270
 51
0
  0
ARC
  8
1
 62
7
 10
3
 20
64.66666666666666
 30
0
 40
1
 50
0
 51
90
  0
ARC
  8
1
 62
7
 10
-3
 20
57.33333333333334
 30
0
 40
1
 50
180
 51
270
  0
ARC
  8
1
 62
7
 10
3
 20
64.66666666666666
 30
0
 40
1.333333333333333
 50
0
 51
90
  0
ARC
  8
1
 62
7
 10
-3
 20
57.33333333333334
 30
0
 40
1.333333333333333
 50
180
 51
270
  0
ARC
  8
1
 62
7
 10
20
 20
51
 30
0
 40
2
 50
270
 51
0
  0
ARC
  8
1
 62
7
 10
20
 20
91
 30
0
 40
2
 50
0
 51
90
  0
ARC
  8
1
 62
7
 10
-20
 20
91
 30
0
 40
2
 50
90
 51
180
  0
ARC
  8
1
 62
7
 10
-20
 20
51
 30
0
 40
2
 50
180
 51
270
  0
ARC
  8
1
 62
7
 10
-62.02680968756652
 20
73.2
 30
0
 40
1.300000000000002
 50
16.75281834738601
 51
90
  0
ARC
  8
1
 62
7
 10
-62.01519762301344
 20
68.8
 30
0
 40
1.299999999999997
 50
270
 51
343.5496001733876
  0
TEXT
  8
1
 62
7
 10
30.97698799507594
 20
118.1433861298431
 30
0
 40
3.149999999999999
  1
DWG No.  SV-4003
 41
0.9
  0
TEXT
  8
1
 62
7
 10
30.97698799507594
 20
111.2133861298431
 30
0
 40
3.149999999999999
  1
REV.     00
 41
0.9
  0
TEXT
  8
1
 62
7
 10
30.97698799507594
 20
104.2833861298431
 30
0
 40
3.149999999999999
  1
Yamatake Corporation
 41
0.9
  0
ENDSEC
  0
EOF
