  0
SECTION
  2
HEADER
  9
$ACADVER
  1
AC1009
  9
$INSBASE
 10
0
 20
0
  9
$EXTMIN
 10
-207
 20
-84.00000000000003
  9
$EXTMAX
 10
105.6259841879804
 20
175.0356644159319
  9
$LIMMIN
 10
-207
 20
-84.00000000000003
  9
$LIMMAX
 10
105.6259841879804
 20
175.0356644159319
  9
$VIEWCTR
 10
10
 20
10
  9
$VIEWSIZE
 40
10
  9
$SNAPMODE
 70
0
  9
$SNAPUNIT
 10
1
 20
1
  9
$SNAPBASE
 10
0
 20
0
  9
$SNAPANG
 50
0
  9
$SNAPSTYLE
 70
0
  9
$SNAPISOPAIR
 70
0
  9
$GRIDMODE
 70
0
  9
$GRIDUNIT
 10
0
 20
0
  9
$ORTHOMODE
 70
0
  9
$REGENMODE
 70
1
  9
$FILLMODE
 70
1
  9
$QTEXTMODE
 70
0
  9
$DRAGMODE
 70
2
  9
$LTSCALE
 40
1
  9
$OSMODE
 70
0
  9
$ATTMODE
 70
1
  9
$TEXTSIZE
 40
3.5
  9
$TRACEWID
 40
0.5
  9
$TEXTSTYLE
  7
STANDARD
  9
$CLAYER
  8
0
  9
$CELTYPE
  6
BYLAYER
  9
$CECOLOR
 62
256
  9
$DIMSCALE
 40
1
  9
$DIMASZ
 40
0.18
  9
$DIMEXO
 40
0.0625
  9
$DIMDLI
 40
0.38
  9
$DIMRND
 40
0
  9
$DIMDLE
 40
0
  9
$DIMEXE
 40
0.18
  9
$DIMTP
 40
0
  9
$DIMTM
 40
0
  9
$DIMTXT
 40
0.18
  9
$DIMCEN
 40
0.09
  9
$DIMTSZ
 40
0
  9
$DIMTOL
 70
0
  9
$DIMLIM
 70
0
  9
$DIMTIH
 70
1
  9
$DIMTOH
 70
1
  9
$DIMSE1
 70
0
  9
$DIMSE2
 70
0
  9
$DIMTAD
 70
0
  9
$DIMZIN
 70
0
  9
$DIMBLK
  1

  9
$DIMASO
 70
1
  9
$DIMSHO
 70
1
  9
$DIMPOST
  1

  9
$DIMAPOST
  1

  9
$DIMALT
 70
0
  9
$DIMALTD
 70
2
  9
$DIMALTF
 40
25.4
  9
$DIMLFAC
 40
1
  9
$DIMTOFL
 70
0
  9
$DIMTVP
 40
0
  9
$DIMTIX
 70
0
  9
$DIMSOXD
 70
0
  9
$DIMSAH
 70
0
  9
$DIMBLK1
  1

  9
$DIMBLK2
  1

  9
$DIMSTYLE
  2
*UNNAMED
  9
$DIMCLRD
 70
0
  9
$DIMCLRE
 70
0
  9
$DIMCLRT
 70
0
  9
$DIMTFAC
 40
1
  9
$DIMGAP
 40
0.09
  9
$LUNITS
 70
2
  9
$LUPREC
 70
4
  9
$AXISMODE
 70
0
  9
$AXISUNIT
 10
0
 20
0
  9
$SKETCHINC
 40
0.1
  9
$FILLETRAD
 40
2
  9
$AUNITS
 70
0
  9
$AUPREC
 70
0
  9
$MENU
  1
ACAD
  9
$ELEVATION
 40
0
  9
$THICKNESS
 40
0
  9
$VIEWDIR
 10
0
 20
0
 30
1
  9
$LIMCHECK
 70
0
  9
$BLIPMODE
 70
1
  9
$CHAMFERA
 40
0
  9
$CHAMFERB
 40
0
  9
$FASTZOOM
 70
1
  9
$SKPOLY
 70
0
  9
$ANGBASE
 50
0
  9
$ANGDIR
 70
0
  9
$PDMODE
 70
0
  9
$PDSIZE
 40
0
  9
$PLINEWID
 40
0
  9
$COORDS
 70
2
  0
ENDSEC
  0
SECTION
  2
TABLES
  0
TABLE
  2
DIMSTYLE
 70
0
  0
ENDTAB
  0
TABLE
  2
LTYPE
 70
9
  0
LTYPE
  2
CONTINUOUS
 70
64
  3
Solid line
 72
65
 73
0
 40
0
  0
LTYPE
  2
BORDER
 70
64
  3
__ __ . __ __ .
 72
65
 73
6
 40
14.39724927181489
 49
4.113499791947111
 49
-2.056749895973555
 49
4.113499791947111
 49
-2.056749895973555
 49
0
 49
-2.056749895973555
  0
LTYPE
  2
CENTER
 70
64
  3
____ _ ____ _
 72
65
 73
4
 40
16.45399916778844
 49
10.28374947986778
 49
-2.056749895973555
 49
2.056749895973555
 49
-2.056749895973555
  0
LTYPE
  2
DASHDOT
 70
64
  3
__ . __ . __ .
 72
65
 73
4
 40
8.226999583894221
 49
4.113499791947111
 49
-2.056749895973555
 49
0
 49
-2.056749895973555
  0
LTYPE
  2
DASHED
 70
64
  3
__ __ __ __ __
 72
65
 73
2
 40
6.170249687920666
 49
4.113499791947111
 49
-2.056749895973555
  0
LTYPE
  2
DIVIDE
 70
64
  3
__ . . __ . . 
 72
65
 73
6
 40
10.28374947986778
 49
4.113499791947111
 49
-2.056749895973555
 49
0
 49
-2.056749895973555
 49
0
 49
-2.056749895973555
  0
LTYPE
  2
DOT
 70
64
  3
..............
 72
65
 73
4
 40
4.113499791947111
 49
0
 49
-2.056749895973555
 49
0
 49
-2.056749895973555
  0
LTYPE
  2
HIDDEN
 70
64
  3
_ _ _ _ _ _ _
 72
65
 73
2
 40
3.085124843960333
 49
2.056749895973555
 49
-1.028374947986778
  0
LTYPE
  2
PHANTOM
 70
64
  3
_____ _ _ _____ _ _ 
 72
65
 73
6
 40
20.56749895973555
 49
10.28374947986778
 49
-2.056749895973555
 49
2.056749895973555
 49
-2.056749895973555
 49
2.056749895973555
 49
-2.056749895973555
  0
ENDTAB
  0
TABLE
  2
LAYER
 70
3
  0
LAYER
  2
1
 70
0
 62
7
  6
CONTINUOUS
  0
LAYER
  2
0
 70
0
 62
7
  6
CONTINUOUS
  0
ENDTAB
  0
TABLE
  2
STYLE
 70
4
  0
STYLE
  2
STANDARD
 70
0
 40
0
 41
1
 50
0
 71
0
 42
3.5
  3
txt
  4

  0
STYLE
  2
SIMPLEX
 70
0
 40
0
 41
1
 50
0
 71
0
 42
3.5
  3
simplex
  4

  0
STYLE
  2
COMPLEX
 70
0
 40
0
 41
1
 50
0
 71
0
 42
3.5
  3
complex
  4

  0
STYLE
  2
ITALIC
 70
0
 40
0
 41
1
 50
0
 71
0
 42
3.5
  3
italic
  4

  0
ENDTAB
  0
TABLE
  2
VIEW
 70
0
  0
ENDTAB
  0
ENDSEC
  0
SECTION
  2
BLOCKS
  0
ENDSEC
  0
SECTION
  2
ENTITIES
  0
LINE
  8
1
 62
7
 10
-20
 20
79.80000000000001
 30
0
 11
20
 21
79.80000000000001
 31
0
  0
LINE
  8
1
 62
7
 10
20
 20
123.8
 30
0
 11
-20
 21
123.8
 31
0
  0
LINE
  8
1
 62
7
 10
-22
 20
93.8
 30
0
 11
-22
 21
81.80000000000001
 31
0
  0
LINE
  8
1
 62
7
 10
22
 20
81.80000000000001
 30
0
 11
22
 21
93.8
 31
0
  0
LINE
  8
1
 62
7
 10
22
 20
109.8
 30
0
 11
22
 21
121.8
 31
0
  0
LINE
  8
1
 62
7
 10
-22
 20
121.8
 30
0
 11
-22
 21
109.8
 31
0
  0
LINE
  8
1
 62
2
  6
DASHDOT
 10
37.5
 20
101.8
 30
0
 11
-37.49999999999999
 21
101.8
 31
0
  0
LINE
  8
1
 62
2
  6
DASHDOT
 10
24
 20
109.3
 30
0
 11
24
 21
94.29999999999998
 31
0
  0
LINE
  8
1
 62
2
  6
DASHDOT
 10
-23.99999999999999
 20
109.3
 30
0
 11
-23.99999999999999
 21
94.29999999999998
 31
0
  0
LINE
  8
1
 62
2
  6
DASHDOT
 10
9.73656918978883e-15
 20
154.9
 30
0
 11
5.684341886080801e-14
 21
148.0534180126149
 31
0
  0
LINE
  8
1
 62
7
 10
-35
 20
62.79999999999999
 30
0
 11
-29
 21
62.79999999999999
 31
0
  0
LINE
  8
1
 62
7
 10
35.00000000000001
 20
62.79999999999999
 30
0
 11
35.00000000000001
 21
137
 31
0
  0
LINE
  8
1
 62
7
 10
31.00000000000001
 20
141
 30
0
 11
-30.99999999999998
 21
141
 31
0
  0
LINE
  8
1
 62
7
 10
-35
 20
137
 30
0
 11
-35
 21
62.79999999999999
 31
0
  0
LINE
  8
1
 62
7
 10
-24.99999999999999
 20
141
 30
0
 11
-24.99999999999999
 21
141.5
 31
0
  0
LINE
  8
1
 62
7
 10
-24.99999999999999
 20
141.5
 30
0
 11
-6.099999999999992
 21
141.5
 31
0
  0
LINE
  8
1
 62
7
 10
25.00000000000001
 20
141.5
 30
0
 11
25.00000000000001
 21
141
 31
0
  0
LINE
  8
1
 62
7
 10
-29
 20
62.79999999999999
 30
0
 11
-29
 21
60.20982447316582
 31
0
  0
LINE
  8
1
 62
7
 10
-29
 20
62.79999999999999
 30
0
 11
29
 21
62.79999999999999
 31
0
  0
LINE
  8
1
 62
7
 10
-29
 20
42.79999999999999
 30
0
 11
-24.99999999999999
 21
42.79999999999999
 31
0
  0
LINE
  8
1
 62
7
 10
29
 20
42.79999999999999
 30
0
 11
29
 21
45.39017552683417
 31
0
  0
LINE
  8
1
 62
7
 10
29
 20
62.79999999999999
 30
0
 11
35.00000000000001
 21
62.79999999999999
 31
0
  0
LINE
  8
1
 62
7
 10
-166.7431578064991
 20
45.39017552683417
 30
0
 11
-166.7431578064991
 21
52.79999999999999
 31
0
  0
LINE
  8
1
 62
7
 10
-133.2568421935009
 20
52.79999999999999
 30
0
 11
-133.2568421935009
 21
45.39017552683417
 31
0
  0
LINE
  8
1
 62
7
 10
-117.5949483984431
 20
44.76590745876346
 30
0
 11
-116.5136843870017
 21
45.39017552683417
 31
0
  0
LINE
  8
1
 62
7
 10
-116.5136843870017
 20
45.39017552683417
 30
0
 11
-116.5136843870017
 21
52.79999999999999
 31
0
  0
LINE
  8
1
 62
7
 10
-182.4050516015569
 20
44.76590745876346
 30
0
 11
-183.4863156129983
 21
45.39017552683417
 31
0
  0
LINE
  8
1
 62
7
 10
-183.4863156129983
 20
45.39017552683417
 30
0
 11
-183.4863156129983
 21
52.79999999999999
 31
0
  0
LINE
  8
1
 62
7
 10
-166.7431578064991
 20
52.79999999999999
 30
0
 11
-166.7431578064991
 21
60.20982447316582
 31
0
  0
LINE
  8
1
 62
7
 10
-133.2568421935009
 20
60.20982447316582
 30
0
 11
-133.2568421935009
 21
52.79999999999999
 31
0
  0
LINE
  8
1
 62
7
 10
-116.5136843870017
 20
60.20982447316582
 30
0
 11
-117.5949483984431
 21
60.83409254123653
 31
0
  0
LINE
  8
1
 62
7
 10
-116.5136843870017
 20
52.79999999999999
 30
0
 11
-116.5136843870017
 21
60.20982447316582
 31
0
  0
LINE
  8
1
 62
7
 10
-183.4863156129983
 20
60.20982447316582
 30
0
 11
-182.4050516015569
 21
60.83409254123653
 31
0
  0
LINE
  8
1
 62
7
 10
-183.4863156129983
 20
52.79999999999999
 30
0
 11
-183.4863156129983
 21
60.20982447316582
 31
0
  0
LINE
  8
1
 62
7
 10
-124.9318149175269
 20
62.79999999999999
 30
0
 11
-175.0681850824731
 21
62.79999999999999
 31
0
  0
LINE
  8
1
 62
7
 10
-29
 20
60.20982447316582
 30
0
 11
-29
 21
45.39017552683417
 31
0
  0
LINE
  8
1
 62
7
 10
29
 20
60.20982447316582
 30
0
 11
29
 21
62.79999999999999
 31
0
  0
LINE
  8
1
 62
7
 10
29
 20
45.39017552683417
 30
0
 11
29
 21
60.20982447316582
 31
0
  0
LINE
  8
1
 62
7
 10
-29
 20
45.39017552683417
 30
0
 11
-29
 21
42.79999999999999
 31
0
  0
LINE
  8
1
 62
7
 10
-119
 20
141
 30
0
 11
-181
 21
141
 31
0
  0
LINE
  8
1
 62
7
 10
-175
 20
141
 30
0
 11
-175
 21
141.5
 31
0
  0
LINE
  8
1
 62
7
 10
-175
 20
141.5
 30
0
 11
-156.1
 21
141.5
 31
0
  0
LINE
  8
1
 62
7
 10
-125
 20
141.5
 30
0
 11
-125
 21
141
 31
0
  0
LINE
  8
1
 62
7
 10
-185
 20
137
 30
0
 11
-185
 21
62.79999999999999
 31
0
  0
LINE
  8
1
 62
7
 10
-121
 20
62.79999999999999
 30
0
 11
-115
 21
62.79999999999999
 31
0
  0
LINE
  8
1
 62
7
 10
-179
 20
62.79999999999999
 30
0
 11
-121
 21
62.79999999999999
 31
0
  0
LINE
  8
1
 62
7
 10
-185
 20
62.79999999999999
 30
0
 11
-179
 21
62.79999999999999
 31
0
  0
LINE
  8
1
 62
7
 10
-185
 20
137
 30
0
 11
-185
 21
62.79999999999999
 31
0
  0
LINE
  8
1
 62
7
 10
-100
 20
123.8
 30
0
 11
-73.50000000000001
 21
123.8
 31
0
  0
LINE
  8
1
 62
7
 10
-67.00000000000001
 20
121.8
 30
0
 11
-67.00000000000001
 21
81.80000000000001
 31
0
  0
LINE
  8
1
 62
7
 10
-69.00000000000001
 20
79.80000000000001
 30
0
 11
-72.00000000000001
 21
79.80000000000001
 31
0
  0
LINE
  8
1
 62
7
 10
-102
 20
81.80000000000001
 30
0
 11
-102
 21
88.3
 31
0
  0
LINE
  8
1
 62
7
 10
-72.00000000000001
 20
123.8
 30
0
 11
-72.00000000000001
 21
79.80000000000001
 31
0
  0
LINE
  8
1
 62
7
 10
-72.00000000000001
 20
123.8
 30
0
 11
-69.00000000000001
 21
123.8
 31
0
  0
LINE
  8
1
 62
7
 10
-72.00000000000001
 20
79.80000000000001
 30
0
 11
-73.50000000000001
 21
79.80000000000001
 31
0
  0
LINE
  8
1
 62
7
 10
-73.50000000000001
 20
79.80000000000001
 30
0
 11
-73.50000000000001
 21
123.8
 31
0
  0
LINE
  8
1
 62
7
 10
-73.50000000000001
 20
79.80000000000001
 30
0
 11
-100
 21
79.80000000000001
 31
0
  0
LINE
  8
1
 62
7
 10
-73.50000000000001
 20
123.8
 30
0
 11
-72.00000000000001
 21
123.8
 31
0
  0
LINE
  8
1
 62
7
 10
-113.5
 20
113.8
 30
0
 11
-103.5
 21
113.8
 31
0
  0
LINE
  8
1
 62
7
 10
-102
 20
115.3
 30
0
 11
-102
 21
121.8
 31
0
  0
LINE
  8
1
 62
7
 10
-102
 20
88.3
 30
0
 11
-102
 21
115.3
 31
0
  0
LINE
  8
1
 62
7
 10
-103.5
 20
89.79999999999998
 30
0
 11
-113.5
 21
89.79999999999998
 31
0
  0
LINE
  8
1
 62
7
 10
-115
 20
62.79999999999999
 30
0
 11
-115
 21
137
 31
0
  0
LINE
  8
1
 62
2
  6
DASHDOT
 10
-187
 20
101.8
 30
0
 11
-63.40000000000001
 21
101.8
 31
0
  0
LINE
  8
1
 62
2
  6
DASHDOT
 10
-207
 20
0
 30
0
 11
-92.99999999999996
 21
0
 31
0
  0
LINE
  8
1
 62
7
 10
-175.0681850824731
 20
42.79999999999999
 30
0
 11
-175
 21
42.79999999999999
 31
0
  0
LINE
  8
1
 62
7
 10
-10.5
 20
-52
 30
0
 11
-7.999999999999992
 21
-52
 31
0
  0
LINE
  8
1
 62
7
 10
10.5
 20
-52
 30
0
 11
10.5
 21
-52.93782217350889
 31
0
  0
LINE
  8
1
 62
7
 10
10.5
 20
-65
 30
0
 11
9.73656918978883e-15
 21
-65
 31
0
  0
LINE
  8
1
 62
7
 10
-10.5
 20
-65
 30
0
 11
-10.5
 21
-64.06217782649111
 31
0
  0
LINE
  8
1
 62
7
 10
-7
 20
-65
 30
0
 11
-7
 21
-80
 31
0
  0
LINE
  8
1
 62
7
 10
-5
 20
-82
 30
0
 11
5
 21
-82
 31
0
  0
LINE
  8
1
 62
7
 10
7
 20
-80
 30
0
 11
7
 21
-65
 31
0
  0
LINE
  8
1
 62
7
 10
9.736569189788827e-15
 20
-52
 30
0
 11
8.000000000000007
 21
-52
 31
0
  0
LINE
  8
1
 62
7
 10
9.73656918978883e-15
 20
-65
 30
0
 11
-10.5
 21
-65
 31
0
  0
LINE
  8
1
 62
2
  6
DASHDOT
 10
9.73656918978883e-15
 20
-65
 30
0
 11
7.98295018247232e-16
 21
-84
 31
0
  0
LINE
  8
1
 62
7
 10
0
 20
60.20982447316582
 30
0
 11
0
 21
45.39017552683417
 31
0
  0
LINE
  8
1
 62
2
  6
DASHDOT
 10
0
 20
60.20982447316582
 30
0
 11
0
 21
45.39017552683417
 31
0
  0
LINE
  8
1
 62
7
 10
-7.999999999999992
 20
-52
 30
0
 11
9.736569189788827e-15
 21
-52
 31
0
  0
LINE
  8
1
 62
7
 10
8.000000000000007
 20
-52
 30
0
 11
10.5
 21
-52
 31
0
  0
LINE
  8
1
 62
7
 10
-157
 20
-65
 30
0
 11
-157
 21
-80
 31
0
  0
LINE
  8
1
 62
7
 10
-155
 20
-82
 30
0
 11
-145
 21
-82
 31
0
  0
LINE
  8
1
 62
7
 10
-143
 20
-80
 30
0
 11
-143
 21
-65
 31
0
  0
LINE
  8
1
 62
7
 10
-161.7328635109085
 20
-64.28820592010291
 30
0
 11
-162.1243556529821
 21
-64.06217782649111
 31
0
  0
LINE
  8
1
 62
7
 10
-138.2671364890915
 20
-64.28820592010291
 30
0
 11
-137.8756443470179
 21
-64.06217782649111
 31
0
  0
LINE
  8
1
 62
7
 10
-159.47825254546
 20
-65
 30
0
 11
-141.372777846496
 21
-65
 31
0
  0
LINE
  8
1
 62
7
 10
-162.1243556529821
 20
-52.93782217350889
 30
0
 11
-161.7328635109085
 21
-52.71179407989709
 31
0
  0
LINE
  8
1
 62
7
 10
-137.8756443470179
 20
-52.93782217350889
 30
0
 11
-138.2671364890915
 21
-52.71179407989709
 31
0
  0
LINE
  8
1
 62
7
 10
-141.372777846496
 20
-52
 30
0
 11
-142
 21
-52
 31
0
  0
LINE
  8
1
 62
7
 10
-162.1243556529821
 20
-52.93782217350889
 30
0
 11
-162.1243556529821
 21
-64.06217782649111
 31
0
  0
LINE
  8
1
 62
7
 10
-156.0621778264911
 20
-64.06217782649111
 30
0
 11
-156.0621778264911
 21
-52.93782217350889
 31
0
  0
LINE
  8
1
 62
7
 10
-143.9378221735089
 20
-52.93782217350889
 30
0
 11
-143.9378221735089
 21
-64.06217782649111
 31
0
  0
LINE
  8
1
 62
7
 10
-137.8756443470179
 20
-52.93782217350889
 30
0
 11
-137.8756443470179
 21
-64.06217782649111
 31
0
  0
LINE
  8
1
 62
7
 10
-10.5
 20
-64.06217782649111
 30
0
 11
-10.5
 21
-52.93782217350889
 31
0
  0
LINE
  8
1
 62
7
 10
10.5
 20
-64.06217782649111
 30
0
 11
10.5
 21
-65
 31
0
  0
LINE
  8
1
 62
7
 10
0
 20
-52.93782217350889
 30
0
 11
0
 21
-64.06217782649111
 31
0
  0
LINE
  8
1
 62
2
  6
DASHDOT
 10
0
 20
-52.93782217350889
 30
0
 11
0
 21
-64.06217782649111
 31
0
  0
LINE
  8
1
 62
7
 10
-10.5
 20
-52.93782217350889
 30
0
 11
-10.5
 21
-52
 31
0
  0
LINE
  8
1
 62
7
 10
10.5
 20
-52.93782217350889
 30
0
 11
10.5
 21
-64.06217782649111
 31
0
  0
LINE
  8
1
 62
2
  6
DASHDOT
 10
9.736569189788827e-15
 20
-52
 30
0
 11
0
 21
-52.93782217350889
 31
0
  0
LINE
  8
1
 62
2
  6
DASHDOT
 10
9.73656918978883e-15
 20
-65
 30
0
 11
0
 21
-64.06217782649111
 31
0
  0
LINE
  8
1
 62
7
 10
-160
 20
-3.5
 30
0
 11
-170
 21
0
 31
0
  0
LINE
  8
1
 62
7
 10
-160
 20
-1.5
 30
0
 11
-160
 21
-3.5
 31
0
  0
LINE
  8
1
 62
7
 10
-140
 20
-1.5
 30
0
 11
-160
 21
-1.5
 31
0
  0
LINE
  8
1
 62
7
 10
-131.8888888888889
 20
0
 30
0
 11
-130
 21
-3.5
 31
0
  0
LINE
  8
1
 62
7
 10
-130
 20
3.500000000000028
 30
0
 11
-131.8888888888889
 21
0
 31
0
  0
LINE
  8
1
 62
7
 10
-160
 20
1.5
 30
0
 11
-140
 21
1.5
 31
0
  0
LINE
  8
1
 62
7
 10
-160
 20
3.500000000000028
 30
0
 11
-160
 21
1.5
 31
0
  0
LINE
  8
1
 62
7
 10
-170
 20
0
 30
0
 11
-160
 21
3.500000000000028
 31
0
  0
LINE
  8
1
 62
7
 10
-4.99999999999999
 20
143
 30
0
 11
7.147533593794194e-14
 21
143
 31
0
  0
LINE
  8
1
 62
7
 10
5.00000000000001
 20
143
 30
0
 11
5
 21
143.4465819873853
 31
0
  0
LINE
  8
1
 62
7
 10
5.00000000000001
 20
148.5
 30
0
 11
4.500000000000043
 21
148.5
 31
0
  0
LINE
  8
1
 62
7
 10
-4.99999999999999
 20
148.5
 30
0
 11
-5
 21
143.4465819873853
 31
0
  0
LINE
  8
1
 62
7
 10
-4.99999999999999
 20
143
 30
0
 11
-6.099999999999991
 21
143
 31
0
  0
LINE
  8
1
 62
7
 10
-6.099999999999991
 20
143
 30
0
 11
-6.099999999999992
 21
141.5
 31
0
  0
LINE
  8
1
 62
7
 10
5.00000000000001
 20
143
 30
0
 11
6.100000000000009
 21
143
 31
0
  0
LINE
  8
1
 62
7
 10
6.100000000000009
 20
143
 30
0
 11
6.100000000000009
 21
141.5
 31
0
  0
LINE
  8
1
 62
7
 10
6.100000000000009
 20
141.5
 30
0
 11
25.00000000000001
 21
141.5
 31
0
  0
LINE
  8
1
 62
2
  6
DASHDOT
 10
7.147533593794194e-14
 20
143
 30
0
 11
9.868191333528561e-15
 21
141.5
 31
0
  0
LINE
  8
1
 62
7
 10
9.868191333528561e-15
 20
141.5
 30
0
 11
-6.099999999999992
 21
141.5
 31
0
  0
LINE
  8
1
 62
7
 10
5.00000000000001
 20
143
 30
0
 11
7.147533593794194e-14
 21
143
 31
0
  0
LINE
  8
1
 62
2
  6
DASHDOT
 10
9.868191333528561e-15
 20
141.5
 30
0
 11
0
 21
60.20982447316582
 31
0
  0
LINE
  8
1
 62
7
 10
9.868191333528561e-15
 20
141.5
 30
0
 11
6.100000000000009
 21
141.5
 31
0
  0
LINE
  8
1
 62
7
 10
4.500000000000043
 20
148.5
 30
0
 11
-4.499999999999957
 21
148.5
 31
0
  0
LINE
  8
1
 62
7
 10
-4.499999999999957
 20
148.5
 30
0
 11
-4.99999999999999
 21
148.5
 31
0
  0
LINE
  8
1
 62
7
 10
-156.1
 20
141.5
 30
0
 11
-156.1
 21
143.0000000000001
 31
0
  0
LINE
  8
1
 62
7
 10
-143.9
 20
143
 30
0
 11
-143.9
 21
141.5
 31
0
  0
LINE
  8
1
 62
7
 10
-143.9
 20
141.5
 30
0
 11
-125
 21
141.5
 31
0
  0
LINE
  8
1
 62
2
  6
DASHDOT
 10
-150
 20
141.5
 30
0
 11
-150
 21
154.5
 31
0
  0
LINE
  8
1
 62
7
 10
-150
 20
141.5
 30
0
 11
-156.1
 21
141.5
 31
0
  0
LINE
  8
1
 62
2
  6
DASHDOT
 10
-150
 20
141.5
 30
0
 11
-150
 21
-84.00000000000003
 31
0
  0
LINE
  8
1
 62
7
 10
-150
 20
141.5
 30
0
 11
-143.9
 21
141.5
 31
0
  0
LINE
  8
1
 62
7
 10
-155.5870778623374
 20
143.3389495618558
 30
0
 11
-155.7735026918963
 21
143.4465819873853
 31
0
  0
LINE
  8
1
 62
7
 10
-143.9
 20
143
 30
0
 11
-156.1
 21
143.0000000000001
 31
0
  0
LINE
  8
1
 62
7
 10
-144.4129221376626
 20
143.3389495618558
 30
0
 11
-144.2264973081038
 21
143.4465819873853
 31
0
  0
LINE
  8
1
 62
7
 10
-155.7735026918963
 20
148.0534180126149
 30
0
 11
-155.5870778623374
 21
148.1610504381443
 31
0
  0
LINE
  8
1
 62
7
 10
-144.2264973081038
 20
148.0534180126149
 30
0
 11
-144.4129221376626
 21
148.1610504381443
 31
0
  0
LINE
  8
1
 62
7
 10
-155.7735026918963
 20
148.0534180126149
 30
0
 11
-155.7735026918963
 21
143.4577329726425
 31
0
  0
LINE
  8
1
 62
7
 10
-152.8867513459482
 20
148.0534180126149
 30
0
 11
-152.8867513459482
 21
143.4465819873853
 31
0
  0
LINE
  8
1
 62
7
 10
-147.1132486540519
 20
148.0534180126149
 30
0
 11
-147.1132486540519
 21
143.4465819873853
 31
0
  0
LINE
  8
1
 62
7
 10
-144.2264973081038
 20
148.0534180126149
 30
0
 11
-144.2264973081038
 21
143.4465819873853
 31
0
  0
LINE
  8
1
 62
7
 10
-154.3221008762885
 20
148.5000000000001
 30
0
 11
-145.6778991237116
 21
148.5000000000001
 31
0
  0
LINE
  8
1
 62
7
 10
-5
 20
143.4465819873853
 30
0
 11
-4.99999999999999
 21
143
 31
0
  0
LINE
  8
1
 62
2
  6
DASHDOT
 10
5.684341886080801e-14
 20
143.4465819873853
 30
0
 11
7.147533593794194e-14
 21
143
 31
0
  0
LINE
  8
1
 62
7
 10
5
 20
143.4465819873853
 30
0
 11
5.00000000000001
 21
148.5
 31
0
  0
LINE
  8
1
 62
7
 10
5.684341886080801e-14
 20
148.0534180126149
 30
0
 11
5.684341886080801e-14
 21
143.4465819873853
 31
0
  0
LINE
  8
1
 62
2
  6
DASHDOT
 10
5.684341886080801e-14
 20
148.0534180126149
 30
0
 11
5.684341886080801e-14
 21
143.4465819873853
 31
0
  0
LINE
  8
1
 62
7
 10
-4.333333333333322
 20
96.79999999999998
 30
0
 11
3.000000000000011
 21
96.79999999999998
 31
0
  0
LINE
  8
1
 62
7
 10
4.333333333333344
 20
86.79999999999998
 30
0
 11
4.333333333333344
 21
95.46666666666665
 31
0
  0
LINE
  8
1
 62
7
 10
4.333333333333344
 20
86.79999999999998
 30
0
 11
-2.999999999999989
 21
86.79999999999998
 31
0
  0
LINE
  8
1
 62
7
 10
-4.333333333333322
 20
96.79999999999998
 30
0
 11
-4.333333333333322
 21
88.13333333333333
 31
0
  0
LINE
  8
1
 62
7
 10
4.000000000000011
 20
87.13333333333333
 30
0
 11
-2.999999999999989
 21
87.13333333333333
 31
0
  0
LINE
  8
1
 62
7
 10
4.000000000000011
 20
87.13333333333333
 30
0
 11
4.000000000000011
 21
95.46666666666665
 31
0
  0
LINE
  8
1
 62
7
 10
-3.999999999999989
 20
96.46666666666665
 30
0
 11
3.000000000000011
 21
96.46666666666663
 31
0
  0
LINE
  8
1
 62
7
 10
-3.999999999999989
 20
96.46666666666665
 30
0
 11
-3.999999999999989
 21
88.13333333333331
 31
0
  0
LINE
  8
1
 62
7
 10
-2.833333333333322
 20
94.79999999999998
 30
0
 11
2.833333333333344
 21
94.79999999999998
 31
0
  0
LINE
  8
1
 62
7
 10
2.833333333333344
 20
94.79999999999998
 30
0
 11
2.833333333333344
 21
95.79999999999997
 31
0
  0
LINE
  8
1
 62
7
 10
2.833333333333344
 20
95.79999999999997
 30
0
 11
-2.833333333333322
 21
95.79999999999997
 31
0
  0
LINE
  8
1
 62
7
 10
-2.833333333333322
 20
95.79999999999997
 30
0
 11
-2.833333333333322
 21
94.79999999999998
 31
0
  0
LINE
  8
1
 62
7
 10
-2.833333333333322
 20
87.79999999999998
 30
0
 11
2.833333333333344
 21
87.79999999999998
 31
0
  0
LINE
  8
1
 62
7
 10
2.833333333333344
 20
87.79999999999998
 30
0
 11
2.833333333333344
 21
88.79999999999997
 31
0
  0
LINE
  8
1
 62
7
 10
2.833333333333344
 20
88.79999999999997
 30
0
 11
-2.833333333333322
 21
88.79999999999997
 31
0
  0
LINE
  8
1
 62
7
 10
-2.833333333333322
 20
88.79999999999997
 30
0
 11
-2.833333333333322
 21
87.79999999999998
 31
0
  0
LINE
  8
1
 62
7
 10
-1.083333333333323
 20
91.13333333333333
 30
0
 11
-1.083333333333323
 21
89.13333333333333
 31
0
  0
LINE
  8
1
 62
7
 10
1.083333333333344
 20
91.13333333333333
 30
0
 11
1.083333333333344
 21
89.13333333333333
 31
0
  0
LINE
  8
1
 62
7
 10
-1.083333333333323
 20
89.13333333333333
 30
0
 11
1.083333333333344
 21
89.13333333333333
 31
0
  0
LINE
  8
1
 62
7
 10
-2.833333333333322
 20
94.29999999999998
 30
0
 11
-1.083333333333323
 21
91.13333333333333
 31
0
  0
LINE
  8
1
 62
7
 10
1.083333333333344
 20
91.13333333333333
 30
0
 11
2.833333333333344
 21
94.29999999999998
 31
0
  0
LINE
  8
1
 62
7
 10
-2.833333333333322
 20
94.29999999999998
 30
0
 11
-0.8333333333333226
 21
94.29999999999998
 31
0
  0
LINE
  8
1
 62
7
 10
-0.8333333333333226
 20
94.29999999999998
 30
0
 11
1.06581410364015e-14
 21
92.79206349206348
 31
0
  0
LINE
  8
1
 62
7
 10
1.06581410364015e-14
 20
92.79206349206348
 30
0
 11
0.8333333333333439
 21
94.29999999999998
 31
0
  0
LINE
  8
1
 62
7
 10
0.8333333333333439
 20
94.29999999999998
 30
0
 11
2.833333333333344
 21
94.29999999999998
 31
0
  0
LINE
  8
1
 62
7
 10
-25.44956890143244
 20
100.3504310985676
 30
0
 11
-22.55043109856757
 21
103.2495689014324
 31
0
  0
LINE
  8
1
 62
7
 10
-25.44956890143241
 20
103.2495689014324
 30
0
 11
-22.55043109856757
 21
100.3504310985676
 31
0
  0
LINE
  8
1
 62
7
 10
22.55043109856756
 20
100.3504310985676
 30
0
 11
25.44956890143242
 21
103.2495689014324
 31
0
  0
LINE
  8
1
 62
7
 10
22.55043109856758
 20
103.2495689014324
 30
0
 11
25.44956890143242
 21
100.3504310985676
 31
0
  0
LINE
  8
1
 62
7
 10
-65.1532269185458
 20
103.85
 30
0
 11
-64.40000000000001
 21
101.78052604957
 31
0
  0
LINE
  8
1
 62
7
 10
-64.40000000000001
 20
101.78052604957
 30
0
 11
-65.13905104194565
 21
99.74999999999999
 31
0
  0
LINE
  8
1
 62
7
 10
-67.00000000000001
 20
105.3
 30
0
 11
-67.00000000000001
 21
98.29999999999998
 31
0
  0
LINE
  8
1
 62
7
 10
-67.00000000000001
 20
98.29999999999998
 30
0
 11
-66.01519762301345
 21
98.29999999999998
 31
0
  0
LINE
  8
1
 62
7
 10
-67.00000000000001
 20
105.3
 30
0
 11
-66.02680968756653
 21
105.3
 31
0
  0
LINE
  8
1
 62
2
  6
DASHDOT
 10
8.080341951099969e-15
 20
33.4863156129983
 30
0
 11
6.130512764102036e-15
 21
-33.48631561299831
 31
0
  0
LINE
  8
1
 62
7
 10
-29
 20
16.74315780649914
 30
0
 11
-29
 21
1.4210854715202e-14
 31
0
  0
LINE
  8
1
 62
7
 10
-29
 20
-16.7431578064992
 30
0
 11
6.130512764102036e-15
 21
-33.48631561299831
 31
0
  0
LINE
  8
1
 62
7
 10
6.130512764102036e-15
 20
-33.48631561299831
 30
0
 11
29.00000000000001
 21
-16.7431578064992
 31
0
  0
LINE
  8
1
 62
7
 10
29.00000000000001
 20
-16.7431578064992
 30
0
 11
29.00000000000002
 21
16.74315780649916
 31
0
  0
LINE
  8
1
 62
7
 10
-29
 20
1.4210854715202e-14
 30
0
 11
-29
 21
-16.7431578064992
 31
0
  0
LINE
  8
1
 62
2
  6
DASHDOT
 10
-37.69999999999998
 20
0
 30
0
 11
-34.99999999999999
 21
0
 31
0
  0
LINE
  8
1
 62
2
  6
DASHDOT
 10
9.736569189788827e-15
 20
-52
 30
0
 11
6.130512764102036e-15
 21
-33.48631561299831
 31
0
  0
LINE
  8
1
 62
2
  6
DASHDOT
 10
8.080341951099969e-15
 20
33.4863156129983
 30
0
 11
0
 21
45.39017552683417
 31
0
  0
LINE
  8
1
 62
2
  6
DASHDOT
 10
-34.99999999999999
 20
0
 30
0
 11
22.4275
 21
0
 31
0
  0
LINE
  8
1
 62
2
  6
DASHDOT
 10
35.00000000000001
 20
0
 30
0
 11
37.7
 21
0
 31
0
  0
LINE
  8
1
 62
7
 10
-24.99999999999999
 20
42.79999999999999
 30
0
 11
25.00000000000001
 21
42.79999999999999
 31
0
  0
LINE
  8
1
 62
7
 10
-29
 20
16.74315780649914
 30
0
 11
8.080341951099969e-15
 21
33.4863156129983
 31
0
  0
LINE
  8
1
 62
7
 10
25.00000000000001
 20
42.79999999999999
 30
0
 11
29
 21
42.79999999999999
 31
0
  0
LINE
  8
1
 62
7
 10
8.080341951099969e-15
 20
33.4863156129983
 30
0
 11
29.00000000000002
 21
16.74315780649916
 31
0
  0
LINE
  8
1
 62
7
 10
-34.99999999999999
 20
0
 30
0
 11
-34.99999999999999
 21
11.5011600339041
 31
0
  0
LINE
  8
1
 62
7
 10
25.00000000000001
 20
30.47482599491438
 30
0
 11
25.00000000000001
 21
42.79999999999999
 31
0
  0
LINE
  8
1
 62
7
 10
35.00000000000001
 20
11.5011600339041
 30
0
 11
35.00000000000001
 21
0
 31
0
  0
LINE
  8
1
 62
7
 10
-24.99999999999999
 20
30.47482599491438
 30
0
 11
-24.99999999999999
 21
42.79999999999999
 31
0
  0
LINE
  8
1
 62
7
 10
8.000000000000005
 20
-35.62302626111381
 30
0
 11
8.000000000000007
 21
-52
 31
0
  0
LINE
  8
1
 62
7
 10
-7.999999999999989
 20
-35.62302626111381
 30
0
 11
-7.999999999999992
 21
-52
 31
0
  0
LINE
  8
1
 62
2
  6
DASHDOT
 10
23.9015
 20
0
 30
0
 11
35.00000000000001
 21
0
 31
0
  0
LINE
  8
1
 62
2
  6
DASHDOT
 10
22.4275
 20
0
 30
0
 11
23.9015
 21
0
 31
0
  0
LINE
  8
1
 62
7
 10
-96.96590745876347
 20
-32.40505160155689
 30
0
 11
-97.5901755268342
 21
-33.48631561299831
 31
0
  0
LINE
  8
1
 62
7
 10
-96.96590745876348
 20
32.40505160155695
 30
0
 11
-97.5901755268342
 21
33.48631561299831
 31
0
  0
LINE
  8
1
 62
7
 10
-114.4098244731658
 20
-33.48631561299831
 30
0
 11
-115.0340925412365
 21
-32.40505160155689
 31
0
  0
LINE
  8
1
 62
7
 10
-114.4098244731658
 20
33.48631561299831
 30
0
 11
-115.0340925412365
 21
32.40505160155695
 31
0
  0
LINE
  8
1
 62
7
 10
-114.4098244731658
 20
-33.48631561299831
 30
0
 11
-97.65485124132597
 21
-33.48631561299831
 31
0
  0
LINE
  8
1
 62
7
 10
-114.4098244731658
 20
-16.7431578064992
 30
0
 11
-97.5901755268342
 21
-16.7431578064992
 31
0
  0
LINE
  8
1
 62
7
 10
-114.4098244731658
 20
16.74315780649914
 30
0
 11
-97.5901755268342
 21
16.74315780649914
 31
0
  0
LINE
  8
1
 62
7
 10
-114.4098244731658
 20
33.48631561299831
 30
0
 11
-97.65485124132597
 21
33.4863156129983
 31
0
  0
LINE
  8
1
 62
7
 10
-117
 20
25.06818508247308
 30
0
 11
-117
 21
-25.06818508247309
 31
0
  0
LINE
  8
1
 62
7
 10
-95.00000000000001
 20
25.06818508247308
 30
0
 11
-95.00000000000001
 21
-25.06818508247309
 31
0
  0
LINE
  8
1
 62
7
 10
-202.4098244731658
 20
-33.48631561299831
 30
0
 11
-203.0340925412365
 21
-32.40505160155689
 31
0
  0
LINE
  8
1
 62
7
 10
-202.4098244731658
 20
33.48631561299831
 30
0
 11
-203.0340925412365
 21
32.40505160155695
 31
0
  0
LINE
  8
1
 62
7
 10
-184.9659074587634
 20
-32.40505160155689
 30
0
 11
-185.5901755268342
 21
-33.48631561299831
 31
0
  0
LINE
  8
1
 62
7
 10
-184.9659074587634
 20
32.40505160155695
 30
0
 11
-185.5901755268342
 21
33.48631561299831
 31
0
  0
LINE
  8
1
 62
7
 10
-202.345148758674
 20
-33.48631561299831
 30
0
 11
-185.5901755268342
 21
-33.48631561299831
 31
0
  0
LINE
  8
1
 62
7
 10
-202.4098244731658
 20
-16.7431578064992
 30
0
 11
-185.5901755268342
 21
-16.7431578064992
 31
0
  0
LINE
  8
1
 62
7
 10
-202.4098244731658
 20
16.74315780649914
 30
0
 11
-185.5901755268342
 21
16.74315780649914
 31
0
  0
LINE
  8
1
 62
7
 10
-202.345148758674
 20
33.4863156129983
 30
0
 11
-185.5901755268342
 21
33.48631561299831
 31
0
  0
LINE
  8
1
 62
7
 10
-182.9999999999999
 20
-25.06818508247309
 30
0
 11
-182.9999999999999
 21
25.06818508247308
 31
0
  0
LINE
  8
1
 62
7
 10
-204.9999999999999
 20
-25.06818508247309
 30
0
 11
-204.9999999999999
 21
25.06818508247308
 31
0
  0
LINE
  8
1
 62
7
 10
-125
 20
42.79999999999999
 30
0
 11
-125
 21
31
 31
0
  0
LINE
  8
1
 62
7
 10
-125
 20
42.79999999999999
 30
0
 11
-124.9318149175269
 21
42.79999999999999
 31
0
  0
LINE
  8
1
 62
7
 10
-122
 20
28
 30
0
 11
-119.3094010767585
 21
28
 31
0
  0
LINE
  8
1
 62
7
 10
-116.7113248654052
 20
29.5
 30
0
 11
-115.0340925412365
 21
32.40505160155695
 31
0
  0
LINE
  8
1
 62
7
 10
-175
 20
42.79999999999999
 30
0
 11
-175
 21
31
 31
0
  0
LINE
  8
1
 62
7
 10
-175
 20
42.79999999999999
 30
0
 11
-125
 21
42.79999999999999
 31
0
  0
LINE
  8
1
 62
7
 10
-178
 20
28
 30
0
 11
-180.6905989232415
 21
28
 31
0
  0
LINE
  8
1
 62
7
 10
-183.2886751345948
 20
29.5
 30
0
 11
-184.9659074587634
 21
32.40505160155695
 31
0
  0
LINE
  8
1
 62
7
 10
-184.9659074587634
 20
-32.40505160155689
 30
0
 11
-183.1678648395726
 21
-29.2907504309442
 31
0
  0
LINE
  8
1
 62
7
 10
-116.8321351604274
 20
-29.2907504309442
 30
0
 11
-115.0340925412365
 21
-32.40505160155689
 31
0
  0
LINE
  8
1
 62
7
 10
-142
 20
-36.34788798650561
 30
0
 11
-142
 21
-52
 31
0
  0
LINE
  8
1
 62
7
 10
-142
 20
-52
 30
0
 11
-159.47825254546
 21
-52
 31
0
  0
LINE
  8
1
 62
7
 10
-158
 20
-36.34788798650561
 30
0
 11
-158
 21
-52
 31
0
  0
LINE
  8
1
 62
7
 10
-140
 20
-1.5
 30
0
 11
-138.9206349206349
 21
-3.5
 31
0
  0
LINE
  8
1
 62
7
 10
-138.9206349206349
 20
-3.5
 30
0
 11
-130
 21
-3.5
 31
0
  0
LINE
  8
1
 62
7
 10
-138.9206349206349
 20
3.5
 30
0
 11
-130
 21
3.500000000000028
 31
0
  0
LINE
  8
1
 62
7
 10
-138.9206349206349
 20
3.5
 30
0
 11
-140
 21
1.5
 31
0
  0
ARC
  8
1
 62
7
 10
-24
 20
101.8
 30
0
 40
6
 50
180
 51
270
  0
ARC
  8
1
 62
7
 10
24
 20
101.8
 30
0
 40
6
 50
0
 51
90
  0
ARC
  8
1
 62
7
 10
-150
 20
98.20982447316605
 30
0
 40
55.40982447316605
 50
252.4120462260064
 51
287.5879537739937
  0
ARC
  8
1
 62
7
 10
-124.9318149175269
 20
57.47373303816779
 30
0
 40
14.6737330381678
 50
270
 51
299.9999999999997
  0
ARC
  8
1
 62
7
 10
-175.0681850824731
 20
57.47373303816774
 30
0
 40
14.67373303816775
 50
270
 51
304.5650930945275
  0
ARC
  8
1
 62
7
 10
-150
 20
7.390175526833943
 30
0
 40
55.40982447316604
 50
72.41204622600635
 51
107.5879537739937
  0
ARC
  8
1
 62
7
 10
-124.9318149175269
 20
48.12626696183221
 30
0
 40
14.67373303816778
 50
90
 51
124.5650930945274
  0
ARC
  8
1
 62
7
 10
-175.0681850824731
 20
48.12626696183225
 30
0
 40
14.67373303816774
 50
90
 51
119.9999999999998
  0
ARC
  8
1
 62
7
 10
-175.0681850824731
 20
57.47373303816774
 30
0
 40
14.67373303816771
 50
240.0000000000002
 51
270
  0
ARC
  8
1
 62
7
 10
-124.9318149175269
 20
57.47373303816779
 30
0
 40
14.67373303816783
 50
235.4349069054726
 51
270
  0
ARC
  8
1
 62
7
 10
-124.9318149175269
 20
48.12626696183221
 30
0
 40
14.67373303816775
 50
60.00000000000028
 51
90
  0
ARC
  8
1
 62
7
 10
-175.0681850824731
 20
48.12626696183225
 30
0
 40
14.67373303816778
 50
55.43490690547247
 51
90
  0
ARC
  8
1
 62
7
 10
-14.5
 20
20.91885970427094
 30
0
 40
41.88114029572904
 50
69.74384199958386
 51
110.2561580004161
  0
ARC
  8
1
 62
7
 10
14.49999999999999
 20
20.91885970427087
 30
0
 40
41.88114029572911
 50
69.74384199958386
 51
110.2561580004161
  0
ARC
  8
1
 62
7
 10
14.5
 20
84.68114029572872
 30
0
 40
41.88114029572873
 50
249.7438419995837
 51
290.2561580004163
  0
ARC
  8
1
 62
7
 10
-14.49999999999999
 20
84.68114029572889
 30
0
 40
41.8811402957289
 50
249.7438419995838
 51
290.2561580004162
  0
ARC
  8
1
 62
7
 10
-113.5
 20
115.3
 30
0
 40
1.5
 50
180
 51
270
  0
ARC
  8
1
 62
7
 10
-103.5
 20
115.3
 30
0
 40
1.5
 50
270
 51
0
  0
ARC
  8
1
 62
7
 10
-103.5
 20
88.29999999999998
 30
0
 40
1.5
 50
0
 51
90
  0
ARC
  8
1
 62
7
 10
-113.5
 20
88.29999999999998
 30
0
 40
1.5
 50
90
 51
180
  0
ARC
  8
1
 62
7
 10
-150
 20
-44.93782217350929
 30
0
 40
20.06217782649077
 50
252.4120462260059
 51
287.5879537739942
  0
ARC
  8
1
 62
7
 10
-159.0764118402058
 20
-59.68709665859461
 30
0
 40
5.312903341405391
 50
240
 51
304.5650930945281
  0
ARC
  8
1
 62
7
 10
-140.9235881597942
 20
-59.68709665859461
 30
0
 40
5.312903341405441
 50
235.4349069054719
 51
299.9999999999999
  0
ARC
  8
1
 62
7
 10
-150
 20
-72.06217782649071
 30
0
 40
20.06217782649077
 50
72.41204622600586
 51
107.5879537739941
  0
ARC
  8
1
 62
7
 10
-159.0764118402058
 20
-57.31290334140539
 30
0
 40
5.312903341405441
 50
55.43490690547191
 51
120
  0
ARC
  8
1
 62
7
 10
-140.9235881597942
 20
-57.31290334140539
 30
0
 40
5.312903341405391
 50
60.00000000000002
 51
124.5650930945281
  0
ARC
  8
1
 62
7
 10
-5.25
 20
-49.83613885844341
 30
0
 40
15.16386114155664
 50
249.7438419995833
 51
290.2561580004167
  0
ARC
  8
1
 62
7
 10
5.250000000000002
 20
-49.83613885844341
 30
0
 40
15.16386114155664
 50
249.7438419995833
 51
290.2561580004167
  0
ARC
  8
1
 62
7
 10
-5.25
 20
-67.16386114155659
 30
0
 40
15.16386114155665
 50
69.74384199958327
 51
110.2561580004167
  0
ARC
  8
1
 62
7
 10
5.25
 20
-67.16386114155659
 30
0
 40
15.16386114155665
 50
69.74384199958327
 51
110.2561580004167
  0
ARC
  8
1
 62
7
 10
7.413987119704231e-14
 20
148.5
 30
0
 40
4.5
 50
90
 51
180
  0
ARC
  8
1
 62
7
 10
7.413987119704231e-14
 20
148.5
 30
0
 40
4.499999999999969
 50
0
 51
90
  0
ARC
  8
1
 62
7
 10
-150
 20
148.5000000000001
 30
0
 40
4.5
 50
0
 51
180
  0
ARC
  8
1
 62
7
 10
-150.0000000000001
 20
152.5534180126148
 30
0
 40
9.553418012614706
 50
252.4120462260063
 51
287.5879537739945
  0
ARC
  8
1
 62
7
 10
-154.3221008762885
 20
145.5299539720979
 30
0
 40
2.529953972097855
 50
240.0000000000006
 51
304.5650930945275
  0
ARC
  8
1
 62
7
 10
-145.6778991237116
 20
145.529953972098
 30
0
 40
2.529953972097899
 50
235.434906905474
 51
299.9999999999998
  0
ARC
  8
1
 62
7
 10
-154.3221008762885
 20
145.9700460279022
 30
0
 40
2.5299539720979
 50
90
 51
119.9999999999998
  0
ARC
  8
1
 62
7
 10
-150.0000000000001
 20
138.9465819873853
 30
0
 40
9.553418012614859
 50
72.41204622600573
 51
107.5879537739935
  0
ARC
  8
1
 62
7
 10
-145.6778991237116
 20
145.9700460279022
 30
0
 40
2.5299539720979
 50
90
 51
124.5650930945264
  0
ARC
  8
1
 62
7
 10
-154.3221008762885
 20
145.9700460279022
 30
0
 40
2.529953972097876
 50
55.43490690547362
 51
90
  0
ARC
  8
1
 62
7
 10
-145.6778991237116
 20
145.9700460279022
 30
0
 40
2.529953972097873
 50
59.99999999999853
 51
90
  0
ARC
  8
1
 62
7
 10
-2.499999999999972
 20
150.2208862578834
 30
0
 40
7.220886257883379
 50
249.7438419995809
 51
290.2561580004191
  0
ARC
  8
1
 62
7
 10
2.500000000000028
 20
150.220886257883
 30
0
 40
7.220886257882985
 50
249.7438419995802
 51
290.2561580004198
  0
ARC
  8
1
 62
7
 10
-2.499999999999972
 20
141.2791137421167
 30
0
 40
7.220886257883485
 50
69.74384199958118
 51
110.2561580004188
  0
ARC
  8
1
 62
7
 10
2.500000000000028
 20
141.2791137421171
 30
0
 40
7.220886257883093
 50
69.7438419995805
 51
110.2561580004195
  0
ARC
  8
1
 62
7
 10
-73.40000000000001
 20
101.78052604957
 30
0
 40
8.999999999999986
 50
343.5496001733875
 51
0
  0
ARC
  8
1
 62
7
 10
-73.40000000000001
 20
101.78052604957
 30
0
 40
9
 50
0
 51
16.75281834738654
  0
ARC
  8
1
 62
7
 10
24
 20
101.8
 30
0
 40
6
 50
270
 51
0
  0
ARC
  8
1
 62
7
 10
-24
 20
101.8
 30
0
 40
6
 50
90
 51
180
  0
ARC
  8
1
 62
7
 10
7.673861546209083e-14
 20
0
 30
0
 40
34.99999999999996
 50
285.6803501348392
 51
0
  0
ARC
  8
1
 62
7
 10
28.00000000000001
 20
30.47482599491438
 30
0
 40
3
 50
180
 51
235.5826112895583
  0
ARC
  8
1
 62
7
 10
15.00000000000001
 20
11.5011600339041
 30
0
 40
20
 50
0
 51
55.58261128955846
  0
ARC
  8
1
 62
7
 10
-27.99999999999999
 20
30.47482599491438
 30
0
 40
2.999999999999994
 50
304.4173887104416
 51
0
  0
ARC
  8
1
 62
7
 10
-14.99999999999999
 20
11.50116003390411
 30
0
 40
20
 50
124.4173887104416
 51
180
  0
ARC
  8
1
 62
7
 10
7.673861546209083e-14
 20
0
 30
0
 40
35.00000000000007
 50
180
 51
254.3196498651606
  0
ARC
  8
1
 62
7
 10
-150.4098244731658
 20
-1.4210854715202e-14
 30
0
 40
55.4098244731658
 50
342.4120462260061
 51
17.58795377399379
  0
ARC
  8
1
 62
7
 10
-109.6737330381677
 20
-25.06818508247309
 30
0
 40
14.67373303816768
 50
0
 51
34.56509309452739
  0
ARC
  8
1
 62
7
 10
-109.6737330381678
 20
25.06818508247306
 30
0
 40
14.67373303816778
 50
0
 51
29.99999999999998
  0
ARC
  8
1
 62
7
 10
-61.59017552683422
 20
-1.4210854715202e-14
 30
0
 40
55.40982447316576
 50
162.4120462260062
 51
197.5879537739938
  0
ARC
  8
1
 62
7
 10
-102.3262669618323
 20
-25.06818508247309
 30
0
 40
14.6737330381677
 50
180
 51
209.9999999999999
  0
ARC
  8
1
 62
7
 10
-102.3262669618322
 20
25.06818508247306
 30
0
 40
14.6737330381678
 50
180
 51
214.5650930945273
  0
ARC
  8
1
 62
7
 10
-102.3262669618322
 20
25.06818508247306
 30
0
 40
14.67373303816777
 50
150
 51
180
  0
ARC
  8
1
 62
7
 10
-102.3262669618323
 20
-25.06818508247309
 30
0
 40
14.67373303816767
 50
145.4349069054726
 51
180
  0
ARC
  8
1
 62
7
 10
-109.6737330381678
 20
25.06818508247306
 30
0
 40
14.67373303816777
 50
325.4349069054728
 51
0
  0
ARC
  8
1
 62
7
 10
-109.6737330381677
 20
-25.06818508247309
 30
0
 40
14.67373303816767
 50
330.0000000000001
 51
0
  0
ARC
  8
1
 62
7
 10
-149.5901755268342
 20
-1.4210854715202e-14
 30
0
 40
55.40982447316578
 50
162.4120462260062
 51
197.5879537739938
  0
ARC
  8
1
 62
7
 10
-190.3262669618323
 20
-25.06818508247309
 30
0
 40
14.67373303816768
 50
145.4349069054726
 51
180
  0
ARC
  8
1
 62
7
 10
-190.3262669618322
 20
25.06818508247306
 30
0
 40
14.67373303816777
 50
150
 51
180
  0
ARC
  8
1
 62
7
 10
-238.4098244731657
 20
-1.4210854715202e-14
 30
0
 40
55.40982447316572
 50
342.4120462260061
 51
17.58795377399382
  0
ARC
  8
1
 62
7
 10
-197.6737330381677
 20
-25.06818508247309
 30
0
 40
14.67373303816773
 50
330.0000000000002
 51
0
  0
ARC
  8
1
 62
7
 10
-197.6737330381677
 20
25.06818508247306
 30
0
 40
14.6737330381677
 50
325.4349069054725
 51
0
  0
ARC
  8
1
 62
7
 10
-197.6737330381677
 20
25.06818508247306
 30
0
 40
14.67373303816782
 50
0
 51
30.00000000000001
  0
ARC
  8
1
 62
7
 10
-197.6737330381677
 20
-25.06818508247309
 30
0
 40
14.67373303816782
 50
0
 51
34.56509309452736
  0
ARC
  8
1
 62
7
 10
-190.3262669618322
 20
25.06818508247306
 30
0
 40
14.67373303816768
 50
180
 51
214.5650930945273
  0
ARC
  8
1
 62
7
 10
-190.3262669618323
 20
-25.06818508247309
 30
0
 40
14.6737330381676
 50
180
 51
209.9999999999999
  0
ARC
  8
1
 62
7
 10
-122
 20
31
 30
0
 40
3
 50
180
 51
270
  0
ARC
  8
1
 62
7
 10
-119.3094010767585
 20
31
 30
0
 40
3
 50
270
 51
329.9999999999999
  0
ARC
  8
1
 62
7
 10
-178
 20
31
 30
0
 40
3
 50
270
 51
0
  0
ARC
  8
1
 62
7
 10
-180.6905989232415
 20
31
 30
0
 40
2.999999999999975
 50
210.0000000000003
 51
270
  0
ARC
  8
1
 62
7
 10
-181.4358140320037
 20
-30.2907504309442
 30
0
 40
1.999999999999969
 50
65.9045903938507
 51
150.0000000000003
  0
ARC
  8
1
 62
7
 10
-150
 20
40.00000000000001
 30
0
 40
75.00000000000004
 50
277.4620876856186
 51
294.0954096061498
  0
ARC
  8
1
 62
7
 10
-118.5641859679963
 20
-30.2907504309442
 30
0
 40
2.000000000000016
 50
29.99999999999973
 51
114.0954096061497
  0
ARC
  8
1
 62
7
 10
-150
 20
40.00000000000001
 30
0
 40
75.00000000000006
 50
245.9045903938502
 51
262.5379123143815
  0
CIRCLE
  8
1
 62
7
 10
-24
 20
101.8
 30
0
 40
3.500000000000011
  0
CIRCLE
  8
1
 62
7
 10
24
 20
101.8
 30
0
 40
3.5
  0
CIRCLE
  8
1
 62
7
 10
7.673861546209083e-14
 20
0
 30
0
 40
29.00000000000008
  0
CIRCLE
  8
1
 62
2
 10
7.673861546209083e-14
 20
0
 30
0
 40
23.90149999999992
  0
CIRCLE
  8
1
 62
7
 10
7.673861546209083e-14
 20
0
 30
0
 40
22.42749999999992
  0
ARC
  8
1
 62
7
 10
-20
 20
81.80000000000001
 30
0
 40
2
 50
180
 51
270
  0
ARC
  8
1
 62
7
 10
-20
 20
121.8
 30
0
 40
2
 50
90
 51
180
  0
ARC
  8
1
 62
7
 10
20
 20
121.8
 30
0
 40
2
 50
0
 51
90
  0
ARC
  8
1
 62
7
 10
20
 20
81.80000000000001
 30
0
 40
2
 50
270
 51
0
  0
ARC
  8
1
 62
7
 10
-24
 20
93.8
 30
0
 40
2
 50
0
 51
90
  0
ARC
  8
1
 62
7
 10
-24
 20
109.8
 30
0
 40
2
 50
270
 51
0
  0
ARC
  8
1
 62
7
 10
24
 20
109.8
 30
0
 40
2
 50
180
 51
270
  0
ARC
  8
1
 62
7
 10
24
 20
93.8
 30
0
 40
2
 50
90
 51
180
  0
ARC
  8
1
 62
7
 10
-31
 20
137
 30
0
 40
4
 50
90
 51
180
  0
ARC
  8
1
 62
7
 10
31.00000000000001
 20
137
 30
0
 40
3.999999999999996
 50
0
 51
90
  0
ARC
  8
1
 62
7
 10
-181
 20
137
 30
0
 40
4
 50
90
 51
180
  0
ARC
  8
1
 62
7
 10
-119
 20
137
 30
0
 40
4
 50
0
 51
90
  0
ARC
  8
1
 62
7
 10
-69.00000000000001
 20
121.8
 30
0
 40
2
 50
0
 51
90
  0
ARC
  8
1
 62
7
 10
-69.00000000000001
 20
81.80000000000001
 30
0
 40
2
 50
270
 51
0
  0
ARC
  8
1
 62
7
 10
-100
 20
81.80000000000001
 30
0
 40
2
 50
180
 51
270
  0
ARC
  8
1
 62
7
 10
-100
 20
121.8
 30
0
 40
2
 50
90
 51
180
  0
ARC
  8
1
 62
7
 10
-5
 20
-80
 30
0
 40
2
 50
180
 51
270
  0
ARC
  8
1
 62
7
 10
5
 20
-80
 30
0
 40
2
 50
270
 51
0
  0
ARC
  8
1
 62
7
 10
-155
 20
-80
 30
0
 40
2
 50
180
 51
270
  0
ARC
  8
1
 62
7
 10
-145
 20
-80
 30
0
 40
2
 50
270
 51
0
  0
ARC
  8
1
 62
7
 10
-2.999999999999989
 20
88.1333333333333
 30
0
 40
1.333333333333333
 50
180
 51
270
  0
ARC
  8
1
 62
7
 10
3.000000000000011
 20
95.46666666666665
 30
0
 40
1.333333333333333
 50
0
 51
90
  0
ARC
  8
1
 62
7
 10
-2.999999999999989
 20
88.1333333333333
 30
0
 40
1
 50
180
 51
270
  0
ARC
  8
1
 62
7
 10
3.000000000000011
 20
95.46666666666665
 30
0
 40
0.9999999999999996
 50
0
 51
90
  0
ARC
  8
1
 62
7
 10
-66.02680968756653
 20
104
 30
0
 40
1.299999999999991
 50
16.7528183473855
 51
90
  0
ARC
  8
1
 62
7
 10
-66.01519762301345
 20
99.59999999999998
 30
0
 40
1.299999999999997
 50
270
 51
343.549600173387
  0
ARC
  8
1
 62
7
 10
-9.999999999999989
 20
-35.62302626111381
 30
0
 40
2
 50
0
 51
74.3196498651613
  0
ARC
  8
1
 62
7
 10
10.00000000000001
 20
-35.62302626111381
 30
0
 40
2.000000000000079
 50
105.6803501348389
 51
180
  0
ARC
  8
1
 62
7
 10
-160
 20
-36.34788798650561
 30
0
 40
2
 50
0
 51
82.53791231437994
  0
ARC
  8
1
 62
7
 10
-140
 20
-36.34788798650561
 30
0
 40
2.000000000000011
 50
97.46208768562006
 51
180
  0
TEXT
  8
1
 62
7
 10
49.5559841879804
 20
171.8856644159319
 30
0
 40
3.149999999999999
  1
DWG No.  SV-4005
 41
0.9
  0
TEXT
  8
1
 62
7
 10
49.5559841879804
 20
164.9556644159319
 30
0
 40
3.149999999999999
  1
REV.     00
 41
0.9
  0
TEXT
  8
1
 62
7
 10
49.5559841879804
 20
158.0256644159319
 30
0
 40
3.149999999999999
  1
Yamatake Corporation
 41
0.9
  0
ENDSEC
  0
EOF
