  0
SECTION
  2
HEADER
  9
$ACADVER
  1
AC1009
  9
$INSBASE
 10
0
 20
0
  9
$EXTMIN
 10
-177
 20
-22.49999999999996
  9
$EXTMAX
 10
91.08142985653619
 20
132.7611915320401
  9
$LIMMIN
 10
-177
 20
-22.49999999999996
  9
$LIMMAX
 10
91.08142985653619
 20
132.7611915320401
  9
$VIEWCTR
 10
10
 20
10
  9
$VIEWSIZE
 40
10
  9
$SNAPMODE
 70
0
  9
$SNAPUNIT
 10
1
 20
1
  9
$SNAPBASE
 10
0
 20
0
  9
$SNAPANG
 50
0
  9
$SNAPSTYLE
 70
0
  9
$SNAPISOPAIR
 70
0
  9
$GRIDMODE
 70
0
  9
$GRIDUNIT
 10
0
 20
0
  9
$ORTHOMODE
 70
0
  9
$REGENMODE
 70
1
  9
$FILLMODE
 70
1
  9
$QTEXTMODE
 70
0
  9
$DRAGMODE
 70
2
  9
$LTSCALE
 40
1
  9
$OSMODE
 70
0
  9
$ATTMODE
 70
1
  9
$TEXTSIZE
 40
3.5
  9
$TRACEWID
 40
0.5
  9
$TEXTSTYLE
  7
STANDARD
  9
$CLAYER
  8
0
  9
$CELTYPE
  6
BYLAYER
  9
$CECOLOR
 62
256
  9
$DIMSCALE
 40
1
  9
$DIMASZ
 40
0.18
  9
$DIMEXO
 40
0.0625
  9
$DIMDLI
 40
0.38
  9
$DIMRND
 40
0
  9
$DIMDLE
 40
0
  9
$DIMEXE
 40
0.18
  9
$DIMTP
 40
0
  9
$DIMTM
 40
0
  9
$DIMTXT
 40
0.18
  9
$DIMCEN
 40
0.09
  9
$DIMTSZ
 40
0
  9
$DIMTOL
 70
0
  9
$DIMLIM
 70
0
  9
$DIMTIH
 70
1
  9
$DIMTOH
 70
1
  9
$DIMSE1
 70
0
  9
$DIMSE2
 70
0
  9
$DIMTAD
 70
0
  9
$DIMZIN
 70
0
  9
$DIMBLK
  1

  9
$DIMASO
 70
1
  9
$DIMSHO
 70
1
  9
$DIMPOST
  1

  9
$DIMAPOST
  1

  9
$DIMALT
 70
0
  9
$DIMALTD
 70
2
  9
$DIMALTF
 40
25.4
  9
$DIMLFAC
 40
1
  9
$DIMTOFL
 70
0
  9
$DIMTVP
 40
0
  9
$DIMTIX
 70
0
  9
$DIMSOXD
 70
0
  9
$DIMSAH
 70
0
  9
$DIMBLK1
  1

  9
$DIMBLK2
  1

  9
$DIMSTYLE
  2
*UNNAMED
  9
$DIMCLRD
 70
0
  9
$DIMCLRE
 70
0
  9
$DIMCLRT
 70
0
  9
$DIMTFAC
 40
1
  9
$DIMGAP
 40
0.09
  9
$LUNITS
 70
2
  9
$LUPREC
 70
4
  9
$AXISMODE
 70
0
  9
$AXISUNIT
 10
0
 20
0
  9
$SKETCHINC
 40
0.1
  9
$FILLETRAD
 40
2
  9
$AUNITS
 70
0
  9
$AUPREC
 70
0
  9
$MENU
  1
ACAD
  9
$ELEVATION
 40
0
  9
$THICKNESS
 40
0
  9
$VIEWDIR
 10
0
 20
0
 30
1
  9
$LIMCHECK
 70
0
  9
$BLIPMODE
 70
1
  9
$CHAMFERA
 40
0
  9
$CHAMFERB
 40
0
  9
$FASTZOOM
 70
1
  9
$SKPOLY
 70
0
  9
$ANGBASE
 50
0
  9
$ANGDIR
 70
0
  9
$PDMODE
 70
0
  9
$PDSIZE
 40
0
  9
$PLINEWID
 40
0
  9
$COORDS
 70
2
  0
ENDSEC
  0
SECTION
  2
TABLES
  0
TABLE
  2
DIMSTYLE
 70
0
  0
ENDTAB
  0
TABLE
  2
LTYPE
 70
9
  0
LTYPE
  2
CONTINUOUS
 70
64
  3
Solid line
 72
65
 73
0
 40
0
  0
LTYPE
  2
BORDER
 70
64
  3
__ __ . __ __ .
 72
65
 73
6
 40
12.34585532234048
 49
3.527387234954424
 49
-1.763693617477212
 49
3.527387234954424
 49
-1.763693617477212
 49
0
 49
-1.763693617477212
  0
LTYPE
  2
CENTER
 70
64
  3
____ _ ____ _
 72
65
 73
4
 40
14.10954893981769
 49
8.818468087386059
 49
-1.763693617477212
 49
1.763693617477212
 49
-1.763693617477212
  0
LTYPE
  2
DASHDOT
 70
64
  3
__ . __ . __ .
 72
65
 73
4
 40
7.054774469908847
 49
3.527387234954424
 49
-1.763693617477212
 49
0
 49
-1.763693617477212
  0
LTYPE
  2
DASHED
 70
64
  3
__ __ __ __ __
 72
65
 73
2
 40
5.291080852431636
 49
3.527387234954424
 49
-1.763693617477212
  0
LTYPE
  2
DIVIDE
 70
64
  3
__ . . __ . . 
 72
65
 73
6
 40
8.818468087386059
 49
3.527387234954424
 49
-1.763693617477212
 49
0
 49
-1.763693617477212
 49
0
 49
-1.763693617477212
  0
LTYPE
  2
DOT
 70
64
  3
..............
 72
65
 73
4
 40
3.527387234954424
 49
0
 49
-1.763693617477212
 49
0
 49
-1.763693617477212
  0
LTYPE
  2
HIDDEN
 70
64
  3
_ _ _ _ _ _ _
 72
65
 73
2
 40
2.645540426215818
 49
1.763693617477212
 49
-0.8818468087386059
  0
LTYPE
  2
PHANTOM
 70
64
  3
_____ _ _ _____ _ _ 
 72
65
 73
6
 40
17.63693617477212
 49
8.818468087386059
 49
-1.763693617477212
 49
1.763693617477212
 49
-1.763693617477212
 49
1.763693617477212
 49
-1.763693617477212
  0
ENDTAB
  0
TABLE
  2
LAYER
 70
3
  0
LAYER
  2
1
 70
0
 62
7
  6
CONTINUOUS
  0
LAYER
  2
0
 70
0
 62
7
  6
CONTINUOUS
  0
ENDTAB
  0
TABLE
  2
STYLE
 70
4
  0
STYLE
  2
STANDARD
 70
0
 40
0
 41
1
 50
0
 71
0
 42
3.5
  3
txt
  4

  0
STYLE
  2
SIMPLEX
 70
0
 40
0
 41
1
 50
0
 71
0
 42
3.5
  3
simplex
  4

  0
STYLE
  2
COMPLEX
 70
0
 40
0
 41
1
 50
0
 71
0
 42
3.5
  3
complex
  4

  0
STYLE
  2
ITALIC
 70
0
 40
0
 41
1
 50
0
 71
0
 42
3.5
  3
italic
  4

  0
ENDTAB
  0
TABLE
  2
VIEW
 70
0
  0
ENDTAB
  0
ENDSEC
  0
SECTION
  2
BLOCKS
  0
ENDSEC
  0
SECTION
  2
ENTITIES
  0
LINE
  8
1
 62
2
  6
DASHDOT
 10
9.3155
 20
0
 30
0
 11
10.4775
 21
0
 31
0
  0
LINE
  8
1
 62
2
  6
DASHDOT
 10
10.4775
 20
0
 30
0
 11
19
 21
0
 31
0
  0
LINE
  8
1
 62
7
 10
-63
 20
55
 30
0
 11
-62.02680968756652
 21
55
 31
0
  0
LINE
  8
1
 62
7
 10
-63
 20
48
 30
0
 11
-62.01519762301344
 21
48
 31
0
  0
LINE
  8
1
 62
7
 10
-63
 20
55
 30
0
 11
-63
 21
48
 31
0
  0
LINE
  8
1
 62
7
 10
-60.4
 20
51.48052604957006
 30
0
 11
-61.13905104194563
 21
49.45
 31
0
  0
LINE
  8
1
 62
7
 10
-61.15322691854578
 20
53.55
 30
0
 11
-60.4
 21
51.48052604957006
 31
0
  0
LINE
  8
1
 62
7
 10
-20
 20
73.5
 30
0
 11
20
 21
73.5
 31
0
  0
LINE
  8
1
 62
7
 10
-22
 20
59.5
 30
0
 11
-22
 21
71.5
 31
0
  0
LINE
  8
1
 62
2
  6
DASHDOT
 10
-24
 20
59.5
 30
0
 11
-24
 21
43.75403330758517
 31
0
  0
LINE
  8
1
 62
7
 10
-22
 20
43.5
 30
0
 11
-22
 21
31.5
 31
0
  0
LINE
  8
1
 62
7
 10
-20
 20
29.5
 30
0
 11
20
 21
29.5
 31
0
  0
LINE
  8
1
 62
7
 10
22
 20
43.5
 30
0
 11
22
 21
31.5
 31
0
  0
LINE
  8
1
 62
2
  6
DASHDOT
 10
24
 20
43.5
 30
0
 11
24
 21
59.5
 31
0
  0
LINE
  8
1
 62
7
 10
22
 20
59.5
 30
0
 11
22
 21
71.5
 31
0
  0
LINE
  8
1
 62
7
 10
22.55043109856756
 20
50.05043109856758
 30
0
 11
25.44956890143242
 21
52.9495689014324
 31
0
  0
LINE
  8
1
 62
7
 10
22.55043109856758
 20
52.9495689014324
 30
0
 11
25.44956890143242
 21
50.05043109856756
 31
0
  0
LINE
  8
1
 62
7
 10
-25.44956890143244
 20
50.05043109856758
 30
0
 11
-22.55043109856757
 21
52.9495689014324
 31
0
  0
LINE
  8
1
 62
7
 10
-25.44956890143241
 20
52.9495689014324
 30
0
 11
-22.55043109856757
 21
50.05043109856756
 31
0
  0
LINE
  8
1
 62
7
 10
-4.333333333333333
 20
46.5
 30
0
 11
3
 21
46.5
 31
0
  0
LINE
  8
1
 62
7
 10
4.333333333333333
 20
36.5
 30
0
 11
4.333333333333333
 21
45.16666666666666
 31
0
  0
LINE
  8
1
 62
7
 10
4.333333333333333
 20
36.5
 30
0
 11
-3
 21
36.5
 31
0
  0
LINE
  8
1
 62
7
 10
-4.333333333333333
 20
46.5
 30
0
 11
-4.333333333333333
 21
37.83333333333334
 31
0
  0
LINE
  8
1
 62
7
 10
4
 20
36.83333333333334
 30
0
 11
-3
 21
36.83333333333334
 31
0
  0
LINE
  8
1
 62
7
 10
4
 20
36.83333333333334
 30
0
 11
4
 21
45.16666666666666
 31
0
  0
LINE
  8
1
 62
7
 10
-4
 20
46.16666666666666
 30
0
 11
3
 21
46.16666666666666
 31
0
  0
LINE
  8
1
 62
7
 10
-4
 20
46.16666666666666
 30
0
 11
-4
 21
37.83333333333334
 31
0
  0
LINE
  8
1
 62
7
 10
-2.833333333333333
 20
44.5
 30
0
 11
2.833333333333333
 21
44.5
 31
0
  0
LINE
  8
1
 62
7
 10
2.833333333333333
 20
44.5
 30
0
 11
2.833333333333333
 21
45.5
 31
0
  0
LINE
  8
1
 62
7
 10
2.833333333333333
 20
45.5
 30
0
 11
-2.833333333333333
 21
45.5
 31
0
  0
LINE
  8
1
 62
7
 10
-2.833333333333333
 20
45.5
 30
0
 11
-2.833333333333333
 21
44.5
 31
0
  0
LINE
  8
1
 62
7
 10
-2.833333333333333
 20
37.5
 30
0
 11
2.833333333333333
 21
37.5
 31
0
  0
LINE
  8
1
 62
7
 10
2.833333333333333
 20
37.5
 30
0
 11
2.833333333333333
 21
38.5
 31
0
  0
LINE
  8
1
 62
7
 10
2.833333333333333
 20
38.5
 30
0
 11
-2.833333333333333
 21
38.5
 31
0
  0
LINE
  8
1
 62
7
 10
-2.833333333333333
 20
38.5
 30
0
 11
-2.833333333333333
 21
37.5
 31
0
  0
LINE
  8
1
 62
7
 10
-1.083333333333333
 20
40.83333333333334
 30
0
 11
-1.083333333333333
 21
38.83333333333334
 31
0
  0
LINE
  8
1
 62
7
 10
1.083333333333333
 20
40.83333333333334
 30
0
 11
1.083333333333333
 21
38.83333333333334
 31
0
  0
LINE
  8
1
 62
7
 10
-1.083333333333333
 20
38.83333333333334
 30
0
 11
1.083333333333333
 21
38.83333333333334
 31
0
  0
LINE
  8
1
 62
7
 10
-2.833333333333333
 20
44
 30
0
 11
-1.083333333333333
 21
40.83333333333334
 31
0
  0
LINE
  8
1
 62
7
 10
1.083333333333333
 20
40.83333333333334
 30
0
 11
2.833333333333333
 21
44
 31
0
  0
LINE
  8
1
 62
7
 10
-2.833333333333333
 20
44
 30
0
 11
-0.8333333333333333
 21
44
 31
0
  0
LINE
  8
1
 62
7
 10
-0.8333333333333333
 20
44
 30
0
 11
0
 21
42.49206349206349
 31
0
  0
LINE
  8
1
 62
7
 10
0
 20
42.49206349206349
 30
0
 11
0.8333333333333333
 21
44
 31
0
  0
LINE
  8
1
 62
7
 10
0.8333333333333333
 20
44
 30
0
 11
2.833333333333333
 21
44
 31
0
  0
LINE
  8
1
 62
7
 10
-69.5
 20
73.5
 30
0
 11
-68
 21
73.5
 31
0
  0
LINE
  8
1
 62
7
 10
-69.5
 20
29.5
 30
0
 11
-96
 21
29.5
 31
0
  0
LINE
  8
1
 62
7
 10
-69.5
 20
29.5
 30
0
 11
-69.5
 21
73.5
 31
0
  0
LINE
  8
1
 62
7
 10
-68
 20
29.5
 30
0
 11
-69.5
 21
29.5
 31
0
  0
LINE
  8
1
 62
7
 10
-68
 20
73.5
 30
0
 11
-65
 21
73.5
 31
0
  0
LINE
  8
1
 62
7
 10
-68
 20
73.5
 30
0
 11
-68
 21
29.5
 31
0
  0
LINE
  8
1
 62
7
 10
-99.5
 20
39.5
 30
0
 11
-109.25
 21
39.5
 31
0
  0
LINE
  8
1
 62
7
 10
-98
 20
38
 30
0
 11
-98
 21
65
 31
0
  0
LINE
  8
1
 62
7
 10
-110.75
 20
38
 30
0
 11
-110.75
 21
29.625
 31
0
  0
LINE
  8
1
 62
7
 10
-98
 20
65
 30
0
 11
-98
 21
71.5
 31
0
  0
LINE
  8
1
 62
7
 10
-109.25
 20
63.5
 30
0
 11
-99.5
 21
63.5
 31
0
  0
LINE
  8
1
 62
7
 10
-110.75
 20
65
 30
0
 11
-110.75
 21
38
 31
0
  0
LINE
  8
1
 62
7
 10
-98
 20
31.5
 30
0
 11
-98
 21
38
 31
0
  0
LINE
  8
1
 62
7
 10
-65
 20
29.5
 30
0
 11
-68
 21
29.5
 31
0
  0
LINE
  8
1
 62
7
 10
-63
 20
71.5
 30
0
 11
-63
 21
31.5
 31
0
  0
LINE
  8
1
 62
7
 10
-96
 20
73.5
 30
0
 11
-69.5
 21
73.5
 31
0
  0
LINE
  8
1
 62
7
 10
29.25
 20
48.59526249034444
 30
0
 11
29.25
 21
29.625
 31
0
  0
LINE
  8
1
 62
7
 10
-29.25
 20
48.59526249034444
 30
0
 11
-29.25
 21
29.625
 31
0
  0
LINE
  8
1
 62
2
  6
DASHDOT
 10
-31.25
 20
51.5
 30
0
 11
31.25
 21
51.5
 31
0
  0
LINE
  8
1
 62
7
 10
-115
 20
77.5
 30
0
 11
-115
 21
78
 31
0
  0
LINE
  8
1
 62
7
 10
-115
 20
78
 30
0
 11
-165
 21
78
 31
0
  0
LINE
  8
1
 62
7
 10
-165
 20
78
 30
0
 11
-165
 21
77.5
 31
0
  0
LINE
  8
1
 62
7
 10
-165.25
 20
77.5
 30
0
 11
-114.75
 21
77.5
 31
0
  0
LINE
  8
1
 62
7
 10
-110
 20
24.3
 30
0
 11
-110
 21
28.97499999999999
 31
0
  0
LINE
  8
1
 62
7
 10
-170
 20
24.3
 30
0
 11
-170
 21
28.97499999999999
 31
0
  0
LINE
  8
1
 62
2
  6
DASHDOT
 10
-171.25
 20
51.5
 30
0
 11
-112.75
 21
51.5
 31
0
  0
LINE
  8
1
 62
2
  6
DASHDOT
 10
-140
 20
91.50000000000001
 30
0
 11
-140
 21
-22.49999999999996
 31
0
  0
LINE
  8
1
 62
7
 10
-169.575
 20
29.3
 30
0
 11
-169.675
 21
29.3
 31
0
  0
LINE
  8
1
 62
7
 10
-169.25
 20
73.5
 30
0
 11
-169.25
 21
29.625
 31
0
  0
LINE
  8
1
 62
7
 10
-110.75
 20
73.5
 30
0
 11
-110.75
 21
65
 31
0
  0
LINE
  8
1
 62
7
 10
-110.425
 20
29.3
 30
0
 11
-110.325
 21
29.3
 31
0
  0
LINE
  8
1
 62
7
 10
-113.25
 20
29.5
 30
0
 11
-166.25
 21
29.5
 31
0
  0
LINE
  8
1
 62
7
 10
26.75
 20
29.5
 30
0
 11
20
 21
29.5
 31
0
  0
LINE
  8
1
 62
7
 10
29.575
 20
29.3
 30
0
 11
29.675
 21
29.3
 31
0
  0
LINE
  8
1
 62
7
 10
-29.57499999999999
 20
29.3
 30
0
 11
-29.67500000000001
 21
29.3
 31
0
  0
LINE
  8
1
 62
7
 10
-30
 20
24.3
 30
0
 11
-30
 21
28.97499999999999
 31
0
  0
LINE
  8
1
 62
7
 10
30
 20
24.3
 30
0
 11
30
 21
28.97499999999999
 31
0
  0
LINE
  8
1
 62
7
 10
29.25
 20
73.5
 30
0
 11
29.25
 21
54.40473750965556
 31
0
  0
LINE
  8
1
 62
7
 10
-29.25
 20
73.5
 30
0
 11
-29.25
 21
54.40473750965556
 31
0
  0
LINE
  8
1
 62
7
 10
-25.25
 20
77.5
 30
0
 11
25.25
 21
77.5
 31
0
  0
LINE
  8
1
 62
7
 10
-25
 20
78
 30
0
 11
-25
 21
77.5
 31
0
  0
LINE
  8
1
 62
7
 10
25
 20
78
 30
0
 11
0
 21
78
 31
0
  0
LINE
  8
1
 62
7
 10
25
 20
77.5
 30
0
 11
25
 21
78
 31
0
  0
LINE
  8
1
 62
7
 10
-26.25
 20
29.5
 30
0
 11
-20
 21
29.5
 31
0
  0
LINE
  8
1
 62
7
 10
30
 20
24.3
 30
0
 11
14
 21
24.3
 31
0
  0
LINE
  8
1
 62
2
  6
DASHDOT
 10
0
 20
-19.52713857098597
 30
0
 11
0
 21
14
 31
0
  0
LINE
  8
1
 62
2
  6
DASHDOT
 10
-112.75
 20
51.5
 30
0
 11
-57.99999999999998
 21
51.5
 31
0
  0
LINE
  8
1
 62
7
 10
-4.25
 20
84.25
 30
0
 11
-4.25
 21
82.5
 31
0
  0
LINE
  8
1
 62
7
 10
-4.25
 20
82.5
 30
0
 11
0
 21
82.5
 31
0
  0
LINE
  8
1
 62
7
 10
4.25
 20
82.5
 30
0
 11
4.25
 21
84.25
 31
0
  0
LINE
  8
1
 62
7
 10
-5
 20
78
 30
0
 11
-5
 21
78.4465819873852
 31
0
  0
LINE
  8
1
 62
7
 10
-5
 20
82.5
 30
0
 11
-4.25
 21
82.5
 31
0
  0
LINE
  8
1
 62
7
 10
4.25
 20
82.5
 30
0
 11
5
 21
82.5
 31
0
  0
LINE
  8
1
 62
7
 10
5
 20
82.5
 30
0
 11
5
 21
82.0534180126148
 31
0
  0
LINE
  8
1
 62
2
  6
DASHDOT
 10
0
 20
91.5
 30
0
 11
0
 21
82.0534180126148
 31
0
  0
LINE
  8
1
 62
7
 10
0
 20
82.5
 30
0
 11
4.25
 21
82.5
 31
0
  0
LINE
  8
1
 62
7
 10
0
 20
78
 30
0
 11
-25
 21
78
 31
0
  0
LINE
  8
1
 62
7
 10
-134.2264973081037
 20
78.4465819873852
 30
0
 11
-134.4129221376626
 21
78.33894956185577
 31
0
  0
LINE
  8
1
 62
7
 10
-145.5870778623374
 20
78.33894956185577
 30
0
 11
-145.7735026918963
 21
78.4465819873852
 31
0
  0
LINE
  8
1
 62
7
 10
-145.5870778623374
 20
82.16105043814423
 30
0
 11
-145.7735026918963
 21
82.0534180126148
 31
0
  0
LINE
  8
1
 62
7
 10
-134.4129221376626
 20
82.16105043814423
 30
0
 11
-134.2264973081037
 21
82.0534180126148
 31
0
  0
LINE
  8
1
 62
7
 10
-145.7735026918963
 20
82.0534180126148
 30
0
 11
-145.7735026918963
 21
78.4465819873852
 31
0
  0
LINE
  8
1
 62
7
 10
-142.8867513459481
 20
82.0534180126148
 30
0
 11
-142.8867513459481
 21
78.4465819873852
 31
0
  0
LINE
  8
1
 62
7
 10
-137.1132486540519
 20
82.0534180126148
 30
0
 11
-137.1132486540519
 21
78.4465819873852
 31
0
  0
LINE
  8
1
 62
7
 10
-134.2264973081037
 20
82.0534180126148
 30
0
 11
-134.2264973081037
 21
78.4465819873852
 31
0
  0
LINE
  8
1
 62
7
 10
-144.3221008762885
 20
82.5
 30
0
 11
-144.25
 21
82.5
 31
0
  0
LINE
  8
1
 62
7
 10
-5
 20
82.0534180126148
 30
0
 11
-5
 21
82.5
 31
0
  0
LINE
  8
1
 62
7
 10
5
 20
82.0534180126148
 30
0
 11
5
 21
78.4465819873852
 31
0
  0
LINE
  8
1
 62
2
  6
DASHDOT
 10
0
 20
78.4465819873852
 30
0
 11
0
 21
82.0534180126148
 31
0
  0
LINE
  8
1
 62
7
 10
5
 20
78.4465819873852
 30
0
 11
5
 21
78
 31
0
  0
LINE
  8
1
 62
7
 10
-5
 20
78.4465819873852
 30
0
 11
-5
 21
82.0534180126148
 31
0
  0
LINE
  8
1
 62
7
 10
0
 20
82.0534180126148
 30
0
 11
0
 21
78.4465819873852
 31
0
  0
LINE
  8
1
 62
2
  6
DASHDOT
 10
0
 20
78
 30
0
 11
0
 21
78.4465819873852
 31
0
  0
LINE
  8
1
 62
7
 10
-144.25
 20
84.25
 30
0
 11
-144.25
 21
82.5
 31
0
  0
LINE
  8
1
 62
7
 10
-144.25
 20
82.5
 30
0
 11
-135.75
 21
82.5
 31
0
  0
LINE
  8
1
 62
7
 10
-135.75
 20
84.25
 30
0
 11
-135.75
 21
82.5
 31
0
  0
LINE
  8
1
 62
7
 10
-135.75
 20
82.5
 30
0
 11
-135.6778991237115
 21
82.5
 31
0
  0
LINE
  8
1
 62
7
 10
0
 20
16.16580753730953
 30
0
 11
-5.4833395016046
 21
13
 31
0
  0
LINE
  8
1
 62
7
 10
-14.00000000000001
 20
8.082903768654759
 30
0
 11
-14.00000000000001
 21
-8.082903768654759
 31
0
  0
LINE
  8
1
 62
7
 10
-14.00000000000001
 20
-8.082903768654759
 30
0
 11
-4.44956571588051e-16
 21
-16.16580753730952
 31
0
  0
LINE
  8
1
 62
7
 10
-4.44956571588051e-16
 20
-16.16580753730952
 30
0
 11
14.00000000000001
 21
-8.082903768654759
 31
0
  0
LINE
  8
1
 62
7
 10
14.00000000000001
 20
-8.082903768654759
 30
0
 11
14.00000000000001
 21
8.082903768654759
 31
0
  0
LINE
  8
1
 62
7
 10
14.00000000000001
 20
8.082903768654759
 30
0
 11
5.4833395016046
 21
13
 31
0
  0
LINE
  8
1
 62
2
  6
DASHDOT
 10
0
 20
14
 30
0
 11
0
 21
78
 31
0
  0
LINE
  8
1
 62
7
 10
-105.9490587731962
 20
-15.64381801454473
 30
0
 11
-106.2504295646786
 21
-16.16580753730952
 31
0
  0
LINE
  8
1
 62
7
 10
-105.9490587731962
 20
15.64381801454474
 30
0
 11
-106.2504295646786
 21
16.16580753730953
 31
0
  0
LINE
  8
1
 62
7
 10
-119.7495704353214
 20
-16.16580753730952
 30
0
 11
-120.0509412268038
 21
-15.64381801454473
 31
0
  0
LINE
  8
1
 62
7
 10
-119.7495704353214
 20
16.16580753730953
 30
0
 11
-120.0509412268038
 21
15.64381801454474
 31
0
  0
LINE
  8
1
 62
7
 10
-119.7495704353214
 20
16.16580753730953
 30
0
 11
-105.9490587731962
 21
16.16580753730953
 31
0
  0
LINE
  8
1
 62
7
 10
-106.2504295646786
 20
8.082903768654759
 30
0
 11
-119.7495704353214
 21
8.082903768654759
 31
0
  0
LINE
  8
1
 62
7
 10
-119.7495704353214
 20
-8.082903768654759
 30
0
 11
-106.2504295646786
 21
-8.082903768654759
 31
0
  0
LINE
  8
1
 62
7
 10
-119.7495704353214
 20
-16.16580753730952
 30
0
 11
-106.2504295646786
 21
-16.16580753730952
 31
0
  0
LINE
  8
1
 62
7
 10
-121
 20
12.10188245360769
 30
0
 11
-121
 21
-12.10188245360769
 31
0
  0
LINE
  8
1
 62
7
 10
-105
 20
12.10188245360769
 30
0
 11
-105
 21
-12.10188245360769
 31
0
  0
LINE
  8
1
 62
7
 10
-173.7495704353215
 20
-16.16580753730952
 30
0
 11
-174.0509412268039
 21
-15.64381801454473
 31
0
  0
LINE
  8
1
 62
7
 10
-173.7495704353215
 20
16.16580753730953
 30
0
 11
-174.0509412268039
 21
15.64381801454474
 31
0
  0
LINE
  8
1
 62
7
 10
-159.9490587731962
 20
-15.64381801454473
 30
0
 11
-160.2504295646786
 21
-16.16580753730952
 31
0
  0
LINE
  8
1
 62
7
 10
-159.9490587731962
 20
15.64381801454474
 30
0
 11
-160.2504295646786
 21
16.16580753730953
 31
0
  0
LINE
  8
1
 62
7
 10
-174.0509412268039
 20
16.16580753730953
 30
0
 11
-160.2504295646786
 21
16.16580753730953
 31
0
  0
LINE
  8
1
 62
7
 10
-160.2504295646786
 20
8.082903768654759
 30
0
 11
-173.7495704353215
 21
8.082903768654759
 31
0
  0
LINE
  8
1
 62
7
 10
-173.7495704353215
 20
-8.082903768654759
 30
0
 11
-160.2504295646786
 21
-8.082903768654759
 31
0
  0
LINE
  8
1
 62
7
 10
-173.7495704353215
 20
-16.16580753730952
 30
0
 11
-160.2504295646786
 21
-16.16580753730952
 31
0
  0
LINE
  8
1
 62
7
 10
-159
 20
-12.10188245360769
 30
0
 11
-159
 21
12.10188245360769
 31
0
  0
LINE
  8
1
 62
7
 10
-175
 20
-12.10188245360769
 30
0
 11
-175
 21
12.10188245360769
 31
0
  0
LINE
  8
1
 62
2
  6
DASHDOT
 10
-177
 20
0
 30
0
 11
-103
 21
0
 31
0
  0
LINE
  8
1
 62
2
  6
DASHDOT
 10
-19
 20
0
 30
0
 11
9.3155
 21
0
 31
0
  0
LINE
  8
1
 62
7
 10
-159.9490587731962
 20
-15.64381801454473
 30
0
 11
-159.4445508949892
 21
-14.76998473667149
 31
0
  0
LINE
  8
1
 62
7
 10
-120.5554491050108
 20
-14.76998473667149
 30
0
 11
-120.0509412268038
 21
-15.64381801454473
 31
0
  0
LINE
  8
1
 62
7
 10
-120.3349364905389
 20
15.15192378864669
 30
0
 11
-120.0509412268038
 21
15.64381801454474
 31
0
  0
LINE
  8
1
 62
7
 10
-154
 20
24.3
 30
0
 11
-170
 21
24.3
 31
0
  0
LINE
  8
1
 62
7
 10
-159.6650635094611
 20
15.15192378864666
 30
0
 11
-159.9490587731962
 21
15.64381801454474
 31
0
  0
LINE
  8
1
 62
7
 10
-144
 20
-2.343297503588801
 30
0
 11
-149
 21
0.1567024964111994
 31
0
  0
LINE
  8
1
 62
7
 10
-144
 20
-0.8432975035888006
 30
0
 11
-144
 21
-2.343297503588801
 31
0
  0
LINE
  8
1
 62
7
 10
-137
 20
-0.8432975035888006
 30
0
 11
-144
 21
-0.8432975035888006
 31
0
  0
LINE
  8
1
 62
7
 10
-136
 20
-2.343297503588801
 30
0
 11
-137
 21
-0.8432975035888006
 31
0
  0
LINE
  8
1
 62
7
 10
-131
 20
-2.343297503588801
 30
0
 11
-136
 21
-2.343297503588801
 31
0
  0
LINE
  8
1
 62
7
 10
-132
 20
0.1567024964111994
 30
0
 11
-131
 21
-2.343297503588801
 31
0
  0
LINE
  8
1
 62
7
 10
-131
 20
2.656702496411199
 30
0
 11
-132
 21
0.1567024964111994
 31
0
  0
LINE
  8
1
 62
7
 10
-136
 20
2.656702496411199
 30
0
 11
-131
 21
2.656702496411199
 31
0
  0
LINE
  8
1
 62
7
 10
-137
 20
1.156702496411199
 30
0
 11
-136
 21
2.656702496411199
 31
0
  0
LINE
  8
1
 62
7
 10
-144
 20
1.156702496411199
 30
0
 11
-137
 21
1.156702496411199
 31
0
  0
LINE
  8
1
 62
7
 10
-144
 20
2.656702496411199
 30
0
 11
-144
 21
1.156702496411199
 31
0
  0
LINE
  8
1
 62
7
 10
-149
 20
0.1567024964111994
 30
0
 11
-144
 21
2.656702496411199
 31
0
  0
LINE
  8
1
 62
7
 10
5.4833395016046
 20
13
 30
0
 11
10.5
 21
13
 31
0
  0
LINE
  8
1
 62
7
 10
5.4833395016046
 20
13
 30
0
 11
0
 21
16.16580753730953
 31
0
  0
LINE
  8
1
 62
7
 10
17.5
 20
6
 30
0
 11
17.5
 21
0
 31
0
  0
LINE
  8
1
 62
7
 10
-17.5
 20
0
 30
0
 11
-17.5
 21
6
 31
0
  0
LINE
  8
1
 62
7
 10
-10.5
 20
13
 30
0
 11
-5.4833395016046
 21
13
 31
0
  0
LINE
  8
1
 62
7
 10
-5.4833395016046
 20
13
 30
0
 11
-14.00000000000001
 21
8.082903768654759
 31
0
  0
LINE
  8
1
 62
7
 10
-15
 20
11.36190264738181
 30
0
 11
-15
 21
24
 31
0
  0
LINE
  8
1
 62
7
 10
-15
 20
24
 30
0
 11
-14
 21
24
 31
0
  0
LINE
  8
1
 62
7
 10
15
 20
24
 30
0
 11
15
 21
11.36190264738181
 31
0
  0
LINE
  8
1
 62
7
 10
-14
 20
24
 30
0
 11
-14
 21
24.3
 31
0
  0
LINE
  8
1
 62
7
 10
-14
 20
24
 30
0
 11
14
 21
24
 31
0
  0
LINE
  8
1
 62
7
 10
-14
 20
24.3
 30
0
 11
-30
 21
24.3
 31
0
  0
LINE
  8
1
 62
7
 10
14
 20
24
 30
0
 11
14
 21
24.3
 31
0
  0
LINE
  8
1
 62
7
 10
14
 20
24
 30
0
 11
15
 21
24
 31
0
  0
LINE
  8
1
 62
7
 10
14
 20
24.3
 30
0
 11
-14
 21
24.3
 31
0
  0
LINE
  8
1
 62
7
 10
-155
 20
24
 30
0
 11
-154
 21
24
 31
0
  0
LINE
  8
1
 62
7
 10
-155
 20
24
 30
0
 11
-155
 21
16.40192378864666
 31
0
  0
LINE
  8
1
 62
7
 10
-125
 20
24
 30
0
 11
-125
 21
16.40192378864669
 31
0
  0
LINE
  8
1
 62
7
 10
-154
 20
24.3
 30
0
 11
-154
 21
24
 31
0
  0
LINE
  8
1
 62
7
 10
-154
 20
24.3
 30
0
 11
-126
 21
24.3
 31
0
  0
LINE
  8
1
 62
7
 10
-154
 20
24
 30
0
 11
-126
 21
24
 31
0
  0
LINE
  8
1
 62
7
 10
-126
 20
24.3
 30
0
 11
-126
 21
24
 31
0
  0
LINE
  8
1
 62
7
 10
-126
 20
24.3
 30
0
 11
-110
 21
24.3
 31
0
  0
LINE
  8
1
 62
7
 10
-126
 20
24
 30
0
 11
-125
 21
24
 31
0
  0
ARC
  8
1
 62
7
 10
0
 20
84.25
 30
0
 40
4.25
 50
0
 51
90
  0
ARC
  8
1
 62
7
 10
0
 20
0
 30
0
 40
17.5
 50
180
 51
270
  0
ARC
  8
1
 62
7
 10
-69.40000000000001
 20
51.48052604957006
 30
0
 40
9.000000000000007
 50
0
 51
16.7528183473863
  0
ARC
  8
1
 62
7
 10
-69.40000000000001
 20
51.48052604957006
 30
0
 40
9.000000000000011
 50
343.5496001733873
 51
0
  0
ARC
  8
1
 62
7
 10
-24
 20
59.5
 30
0
 40
2
 50
270
 51
0
  0
ARC
  8
1
 62
7
 10
-24
 20
51.5
 30
0
 40
6
 50
90
 51
270
  0
ARC
  8
1
 62
7
 10
-24
 20
43.5
 30
0
 40
2
 50
0
 51
90
  0
ARC
  8
1
 62
7
 10
24
 20
43.5
 30
0
 40
2
 50
90
 51
180
  0
ARC
  8
1
 62
7
 10
24
 20
51.5
 30
0
 40
6
 50
270
 51
90
  0
ARC
  8
1
 62
7
 10
24
 20
59.5
 30
0
 40
2
 50
180
 51
270
  0
ARC
  8
1
 62
7
 10
-99.5
 20
38
 30
0
 40
1.5
 50
0
 51
90
  0
ARC
  8
1
 62
7
 10
-109.25
 20
38
 30
0
 40
1.5
 50
90
 51
180
  0
ARC
  8
1
 62
7
 10
-99.5
 20
65
 30
0
 40
1.5
 50
270
 51
0
  0
ARC
  8
1
 62
7
 10
-109.25
 20
65
 30
0
 40
1.5
 50
180
 51
270
  0
ARC
  8
1
 62
7
 10
0
 20
84.25
 30
0
 40
4.25
 50
90
 51
180
  0
ARC
  8
1
 62
7
 10
-140
 20
72.94658198738527
 30
0
 40
9.553418012614729
 50
72.4120462260062
 51
107.5879537739938
  0
ARC
  8
1
 62
7
 10
-140
 20
87.55341801261494
 30
0
 40
9.553418012614932
 50
252.4120462260066
 51
287.5879537739934
  0
ARC
  8
1
 62
7
 10
-135.6778991237115
 20
80.52995397209787
 30
0
 40
2.529953972097901
 50
235.4349069054717
 51
299.9999999999994
  0
ARC
  8
1
 62
7
 10
-144.3221008762885
 20
80.52995397209787
 30
0
 40
2.529953972097855
 50
240.0000000000006
 51
304.5650930945283
  0
ARC
  8
1
 62
7
 10
-144.3221008762885
 20
79.97004602790209
 30
0
 40
2.529953972097914
 50
90
 51
119.999999999999
  0
ARC
  8
1
 62
7
 10
-135.6778991237115
 20
79.97004602790209
 30
0
 40
2.529953972097914
 50
90
 51
124.5650930945278
  0
ARC
  8
1
 62
7
 10
-144.3221008762885
 20
79.97004602790209
 30
0
 40
2.529953972097936
 50
55.43490690547222
 51
90
  0
ARC
  8
1
 62
7
 10
-135.6778991237115
 20
79.97004602790209
 30
0
 40
2.529953972097892
 50
60.00000000000102
 51
90
  0
ARC
  8
1
 62
7
 10
-2.5
 20
75.27911374211571
 30
0
 40
7.220886257884289
 50
69.74384199958376
 51
110.2561580004162
  0
ARC
  8
1
 62
7
 10
2.500000000000002
 20
75.27911374211573
 30
0
 40
7.220886257884275
 50
69.74384199958374
 51
110.2561580004163
  0
ARC
  8
1
 62
7
 10
2.5
 20
85.2208862578843
 30
0
 40
7.220886257884302
 50
249.7438419995838
 51
290.2561580004162
  0
ARC
  8
1
 62
7
 10
-2.5
 20
85.2208862578843
 30
0
 40
7.220886257884302
 50
249.7438419995838
 51
290.2561580004162
  0
ARC
  8
1
 62
7
 10
-140
 20
84.25
 30
0
 40
4.25
 50
0
 51
180
  0
ARC
  8
1
 62
7
 10
-131.7495704353215
 20
0
 30
0
 40
26.74957043532146
 50
342.4120462260063
 51
17.58795377399375
  0
ARC
  8
1
 62
7
 10
-112.0838711218741
 20
-12.10188245360769
 30
0
 40
7.083871121874097
 50
0
 51
34.56509309452743
  0
ARC
  8
1
 62
7
 10
-112.0838711218741
 20
12.10188245360769
 30
0
 40
7.083871121874097
 50
0
 51
30.00000000000018
  0
ARC
  8
1
 62
7
 10
-94.25042956467851
 20
0
 30
0
 40
26.74957043532146
 50
162.4120462260063
 51
197.5879537739938
  0
ARC
  8
1
 62
7
 10
-113.9161288781259
 20
-12.10188245360769
 30
0
 40
7.083871121874097
 50
180
 51
210.0000000000001
  0
ARC
  8
1
 62
7
 10
-113.9161288781259
 20
12.10188245360769
 30
0
 40
7.083871121874097
 50
180
 51
214.5650930945274
  0
ARC
  8
1
 62
7
 10
-113.9161288781259
 20
12.10188245360769
 30
0
 40
7.083871121874062
 50
149.9999999999998
 51
180
  0
ARC
  8
1
 62
7
 10
-113.9161288781259
 20
-12.10188245360769
 30
0
 40
7.083871121874074
 50
145.4349069054726
 51
180
  0
ARC
  8
1
 62
7
 10
-112.0838711218741
 20
12.10188245360769
 30
0
 40
7.083871121874074
 50
325.4349069054725
 51
0
  0
ARC
  8
1
 62
7
 10
-112.0838711218741
 20
-12.10188245360769
 30
0
 40
7.083871121874056
 50
329.9999999999999
 51
0
  0
ARC
  8
1
 62
7
 10
-148.2504295646785
 20
0
 30
0
 40
26.74957043532154
 50
162.4120462260063
 51
197.5879537739937
  0
ARC
  8
1
 62
7
 10
-167.9161288781259
 20
-12.10188245360769
 30
0
 40
7.083871121874143
 50
145.434906905473
 51
180
  0
ARC
  8
1
 62
7
 10
-167.9161288781259
 20
12.10188245360769
 30
0
 40
7.083871121874147
 50
150.0000000000002
 51
180
  0
ARC
  8
1
 62
7
 10
-185.7495704353215
 20
0
 30
0
 40
26.74957043532146
 50
342.4120462260063
 51
17.58795377399375
  0
ARC
  8
1
 62
7
 10
-166.0838711218741
 20
-12.10188245360769
 30
0
 40
7.083871121874044
 50
329.9999999999998
 51
0
  0
ARC
  8
1
 62
7
 10
-166.0838711218742
 20
12.10188245360769
 30
0
 40
7.083871121874166
 50
325.4349069054731
 51
0
  0
ARC
  8
1
 62
7
 10
-166.0838711218742
 20
12.10188245360769
 30
0
 40
7.083871121874211
 50
0
 51
29.99999999999978
  0
ARC
  8
1
 62
7
 10
-166.0838711218741
 20
-12.10188245360769
 30
0
 40
7.083871121874097
 50
0
 51
34.56509309452743
  0
ARC
  8
1
 62
7
 10
-167.9161288781259
 20
12.10188245360769
 30
0
 40
7.083871121874097
 50
180
 51
214.565093094527
  0
ARC
  8
1
 62
7
 10
-167.9161288781259
 20
-12.10188245360769
 30
0
 40
7.083871121874097
 50
180
 51
209.9999999999997
  0
ARC
  8
1
 62
7
 10
-157.2794873855281
 20
-16.01998473667149
 30
0
 40
2.49999999999999
 50
64.05836346053007
 51
149.9999999999998
  0
ARC
  8
1
 62
7
 10
-140
 20
19.5
 30
0
 40
37.00000000000002
 50
244.0583634605293
 51
295.9416365394707
  0
ARC
  8
1
 62
7
 10
-122.7205126144719
 20
-16.01998473667149
 30
0
 40
2.500000000000008
 50
29.99999999999989
 51
115.94163653947
  0
ARC
  8
1
 62
7
 10
-122.5
 20
16.40192378864669
 30
0
 40
2.5
 50
180
 51
330.0000000000001
  0
ARC
  8
1
 62
7
 10
-157.5
 20
16.40192378864666
 30
0
 40
2.500000000000008
 50
209.9999999999999
 51
0
  0
ARC
  8
1
 62
7
 10
0
 20
0
 30
0
 40
17.5
 50
270
 51
0
  0
CIRCLE
  8
1
 62
7
 10
0
 20
0
 30
0
 40
9.3155
  0
CIRCLE
  8
1
 62
2
 10
0
 20
0
 30
0
 40
10.4775
  0
CIRCLE
  8
1
 62
7
 10
24
 20
51.5
 30
0
 40
3.5
  0
CIRCLE
  8
1
 62
7
 10
-24
 20
51.5
 30
0
 40
3.500000000000011
  0
CIRCLE
  8
1
 62
7
 10
0
 20
0
 30
0
 40
14
  0
ARC
  8
1
 62
7
 10
-62.01519762301344
 20
49.3
 30
0
 40
1.299999999999997
 50
270
 51
343.5496001733873
  0
ARC
  8
1
 62
7
 10
-62.02680968756652
 20
53.7
 30
0
 40
1.300000000000003
 50
16.75281834738631
 51
90
  0
ARC
  8
1
 62
7
 10
-20
 20
31.5
 30
0
 40
2
 50
180
 51
270
  0
ARC
  8
1
 62
7
 10
-20
 20
71.5
 30
0
 40
2
 50
90
 51
180
  0
ARC
  8
1
 62
7
 10
20
 20
71.5
 30
0
 40
2
 50
0
 51
90
  0
ARC
  8
1
 62
7
 10
20
 20
31.5
 30
0
 40
2
 50
270
 51
0
  0
ARC
  8
1
 62
7
 10
-3
 20
37.83333333333334
 30
0
 40
1.333333333333333
 50
180
 51
270
  0
ARC
  8
1
 62
7
 10
3
 20
45.16666666666666
 30
0
 40
1.333333333333333
 50
0
 51
90
  0
ARC
  8
1
 62
7
 10
-3
 20
37.83333333333334
 30
0
 40
1
 50
180
 51
270
  0
ARC
  8
1
 62
7
 10
3
 20
45.16666666666666
 30
0
 40
1
 50
0
 51
90
  0
ARC
  8
1
 62
7
 10
-65
 20
31.5
 30
0
 40
2
 50
270
 51
0
  0
ARC
  8
1
 62
7
 10
-96
 20
31.5
 30
0
 40
2
 50
180
 51
270
  0
ARC
  8
1
 62
7
 10
-96
 20
71.5
 30
0
 40
2
 50
90
 51
180
  0
ARC
  8
1
 62
7
 10
-65
 20
71.5
 30
0
 40
2
 50
0
 51
90
  0
ARC
  8
1
 62
7
 10
-165.25
 20
73.5
 30
0
 40
4
 50
90
 51
180
  0
ARC
  8
1
 62
7
 10
-114.75
 20
73.5
 30
0
 40
4
 50
0
 51
90
  0
ARC
  8
1
 62
7
 10
-169.575
 20
29.625
 30
0
 40
0.3249999999999993
 50
270
 51
0
  0
ARC
  8
1
 62
7
 10
-169.675
 20
28.97499999999999
 30
0
 40
0.3250000000000099
 50
90
 51
180
  0
ARC
  8
1
 62
7
 10
-110.425
 20
29.625
 30
0
 40
0.3250000000000028
 50
180
 51
270
  0
ARC
  8
1
 62
7
 10
-110.325
 20
28.97499999999999
 30
0
 40
0.3250000000000028
 50
0
 51
90
  0
ARC
  8
1
 62
7
 10
29.675
 20
28.97499999999999
 30
0
 40
0.3249999999999993
 50
0
 51
90
  0
ARC
  8
1
 62
7
 10
29.575
 20
29.625
 30
0
 40
0.3249999999999993
 50
180
 51
270
  0
ARC
  8
1
 62
7
 10
-29.67500000000001
 20
28.97499999999999
 30
0
 40
0.3250000000000099
 50
90
 51
180
  0
ARC
  8
1
 62
7
 10
-29.57499999999999
 20
29.625
 30
0
 40
0.3249999999999993
 50
270
 51
0
  0
ARC
  8
1
 62
7
 10
25.25
 20
73.5
 30
0
 40
4
 50
0
 51
90
  0
ARC
  8
1
 62
7
 10
-25.25
 20
73.5
 30
0
 40
4
 50
90
 51
180
  0
ARC
  8
1
 62
7
 10
10.5
 20
6
 30
0
 40
7
 50
0
 51
90
  0
ARC
  8
1
 62
7
 10
-10.5
 20
6
 30
0
 40
7
 50
90
 51
180
  0
TEXT
  8
1
 62
7
 10
35.0114298565362
 20
129.6111915320401
 30
0
 40
3.149999999999999
  1
DWG No.  SV-4007
 41
0.9
  0
TEXT
  8
1
 62
7
 10
35.0114298565362
 20
122.6811915320401
 30
0
 40
3.149999999999999
  1
REV.     00
 41
0.9
  0
TEXT
  8
1
 62
7
 10
35.0114298565362
 20
115.7511915320401
 30
0
 40
3.149999999999999
  1
Yamatake Corporation
 41
0.9
  0
ENDSEC
  0
EOF
