  0
SECTION
  2
HEADER
  9
$ACADVER
  1
AC1009
  9
$INSBASE
 10
0
 20
0
  9
$EXTMIN
 10
-312.0000000000001
 20
-99.99999999999989
  9
$EXTMAX
 10
109.5876147291452
 20
202.5070186733237
  9
$LIMMIN
 10
-312.0000000000001
 20
-99.99999999999989
  9
$LIMMAX
 10
109.5876147291452
 20
202.5070186733237
  9
$VIEWCTR
 10
10
 20
10
  9
$VIEWSIZE
 40
10
  9
$SNAPMODE
 70
0
  9
$SNAPUNIT
 10
1
 20
1
  9
$SNAPBASE
 10
0
 20
0
  9
$SNAPANG
 50
0
  9
$SNAPSTYLE
 70
0
  9
$SNAPISOPAIR
 70
0
  9
$GRIDMODE
 70
0
  9
$GRIDUNIT
 10
0
 20
0
  9
$ORTHOMODE
 70
0
  9
$REGENMODE
 70
1
  9
$FILLMODE
 70
1
  9
$QTEXTMODE
 70
0
  9
$DRAGMODE
 70
2
  9
$LTSCALE
 40
1
  9
$OSMODE
 70
0
  9
$ATTMODE
 70
1
  9
$TEXTSIZE
 40
3.5
  9
$TRACEWID
 40
0.5
  9
$TEXTSTYLE
  7
STANDARD
  9
$CLAYER
  8
0
  9
$CELTYPE
  6
BYLAYER
  9
$CECOLOR
 62
256
  9
$DIMSCALE
 40
1
  9
$DIMASZ
 40
0.18
  9
$DIMEXO
 40
0.0625
  9
$DIMDLI
 40
0.38
  9
$DIMRND
 40
0
  9
$DIMDLE
 40
0
  9
$DIMEXE
 40
0.18
  9
$DIMTP
 40
0
  9
$DIMTM
 40
0
  9
$DIMTXT
 40
0.18
  9
$DIMCEN
 40
0.09
  9
$DIMTSZ
 40
0
  9
$DIMTOL
 70
0
  9
$DIMLIM
 70
0
  9
$DIMTIH
 70
1
  9
$DIMTOH
 70
1
  9
$DIMSE1
 70
0
  9
$DIMSE2
 70
0
  9
$DIMTAD
 70
0
  9
$DIMZIN
 70
0
  9
$DIMBLK
  1

  9
$DIMASO
 70
1
  9
$DIMSHO
 70
1
  9
$DIMPOST
  1

  9
$DIMAPOST
  1

  9
$DIMALT
 70
0
  9
$DIMALTD
 70
2
  9
$DIMALTF
 40
25.4
  9
$DIMLFAC
 40
1
  9
$DIMTOFL
 70
0
  9
$DIMTVP
 40
0
  9
$DIMTIX
 70
0
  9
$DIMSOXD
 70
0
  9
$DIMSAH
 70
0
  9
$DIMBLK1
  1

  9
$DIMBLK2
  1

  9
$DIMSTYLE
  2
*UNNAMED
  9
$DIMCLRD
 70
0
  9
$DIMCLRE
 70
0
  9
$DIMCLRT
 70
0
  9
$DIMTFAC
 40
1
  9
$DIMGAP
 40
0.09
  9
$LUNITS
 70
2
  9
$LUPREC
 70
4
  9
$AXISMODE
 70
0
  9
$AXISUNIT
 10
0
 20
0
  9
$SKETCHINC
 40
0.1
  9
$FILLETRAD
 40
2
  9
$AUNITS
 70
0
  9
$AUPREC
 70
0
  9
$MENU
  1
ACAD
  9
$ELEVATION
 40
0
  9
$THICKNESS
 40
0
  9
$VIEWDIR
 10
0
 20
0
 30
1
  9
$LIMCHECK
 70
0
  9
$BLIPMODE
 70
1
  9
$CHAMFERA
 40
0
  9
$CHAMFERB
 40
0
  9
$FASTZOOM
 70
1
  9
$SKPOLY
 70
0
  9
$ANGBASE
 50
0
  9
$ANGDIR
 70
0
  9
$PDMODE
 70
0
  9
$PDSIZE
 40
0
  9
$PLINEWID
 40
0
  9
$COORDS
 70
2
  0
ENDSEC
  0
SECTION
  2
TABLES
  0
TABLE
  2
DIMSTYLE
 70
0
  0
ENDTAB
  0
TABLE
  2
LTYPE
 70
9
  0
LTYPE
  2
CONTINUOUS
 70
64
  3
Solid line
 72
65
 73
0
 40
0
  0
LTYPE
  2
BORDER
 70
64
  3
__ __ . __ __ .
 72
65
 73
6
 40
19.41521909936854
 49
5.547205456962438
 49
-2.773602728481219
 49
5.547205456962438
 49
-2.773602728481219
 49
0
 49
-2.773602728481219
  0
LTYPE
  2
CENTER
 70
64
  3
____ _ ____ _
 72
65
 73
4
 40
22.18882182784975
 49
13.8680136424061
 49
-2.773602728481219
 49
2.773602728481219
 49
-2.773602728481219
  0
LTYPE
  2
DASHDOT
 70
64
  3
__ . __ . __ .
 72
65
 73
4
 40
11.09441091392488
 49
5.547205456962438
 49
-2.773602728481219
 49
0
 49
-2.773602728481219
  0
LTYPE
  2
DASHED
 70
64
  3
__ __ __ __ __
 72
65
 73
2
 40
8.320808185443658
 49
5.547205456962438
 49
-2.773602728481219
  0
LTYPE
  2
DIVIDE
 70
64
  3
__ . . __ . . 
 72
65
 73
6
 40
13.8680136424061
 49
5.547205456962438
 49
-2.773602728481219
 49
0
 49
-2.773602728481219
 49
0
 49
-2.773602728481219
  0
LTYPE
  2
DOT
 70
64
  3
..............
 72
65
 73
4
 40
5.547205456962438
 49
0
 49
-2.773602728481219
 49
0
 49
-2.773602728481219
  0
LTYPE
  2
HIDDEN
 70
64
  3
_ _ _ _ _ _ _
 72
65
 73
2
 40
4.160404092721829
 49
2.773602728481219
 49
-1.38680136424061
  0
LTYPE
  2
PHANTOM
 70
64
  3
_____ _ _ _____ _ _ 
 72
65
 73
6
 40
27.73602728481219
 49
13.8680136424061
 49
-2.773602728481219
 49
2.773602728481219
 49
-2.773602728481219
 49
2.773602728481219
 49
-2.773602728481219
  0
ENDTAB
  0
TABLE
  2
LAYER
 70
3
  0
LAYER
  2
1
 70
0
 62
7
  6
CONTINUOUS
  0
LAYER
  2
0
 70
0
 62
7
  6
CONTINUOUS
  0
ENDTAB
  0
TABLE
  2
STYLE
 70
4
  0
STYLE
  2
STANDARD
 70
0
 40
0
 41
1
 50
0
 71
0
 42
3.5
  3
txt
  4

  0
STYLE
  2
SIMPLEX
 70
0
 40
0
 41
1
 50
0
 71
0
 42
3.5
  3
simplex
  4

  0
STYLE
  2
COMPLEX
 70
0
 40
0
 41
1
 50
0
 71
0
 42
3.5
  3
complex
  4

  0
STYLE
  2
ITALIC
 70
0
 40
0
 41
1
 50
0
 71
0
 42
3.5
  3
italic
  4

  0
ENDTAB
  0
TABLE
  2
VIEW
 70
0
  0
ENDTAB
  0
ENDSEC
  0
SECTION
  2
BLOCKS
  0
ENDSEC
  0
SECTION
  2
ENTITIES
  0
LINE
  8
1
 62
2
  6
DASHDOT
 10
-233
 20
117.3
 30
0
 11
-233
 21
105.3
 31
0
  0
LINE
  8
1
 62
2
  6
DASHDOT
 10
-233
 20
87.29999999999993
 30
0
 11
-233
 21
105.3
 31
0
  0
LINE
  8
1
 62
7
 10
-238
 20
90.29999999999995
 30
0
 11
-238
 21
88.79999999999995
 31
0
  0
LINE
  8
1
 62
2
 10
-237.188
 20
90.29999999999995
 30
0
 11
-237.188
 21
88.79999999999995
 31
0
  0
LINE
  8
1
 62
2
 10
-228.812
 20
90.29999999999995
 30
0
 11
-228.812
 21
88.79999999999995
 31
0
  0
LINE
  8
1
 62
7
 10
-228
 20
90.29999999999995
 30
0
 11
-228
 21
88.79999999999995
 31
0
  0
LINE
  8
1
 62
7
 10
-172
 20
90.29999999999995
 30
0
 11
-172
 21
88.79999999999995
 31
0
  0
LINE
  8
1
 62
2
 10
-171.188
 20
90.29999999999995
 30
0
 11
-171.188
 21
88.79999999999995
 31
0
  0
LINE
  8
1
 62
2
 10
-162.812
 20
90.29999999999995
 30
0
 11
-162.812
 21
88.79999999999995
 31
0
  0
LINE
  8
1
 62
7
 10
-162
 20
90.29999999999995
 30
0
 11
-162
 21
88.79999999999995
 31
0
  0
LINE
  8
1
 62
7
 10
-200
 20
186
 30
0
 11
-193.9
 21
186
 31
0
  0
LINE
  8
1
 62
7
 10
-200
 20
184.5
 30
0
 11
-206.1
 21
184.5
 31
0
  0
LINE
  8
1
 62
7
 10
-200
 20
186
 30
0
 11
-206.1
 21
186
 31
0
  0
LINE
  8
1
 62
7
 10
5.00000000000001
 20
186
 30
0
 11
7.150963848845393e-14
 21
186
 31
0
  0
LINE
  8
1
 62
7
 10
9.50983255953711e-15
 20
184.5
 30
0
 11
-6.099999999999992
 21
184.5
 31
0
  0
LINE
  8
1
 62
2
  6
DASHDOT
 10
28.328
 20
0
 30
0
 11
29.807
 21
0
 31
0
  0
LINE
  8
1
 62
2
  6
DASHDOT
 10
29.807
 20
0
 30
0
 11
59.40000000000001
 21
0
 31
0
  0
LINE
  8
1
 62
2
  6
DASHDOT
 10
0
 20
-79.06217782649111
 30
0
 11
0
 21
-99
 31
0
  0
LINE
  8
1
 62
2
  6
DASHDOT
 10
0
 20
-67.93782217350901
 30
0
 11
0
 21
-79.06217782649111
 31
0
  0
LINE
  8
1
 62
7
 10
0
 20
-67.93782217350901
 30
0
 11
0
 21
-79.06217782649111
 31
0
  0
LINE
  8
1
 62
7
 10
10.5
 20
-67.93782217350901
 30
0
 11
10.5
 21
-79.06217782649111
 31
0
  0
LINE
  8
1
 62
7
 10
-10.5
 20
-67.93782217350901
 30
0
 11
-10.5
 21
-67
 31
0
  0
LINE
  8
1
 62
7
 10
10.5
 20
-79.06217782649111
 30
0
 11
10.5
 21
-80
 31
0
  0
LINE
  8
1
 62
7
 10
-10.5
 20
-79.06217782649111
 30
0
 11
-10.5
 21
-67.93782217350901
 31
0
  0
LINE
  8
1
 62
7
 10
-193.9378221735089
 20
-67.93782217350901
 30
0
 11
-193.9378221735089
 21
-79.06217782649111
 31
0
  0
LINE
  8
1
 62
7
 10
-206.0621778264911
 20
-67.93782217350901
 30
0
 11
-206.0621778264911
 21
-79.06217782649111
 31
0
  0
LINE
  8
1
 62
7
 10
-187.8756443470179
 20
-67.93782217350901
 30
0
 11
-187.8756443470179
 21
-73.5
 31
0
  0
LINE
  8
1
 62
7
 10
-209.0764118402058
 20
-67.00000000000011
 30
0
 11
-190.9235881597942
 21
-67.00000000000011
 31
0
  0
LINE
  8
1
 62
7
 10
-187.8756443470179
 20
-67.93782217350901
 30
0
 11
-188.2671364890915
 21
-67.7117940798972
 31
0
  0
LINE
  8
1
 62
7
 10
-212.1243556529821
 20
-73.5
 30
0
 11
-212.1243556529821
 21
-67.93782217350901
 31
0
  0
LINE
  8
1
 62
7
 10
-212.1243556529821
 20
-67.93782217350901
 30
0
 11
-211.7328635109085
 21
-67.7117940798972
 31
0
  0
LINE
  8
1
 62
7
 10
-187.8756443470179
 20
-73.5
 30
0
 11
-187.8756443470179
 21
-79.06217782649111
 31
0
  0
LINE
  8
1
 62
7
 10
-190.9235881597942
 20
-80
 30
0
 11
-209.0764118402058
 21
-80
 31
0
  0
LINE
  8
1
 62
7
 10
-188.2671364890915
 20
-79.28820592010291
 30
0
 11
-187.8756443470179
 21
-79.06217782649111
 31
0
  0
LINE
  8
1
 62
7
 10
-212.1243556529821
 20
-79.06217782649111
 30
0
 11
-212.1243556529821
 21
-73.5
 31
0
  0
LINE
  8
1
 62
7
 10
-211.7328635109085
 20
-79.28820592010291
 30
0
 11
-212.1243556529821
 21
-79.06217782649111
 31
0
  0
LINE
  8
1
 62
7
 10
-185.2524691358025
 20
-5
 30
0
 11
-173.5
 21
-5.000000000000114
 31
0
  0
LINE
  8
1
 62
7
 10
-186.5
 20
-2.611111111111086
 30
0
 11
-185.2524691358025
 21
-5
 31
0
  0
LINE
  8
1
 62
7
 10
-185.2524691358025
 20
5
 30
0
 11
-173.5
 21
5
 31
0
  0
LINE
  8
1
 62
7
 10
-186.5
 20
2.611111111111086
 30
0
 11
-185.2524691358025
 21
5
 31
0
  0
LINE
  8
1
 62
7
 10
-223.5
 20
0
 30
0
 11
-213.5
 21
5
 31
0
  0
LINE
  8
1
 62
7
 10
-213.5
 20
5
 30
0
 11
-213.5
 21
2.611111111111086
 31
0
  0
LINE
  8
1
 62
7
 10
-213.5
 20
2.611111111111086
 30
0
 11
-186.5
 21
2.611111111111086
 31
0
  0
LINE
  8
1
 62
7
 10
-173.5
 20
5
 30
0
 11
-176.1111111111111
 21
0
 31
0
  0
LINE
  8
1
 62
7
 10
-176.1111111111111
 20
0
 30
0
 11
-173.5
 21
-5.000000000000114
 31
0
  0
LINE
  8
1
 62
7
 10
-186.5
 20
-2.611111111111086
 30
0
 11
-213.5
 21
-2.611111111111086
 31
0
  0
LINE
  8
1
 62
7
 10
-213.5
 20
-2.611111111111086
 30
0
 11
-213.5
 21
-5
 31
0
  0
LINE
  8
1
 62
7
 10
-213.5
 20
-5
 30
0
 11
-223.5
 21
0
 31
0
  0
LINE
  8
1
 62
7
 10
-241.0000000000001
 20
36
 30
0
 11
-244.0000000000001
 21
36
 31
0
  0
LINE
  8
1
 62
7
 10
-236
 20
71.29999999999995
 30
0
 11
-236.0000000000001
 21
41
 31
0
  0
LINE
  8
1
 62
7
 10
-208.0000000000001
 20
-47.74964387392129
 30
0
 11
-208.0000000000001
 21
-67
 31
0
  0
LINE
  8
1
 62
7
 10
-244.0000000000001
 20
-36
 30
0
 11
-239.2300904918661
 21
-36
 31
0
  0
LINE
  8
1
 62
7
 10
-249.0000000000001
 20
-41
 30
0
 11
-249.0000000000001
 21
41
 31
0
  0
LINE
  8
1
 62
7
 10
-249.0000000000001
 20
-54.5
 30
0
 11
-249.0000000000001
 21
-41
 31
0
  0
LINE
  8
1
 62
7
 10
-277.5000000000001
 20
-32
 30
0
 11
-275.0000000000001
 21
-32
 31
0
  0
LINE
  8
1
 62
7
 10
-272.0000000000001
 20
31.9999999999999
 30
0
 11
-275.0000000000001
 21
31.9999999999999
 31
0
  0
LINE
  8
1
 62
7
 10
-275.0000000000001
 20
-32
 30
0
 11
-275.0000000000001
 21
31.9999999999999
 31
0
  0
LINE
  8
1
 62
7
 10
-272.0000000000001
 20
-33.0825000000001
 30
0
 11
-272.0000000000001
 21
-46.9175000000001
 31
0
  0
LINE
  8
1
 62
7
 10
-277.5
 20
-48
 30
0
 11
-277.5
 21
-46.9175000000001
 31
0
  0
LINE
  8
1
 62
2
 10
-272.0000000000001
 20
-46.9175000000001
 30
0
 11
-277.5
 21
-46.9175000000001
 31
0
  0
LINE
  8
1
 62
7
 10
-277.5
 20
-46.9175000000001
 30
0
 11
-277.5000000000001
 21
-33.0825000000001
 31
0
  0
LINE
  8
1
 62
7
 10
-272.0000000000001
 20
-32
 30
0
 11
-272.0000000000001
 21
-33.0825000000001
 31
0
  0
LINE
  8
1
 62
2
 10
-277.5000000000001
 20
-33.0825000000001
 30
0
 11
-272.0000000000001
 21
-33.0825000000001
 31
0
  0
LINE
  8
1
 62
7
 10
-272
 20
46.91749999999985
 30
0
 11
-272.0000000000001
 21
33.0824999999999
 31
0
  0
LINE
  8
1
 62
7
 10
-277.5000000000001
 20
31.9999999999999
 30
0
 11
-277.5000000000001
 21
33.0824999999999
 31
0
  0
LINE
  8
1
 62
2
 10
-272.0000000000001
 20
33.0824999999999
 30
0
 11
-277.5000000000001
 21
33.0824999999999
 31
0
  0
LINE
  8
1
 62
7
 10
-277.5000000000001
 20
33.0824999999999
 30
0
 11
-277.5000000000001
 21
46.91749999999985
 31
0
  0
LINE
  8
1
 62
7
 10
-272
 20
47.99999999999994
 30
0
 11
-272
 21
46.91749999999985
 31
0
  0
LINE
  8
1
 62
2
 10
-277.5000000000001
 20
46.91749999999985
 30
0
 11
-272
 21
46.91749999999985
 31
0
  0
LINE
  8
1
 62
7
 10
-272.0000000000001
 20
33.0824999999999
 30
0
 11
-272.0000000000001
 21
31.9999999999999
 31
0
  0
LINE
  8
1
 62
7
 10
-277.5000000000001
 20
-32
 30
0
 11
-277.5000000000001
 21
31.9999999999999
 31
0
  0
LINE
  8
1
 62
7
 10
-275.0000000000001
 20
31.9999999999999
 30
0
 11
-277.5000000000001
 21
31.9999999999999
 31
0
  0
LINE
  8
1
 62
7
 10
-277.5000000000001
 20
46.91749999999985
 30
0
 11
-277.5000000000001
 21
47.99999999999994
 31
0
  0
LINE
  8
1
 62
7
 10
-272
 20
57.49999999999997
 30
0
 11
-272
 21
47.99999999999994
 31
0
  0
LINE
  8
1
 62
7
 10
-277.5000000000001
 20
47.99999999999994
 30
0
 11
-272
 21
47.99999999999994
 31
0
  0
LINE
  8
1
 62
7
 10
-277.5000000000001
 20
-33.0825000000001
 30
0
 11
-277.5000000000001
 21
-32
 31
0
  0
LINE
  8
1
 62
7
 10
-272.0000000000001
 20
31.9999999999999
 30
0
 11
-272.0000000000001
 21
-32
 31
0
  0
LINE
  8
1
 62
7
 10
-275.0000000000001
 20
-32
 30
0
 11
-272.0000000000001
 21
-32
 31
0
  0
LINE
  8
1
 62
7
 10
-277.5000000000001
 20
-57.5
 30
0
 11
-277.5
 21
-48
 31
0
  0
LINE
  8
1
 62
7
 10
-272.0000000000001
 20
-46.9175000000001
 30
0
 11
-272
 21
-48
 31
0
  0
LINE
  8
1
 62
7
 10
-277.5
 20
-48
 30
0
 11
-272
 21
-48
 31
0
  0
LINE
  8
1
 62
7
 10
-249.0000000000001
 20
41
 30
0
 11
-249.0000000000001
 21
54.49999999999997
 31
0
  0
LINE
  8
1
 62
7
 10
-252.0000000000001
 20
57.49999999999997
 30
0
 11
-272
 21
57.49999999999997
 31
0
  0
LINE
  8
1
 62
7
 10
-272
 20
-48
 30
0
 11
-272
 21
-57.5
 31
0
  0
LINE
  8
1
 62
7
 10
-272
 20
-57.5
 30
0
 11
-252.0000000000001
 21
-57.5
 31
0
  0
LINE
  8
1
 62
7
 10
-300.0000000000001
 20
-40
 30
0
 11
-296.6472431988319
 21
-38.06428495831821
 31
0
  0
LINE
  8
1
 62
7
 10
-297.0000000000001
 20
38
 30
0
 11
-300.0000000000001
 21
38
 31
0
  0
LINE
  8
1
 62
7
 10
-296.0000000000001
 20
53.85640646055097
 30
0
 11
-296.0000000000001
 21
39
 31
0
  0
LINE
  8
1
 62
2
  6
DASHDOT
 10
-300.0000000000001
 20
39.9999999999999
 30
0
 11
-296.0000000000001
 21
39.9999999999999
 31
0
  0
LINE
  8
1
 62
7
 10
-299.4641016151377
 20
38
 30
0
 11
-296.0000000000001
 21
39.9999999999999
 31
0
  0
LINE
  8
1
 62
2
  6
DASHDOT
 10
-312.0000000000001
 20
39.9999999999999
 30
0
 11
-300.0000000000001
 21
39.9999999999999
 31
0
  0
LINE
  8
1
 62
7
 10
-300.0000000000001
 20
39.9999999999999
 30
0
 11
-296.0000000000001
 21
42.30940107675841
 31
0
  0
LINE
  8
1
 62
7
 10
-300.0000000000001
 20
-53.85640646055111
 30
0
 11
-300.0000000000001
 21
-42.30940107675849
 31
0
  0
LINE
  8
1
 62
7
 10
-296.0000000000001
 20
-53.85640646055111
 30
0
 11
-296.0000000000001
 21
-39
 31
0
  0
LINE
  8
1
 62
2
  6
DASHDOT
 10
-300.0000000000001
 20
-40
 30
0
 11
-296.0000000000001
 21
-40
 31
0
  0
LINE
  8
1
 62
7
 10
-300.0000000000001
 20
-42.30940107675849
 30
0
 11
-296.0000000000001
 21
-40
 31
0
  0
LINE
  8
1
 62
7
 10
-300.0000000000001
 20
-42.30940107675849
 30
0
 11
-300.0000000000001
 21
-40
 31
0
  0
LINE
  8
1
 62
2
  6
DASHDOT
 10
-312.0000000000001
 20
-40
 30
0
 11
-300.0000000000001
 21
-40
 31
0
  0
LINE
  8
1
 62
7
 10
-297.0000000000001
 20
-38
 30
0
 11
-300.0000000000001
 21
-38
 31
0
  0
LINE
  8
1
 62
7
 10
-300.0000000000001
 20
53.85640646055097
 30
0
 11
-296.0000000000001
 21
53.85640646055097
 31
0
  0
LINE
  8
1
 62
7
 10
-300.0000000000001
 20
-53.85640646055111
 30
0
 11
-296.0000000000001
 21
-53.85640646055111
 31
0
  0
LINE
  8
1
 62
7
 10
-308.9282032302756
 20
33.0717967697244
 30
0
 11
-301.0000000000001
 21
33.0717967697244
 31
0
  0
LINE
  8
1
 62
7
 10
-301.0000000000001
 20
26.1435935394489
 30
0
 11
-301.0000000000001
 21
37
 31
0
  0
LINE
  8
1
 62
7
 10
-308.9014408656583
 20
-26.143593539449
 30
0
 11
-301.0000000000001
 21
-26.143593539449
 31
0
  0
LINE
  8
1
 62
7
 10
-301.0000000000001
 20
-37
 30
0
 11
-301.0000000000001
 21
-26.143593539449
 31
0
  0
LINE
  8
1
 62
7
 10
-301.0000000000001
 20
-26.143593539449
 30
0
 11
-301.0000000000001
 21
26.1435935394489
 31
0
  0
LINE
  8
1
 62
7
 10
-300.0000000000001
 20
38
 30
0
 11
-300.0000000000001
 21
53.85640646055097
 31
0
  0
LINE
  8
1
 62
7
 10
-277.5000000000001
 20
57.49999999999997
 30
0
 11
-293.0000000000001
 21
57.49999999999997
 31
0
  0
LINE
  8
1
 62
7
 10
-296.0000000000001
 20
53.85640646055097
 30
0
 11
-296.0000000000001
 21
54.49999999999997
 31
0
  0
LINE
  8
1
 62
7
 10
-300.0000000000001
 20
-40
 30
0
 11
-300.0000000000001
 21
-38
 31
0
  0
LINE
  8
1
 62
7
 10
-296.0000000000001
 20
-53.85640646055111
 30
0
 11
-296.0000000000001
 21
-54.5
 31
0
  0
LINE
  8
1
 62
2
  6
DASHDOT
 10
-296.0000000000001
 20
39.9999999999999
 30
0
 11
-270.0000000000002
 21
39.9999999999998
 31
0
  0
LINE
  8
1
 62
7
 10
-310.0000000000001
 20
29.6269578969076
 30
0
 11
-310.0000000000001
 21
50.37304210309225
 31
0
  0
LINE
  8
1
 62
7
 10
-301.0000000000001
 20
26.1435935394489
 30
0
 11
-308.9282032302756
 21
26.1435935394489
 31
0
  0
LINE
  8
1
 62
7
 10
-300.0000000000001
 20
46.92820323027544
 30
0
 11
-308.9282032302756
 21
46.92820323027544
 31
0
  0
LINE
  8
1
 62
7
 10
-308.9014408656583
 20
53.85640646055097
 30
0
 11
-300.0000000000001
 21
53.85640646055097
 31
0
  0
LINE
  8
1
 62
7
 10
-308.9282032302756
 20
53.85640646055097
 30
0
 11
-309.1865210515462
 21
53.40898686960969
 31
0
  0
LINE
  8
1
 62
7
 10
-308.9282032302756
 20
26.1435935394489
 30
0
 11
-309.1865210515462
 21
26.59101313039019
 31
0
  0
LINE
  8
1
 62
2
  6
DASHDOT
 10
-296.0000000000001
 20
-40
 30
0
 11
-270.0000000000001
 21
-40.00000000000011
 31
0
  0
LINE
  8
1
 62
7
 10
-310.0000000000001
 20
-50.3730421030923
 30
0
 11
-310.0000000000001
 21
-29.6269578969077
 31
0
  0
LINE
  8
1
 62
7
 10
-300.0000000000001
 20
-53.85640646055111
 30
0
 11
-308.9282032302756
 21
-53.85640646055111
 31
0
  0
LINE
  8
1
 62
7
 10
-308.9282032302756
 20
-46.9282032302755
 30
0
 11
-300.0000000000001
 21
-46.9282032302755
 31
0
  0
LINE
  8
1
 62
7
 10
-301.0000000000001
 20
-33.0717967697245
 30
0
 11
-308.9282032302756
 21
-33.0717967697245
 31
0
  0
LINE
  8
1
 62
7
 10
-308.9282032302756
 20
-26.143593539449
 30
0
 11
-309.1865210515462
 21
-26.59101313039031
 31
0
  0
LINE
  8
1
 62
7
 10
-308.9282032302756
 20
-53.85640646055111
 30
0
 11
-309.1865210515462
 21
-53.40898686960981
 31
0
  0
LINE
  8
1
 62
7
 10
-277.5000000000001
 20
47.99999999999994
 30
0
 11
-277.5000000000001
 21
57.49999999999997
 31
0
  0
LINE
  8
1
 62
7
 10
-293.0000000000001
 20
-57.5
 30
0
 11
-277.5000000000001
 21
-57.5
 31
0
  0
LINE
  8
1
 62
7
 10
-164
 20
41
 30
0
 11
-164
 21
71.29999999999995
 31
0
  0
LINE
  8
1
 62
7
 10
-156
 20
36
 30
0
 11
-159
 21
36
 31
0
  0
LINE
  8
1
 62
7
 10
-151
 20
41
 30
0
 11
-151
 21
-41
 31
0
  0
LINE
  8
1
 62
7
 10
-151
 20
-41
 30
0
 11
-151
 21
-54.5
 31
0
  0
LINE
  8
1
 62
7
 10
-160.7699095081339
 20
-36
 30
0
 11
-156
 21
-36
 31
0
  0
LINE
  8
1
 62
7
 10
-192
 20
-67
 30
0
 11
-192
 21
-47.74964387392129
 31
0
  0
LINE
  8
1
 62
7
 10
-125
 20
-32
 30
0
 11
-122.5
 21
-32
 31
0
  0
LINE
  8
1
 62
7
 10
-125
 20
31.9999999999999
 30
0
 11
-128
 21
31.9999999999999
 31
0
  0
LINE
  8
1
 62
7
 10
-125
 20
31.9999999999999
 30
0
 11
-125
 21
-32
 31
0
  0
LINE
  8
1
 62
7
 10
-128
 20
-46.9175000000001
 30
0
 11
-128
 21
-33.0825000000001
 31
0
  0
LINE
  8
1
 62
7
 10
-122.5
 20
-46.9175000000001
 30
0
 11
-122.5
 21
-48
 31
0
  0
LINE
  8
1
 62
2
 10
-122.5
 20
-46.9175000000001
 30
0
 11
-128
 21
-46.9175000000001
 31
0
  0
LINE
  8
1
 62
7
 10
-122.5
 20
-33.0825000000001
 30
0
 11
-122.5
 21
-46.9175000000001
 31
0
  0
LINE
  8
1
 62
7
 10
-128
 20
-33.0825000000001
 30
0
 11
-128
 21
-32
 31
0
  0
LINE
  8
1
 62
2
 10
-128
 20
-33.0825000000001
 30
0
 11
-122.5
 21
-33.0825000000001
 31
0
  0
LINE
  8
1
 62
7
 10
-128
 20
33.0824999999999
 30
0
 11
-128
 21
46.91749999999985
 31
0
  0
LINE
  8
1
 62
7
 10
-122.5
 20
33.0824999999999
 30
0
 11
-122.5
 21
31.9999999999999
 31
0
  0
LINE
  8
1
 62
2
 10
-122.5
 20
33.0824999999999
 30
0
 11
-128
 21
33.0824999999999
 31
0
  0
LINE
  8
1
 62
7
 10
-122.5
 20
46.91749999999985
 30
0
 11
-122.5
 21
33.0824999999999
 31
0
  0
LINE
  8
1
 62
7
 10
-128
 20
46.91749999999985
 30
0
 11
-128
 21
47.99999999999994
 31
0
  0
LINE
  8
1
 62
2
 10
-128
 20
46.91749999999985
 30
0
 11
-122.5
 21
46.91749999999985
 31
0
  0
LINE
  8
1
 62
7
 10
-128
 20
31.9999999999999
 30
0
 11
-128
 21
33.0824999999999
 31
0
  0
LINE
  8
1
 62
7
 10
-122.5
 20
31.9999999999999
 30
0
 11
-122.5
 21
-32
 31
0
  0
LINE
  8
1
 62
7
 10
-122.5
 20
31.9999999999999
 30
0
 11
-125
 21
31.9999999999999
 31
0
  0
LINE
  8
1
 62
7
 10
-122.5
 20
47.99999999999994
 30
0
 11
-122.5
 21
46.91749999999985
 31
0
  0
LINE
  8
1
 62
7
 10
-128
 20
47.99999999999994
 30
0
 11
-128
 21
57.49999999999997
 31
0
  0
LINE
  8
1
 62
7
 10
-128
 20
47.99999999999994
 30
0
 11
-122.5
 21
47.99999999999994
 31
0
  0
LINE
  8
1
 62
7
 10
-122.5
 20
-32
 30
0
 11
-122.5
 21
-33.0825000000001
 31
0
  0
LINE
  8
1
 62
7
 10
-128
 20
-32
 30
0
 11
-128
 21
31.9999999999999
 31
0
  0
LINE
  8
1
 62
7
 10
-128
 20
-32
 30
0
 11
-125
 21
-32
 31
0
  0
LINE
  8
1
 62
7
 10
-122.5
 20
-48
 30
0
 11
-122.5
 21
-57.5
 31
0
  0
LINE
  8
1
 62
7
 10
-128
 20
-48
 30
0
 11
-128
 21
-46.9175000000001
 31
0
  0
LINE
  8
1
 62
7
 10
-128
 20
-48
 30
0
 11
-122.5
 21
-48
 31
0
  0
LINE
  8
1
 62
7
 10
-151
 20
54.49999999999997
 30
0
 11
-151
 21
41
 31
0
  0
LINE
  8
1
 62
7
 10
-128
 20
57.49999999999997
 30
0
 11
-148
 21
57.49999999999997
 31
0
  0
LINE
  8
1
 62
7
 10
-128
 20
-57.5
 30
0
 11
-128
 21
-48
 31
0
  0
LINE
  8
1
 62
7
 10
-148
 20
-57.5
 30
0
 11
-128
 21
-57.5
 31
0
  0
LINE
  8
1
 62
2
  6
DASHDOT
 10
-305
 20
0
 30
0
 11
-95
 21
0
 31
0
  0
LINE
  8
1
 62
7
 10
-103.3527568011682
 20
-38.06428495831821
 30
0
 11
-100
 21
-40
 31
0
  0
LINE
  8
1
 62
7
 10
-100
 20
38
 30
0
 11
-103
 21
38
 31
0
  0
LINE
  8
1
 62
7
 10
-104
 20
39
 30
0
 11
-104
 21
53.85640646055097
 31
0
  0
LINE
  8
1
 62
2
  6
DASHDOT
 10
-104
 20
39.9999999999999
 30
0
 11
-100
 21
39.9999999999999
 31
0
  0
LINE
  8
1
 62
7
 10
-104
 20
39.9999999999999
 30
0
 11
-100.5358983848623
 21
38
 31
0
  0
LINE
  8
1
 62
2
  6
DASHDOT
 10
-100
 20
39.9999999999999
 30
0
 11
-88
 21
39.9999999999999
 31
0
  0
LINE
  8
1
 62
7
 10
-104
 20
42.30940107675841
 30
0
 11
-100
 21
39.9999999999999
 31
0
  0
LINE
  8
1
 62
7
 10
-100
 20
-42.30940107675849
 30
0
 11
-99.99999999999999
 21
-53.85640646055111
 31
0
  0
LINE
  8
1
 62
7
 10
-104
 20
-39
 30
0
 11
-104
 21
-53.85640646055111
 31
0
  0
LINE
  8
1
 62
2
  6
DASHDOT
 10
-104
 20
-40
 30
0
 11
-100
 21
-40
 31
0
  0
LINE
  8
1
 62
7
 10
-104
 20
-40
 30
0
 11
-100
 21
-42.30940107675849
 31
0
  0
LINE
  8
1
 62
7
 10
-100
 20
-40
 30
0
 11
-100
 21
-42.30940107675849
 31
0
  0
LINE
  8
1
 62
2
  6
DASHDOT
 10
-100
 20
-40
 30
0
 11
-88
 21
-40
 31
0
  0
LINE
  8
1
 62
7
 10
-100
 20
-38
 30
0
 11
-103
 21
-38
 31
0
  0
LINE
  8
1
 62
7
 10
-104
 20
53.85640646055097
 30
0
 11
-100
 21
53.85640646055097
 31
0
  0
LINE
  8
1
 62
7
 10
-104
 20
-53.85640646055111
 30
0
 11
-99.99999999999999
 21
-53.85640646055111
 31
0
  0
LINE
  8
1
 62
7
 10
-99.00000000000001
 20
33.0717967697244
 30
0
 11
-91.0717967697245
 21
33.0717967697244
 31
0
  0
LINE
  8
1
 62
7
 10
-99.00000000000001
 20
37
 30
0
 11
-99
 21
26.1435935394489
 31
0
  0
LINE
  8
1
 62
7
 10
-99.00000000000001
 20
-26.143593539449
 30
0
 11
-91.09855913434178
 21
-26.143593539449
 31
0
  0
LINE
  8
1
 62
7
 10
-99.00000000000001
 20
-26.143593539449
 30
0
 11
-99.00000000000001
 21
-37
 31
0
  0
LINE
  8
1
 62
7
 10
-99
 20
26.1435935394489
 30
0
 11
-99.00000000000001
 21
-26.143593539449
 31
0
  0
LINE
  8
1
 62
7
 10
-100
 20
53.85640646055097
 30
0
 11
-100
 21
38
 31
0
  0
LINE
  8
1
 62
7
 10
-107
 20
57.49999999999997
 30
0
 11
-122.5
 21
57.49999999999997
 31
0
  0
LINE
  8
1
 62
7
 10
-104
 20
54.49999999999997
 30
0
 11
-104
 21
53.85640646055097
 31
0
  0
LINE
  8
1
 62
7
 10
-100
 20
-38
 30
0
 11
-100
 21
-40
 31
0
  0
LINE
  8
1
 62
7
 10
-104
 20
-54.5
 30
0
 11
-104
 21
-53.85640646055111
 31
0
  0
LINE
  8
1
 62
2
  6
DASHDOT
 10
-129.9999999999999
 20
39.9999999999998
 30
0
 11
-104
 21
39.9999999999999
 31
0
  0
LINE
  8
1
 62
7
 10
-90
 20
50.37304210309225
 30
0
 11
-90
 21
29.6269578969076
 31
0
  0
LINE
  8
1
 62
7
 10
-91.0717967697245
 20
26.1435935394489
 30
0
 11
-99
 21
26.1435935394489
 31
0
  0
LINE
  8
1
 62
7
 10
-91.0717967697245
 20
46.92820323027544
 30
0
 11
-99.99999999999999
 21
46.92820323027544
 31
0
  0
LINE
  8
1
 62
7
 10
-100
 20
53.85640646055097
 30
0
 11
-91.09855913434178
 21
53.85640646055097
 31
0
  0
LINE
  8
1
 62
7
 10
-90.81347894845385
 20
53.40898686960969
 30
0
 11
-91.0717967697245
 21
53.85640646055097
 31
0
  0
LINE
  8
1
 62
7
 10
-90.81347894845385
 20
26.59101313039019
 30
0
 11
-91.0717967697245
 21
26.1435935394489
 31
0
  0
LINE
  8
1
 62
2
  6
DASHDOT
 10
-129.9999999999999
 20
-40.00000000000011
 30
0
 11
-104
 21
-40
 31
0
  0
LINE
  8
1
 62
7
 10
-90
 20
-29.6269578969077
 30
0
 11
-90
 21
-50.3730421030923
 31
0
  0
LINE
  8
1
 62
7
 10
-91.0717967697245
 20
-53.85640646055111
 30
0
 11
-99.99999999999999
 21
-53.85640646055111
 31
0
  0
LINE
  8
1
 62
7
 10
-99.99999999999999
 20
-46.9282032302755
 30
0
 11
-91.0717967697245
 21
-46.9282032302755
 31
0
  0
LINE
  8
1
 62
7
 10
-91.0717967697245
 20
-33.0717967697245
 30
0
 11
-99.00000000000001
 21
-33.0717967697245
 31
0
  0
LINE
  8
1
 62
7
 10
-90.81347894845385
 20
-26.59101313039031
 30
0
 11
-91.0717967697245
 21
-26.143593539449
 31
0
  0
LINE
  8
1
 62
7
 10
-90.81347894845385
 20
-53.40898686960981
 30
0
 11
-91.0717967697245
 21
-53.85640646055111
 31
0
  0
LINE
  8
1
 62
7
 10
-122.5
 20
57.49999999999997
 30
0
 11
-122.5
 21
47.99999999999994
 31
0
  0
LINE
  8
1
 62
7
 10
-122.5
 20
-57.5
 30
0
 11
-107
 21
-57.5
 31
0
  0
LINE
  8
1
 62
7
 10
-193
 20
-95
 30
0
 11
-193
 21
-80
 31
0
  0
LINE
  8
1
 62
7
 10
-205
 20
-97
 30
0
 11
-195
 21
-97
 31
0
  0
LINE
  8
1
 62
7
 10
-207
 20
-80
 30
0
 11
-207
 21
-95
 31
0
  0
LINE
  8
1
 62
7
 10
-175
 20
105.8
 30
0
 11
-225.0681850824731
 21
105.8
 31
0
  0
LINE
  8
1
 62
7
 10
-165
 20
115.3
 30
0
 11
-165
 21
180
 31
0
  0
LINE
  8
1
 62
7
 10
-241
 20
114.3
 30
0
 11
-225
 21
114.3
 31
0
  0
LINE
  8
1
 62
7
 10
-225
 20
114.3
 30
0
 11
-226
 21
115.3
 31
0
  0
LINE
  8
1
 62
7
 10
-240
 20
115.3
 30
0
 11
-241
 21
114.3
 31
0
  0
LINE
  8
1
 62
7
 10
-225
 20
105.3
 30
0
 11
-223.8
 21
105.3
 31
0
  0
LINE
  8
1
 62
7
 10
-225
 20
114.3
 30
0
 11
-225
 21
105.3
 31
0
  0
LINE
  8
1
 62
7
 10
-240
 20
115.3
 30
0
 11
-226
 21
115.3
 31
0
  0
LINE
  8
1
 62
7
 10
-241
 20
105.3
 30
0
 11
-225
 21
105.3
 31
0
  0
LINE
  8
1
 62
7
 10
-241
 20
105.3
 30
0
 11
-241
 21
114.3
 31
0
  0
LINE
  8
1
 62
7
 10
-223.8
 20
102.8
 30
0
 11
-242
 21
102.8
 31
0
  0
LINE
  8
1
 62
7
 10
-223.8
 20
102.8
 30
0
 11
-176.2
 21
102.8
 31
0
  0
LINE
  8
1
 62
7
 10
-223.8
 20
105.3
 30
0
 11
-223.8
 21
102.8
 31
0
  0
LINE
  8
1
 62
7
 10
-242.2
 20
105.3
 30
0
 11
-241
 21
105.3
 31
0
  0
LINE
  8
1
 62
7
 10
-242.2
 20
102.8
 30
0
 11
-242.2
 21
105.3
 31
0
  0
LINE
  8
1
 62
7
 10
-242
 20
102.8
 30
0
 11
-242.2
 21
102.8
 31
0
  0
LINE
  8
1
 62
7
 10
-175
 20
114.3
 30
0
 11
-159
 21
114.3
 31
0
  0
LINE
  8
1
 62
7
 10
-159
 20
114.3
 30
0
 11
-160
 21
115.3
 31
0
  0
LINE
  8
1
 62
7
 10
-174
 20
115.3
 30
0
 11
-175
 21
114.3
 31
0
  0
LINE
  8
1
 62
7
 10
-158
 20
102.8
 30
0
 11
-157.8
 21
102.8
 31
0
  0
LINE
  8
1
 62
7
 10
-155
 20
99.29999999999995
 30
0
 11
-155
 21
99.79999999999995
 31
0
  0
LINE
  8
1
 62
7
 10
-159
 20
105.3
 30
0
 11
-157.8
 21
105.3
 31
0
  0
LINE
  8
1
 62
7
 10
-159
 20
114.3
 30
0
 11
-159
 21
105.3
 31
0
  0
LINE
  8
1
 62
7
 10
-174
 20
115.3
 30
0
 11
-160
 21
115.3
 31
0
  0
LINE
  8
1
 62
7
 10
-175
 20
105.3
 30
0
 11
-167
 21
105.3
 31
0
  0
LINE
  8
1
 62
7
 10
-175
 20
105.3
 30
0
 11
-175
 21
114.3
 31
0
  0
LINE
  8
1
 62
7
 10
-167
 20
102.8
 30
0
 11
-158
 21
102.8
 31
0
  0
LINE
  8
1
 62
7
 10
-159
 20
105.3
 30
0
 11
-167
 21
105.3
 31
0
  0
LINE
  8
1
 62
7
 10
-167
 20
102.8
 30
0
 11
-176.2
 21
102.8
 31
0
  0
LINE
  8
1
 62
7
 10
-157.8
 20
105.3
 30
0
 11
-157.8
 21
102.8
 31
0
  0
LINE
  8
1
 62
7
 10
-176.2
 20
105.3
 30
0
 11
-175
 21
105.3
 31
0
  0
LINE
  8
1
 62
7
 10
-176.2
 20
102.8
 30
0
 11
-176.2
 21
105.3
 31
0
  0
LINE
  8
1
 62
2
  6
DASHDOT
 10
-167
 20
117.3
 30
0
 11
-167
 21
87.29999999999993
 31
0
  0
LINE
  8
1
 62
7
 10
-245
 20
90.29999999999995
 30
0
 11
-245
 21
99.79999999999995
 31
0
  0
LINE
  8
1
 62
7
 10
-155
 20
90.29999999999995
 30
0
 11
-245
 21
90.29999999999995
 31
0
  0
LINE
  8
1
 62
7
 10
-155
 20
99.29999999999995
 30
0
 11
-155
 21
90.29999999999995
 31
0
  0
LINE
  8
1
 62
7
 10
-160.5
 20
74.79999999999995
 30
0
 11
-241.5
 21
74.79999999999995
 31
0
  0
LINE
  8
1
 62
7
 10
-245
 20
78.29999999999995
 30
0
 11
-245
 21
88.79999999999995
 31
0
  0
LINE
  8
1
 62
7
 10
-158.5
 20
74.79999999999995
 30
0
 11
-160.5
 21
74.79999999999995
 31
0
  0
LINE
  8
1
 62
7
 10
-155
 20
88.79999999999995
 30
0
 11
-155
 21
78.29999999999995
 31
0
  0
LINE
  8
1
 62
7
 10
-245
 20
88.79999999999995
 30
0
 11
-155
 21
88.79999999999995
 31
0
  0
LINE
  8
1
 62
7
 10
7
 20
-80
 30
0
 11
-6.999999999999999
 21
-80
 31
0
  0
LINE
  8
1
 62
7
 10
7
 20
-95
 30
0
 11
7
 21
-80
 31
0
  0
LINE
  8
1
 62
7
 10
-5
 20
-97
 30
0
 11
5
 21
-97
 31
0
  0
LINE
  8
1
 62
7
 10
-6.999999999999999
 20
-80
 30
0
 11
-10.5
 21
-80
 31
0
  0
LINE
  8
1
 62
7
 10
-6.999999999999999
 20
-80
 30
0
 11
-7
 21
-95
 31
0
  0
LINE
  8
1
 62
7
 10
8
 20
-67
 30
0
 11
10.5
 21
-67
 31
0
  0
LINE
  8
1
 62
7
 10
8
 20
-57.5
 30
0
 11
40
 21
-57.5
 31
0
  0
LINE
  8
1
 62
7
 10
8
 20
-57.5
 30
0
 11
8
 21
-67
 31
0
  0
LINE
  8
1
 62
7
 10
-8
 20
-67
 30
0
 11
8
 21
-67
 31
0
  0
LINE
  8
1
 62
7
 10
-8
 20
-57.5
 30
0
 11
8
 21
-57.5
 31
0
  0
LINE
  8
1
 62
7
 10
-8
 20
-57.5
 30
0
 11
-8
 21
-67
 31
0
  0
LINE
  8
1
 62
7
 10
-10.5
 20
-80
 30
0
 11
-10.5
 21
-79.06217782649111
 31
0
  0
LINE
  8
1
 62
7
 10
10.5
 20
-80
 30
0
 11
7
 21
-80
 31
0
  0
LINE
  8
1
 62
7
 10
10.5
 20
-67
 30
0
 11
10.5
 21
-67.93782217350901
 31
0
  0
LINE
  8
1
 62
7
 10
-10.5
 20
-67
 30
0
 11
-8
 21
-67
 31
0
  0
LINE
  8
1
 62
7
 10
-40.99999999999999
 20
114.3
 30
0
 11
-24.99999999999999
 21
114.3
 31
0
  0
LINE
  8
1
 62
7
 10
-24.99999999999999
 20
114.3
 30
0
 11
-25.99999999999999
 21
115.3
 31
0
  0
LINE
  8
1
 62
7
 10
-39.99999999999999
 20
115.3
 30
0
 11
-40.99999999999999
 21
114.3
 31
0
  0
LINE
  8
1
 62
7
 10
-24.99999999999999
 20
105.3
 30
0
 11
-23.79999999999999
 21
105.3
 31
0
  0
LINE
  8
1
 62
7
 10
-24.99999999999999
 20
114.3
 30
0
 11
-24.99999999999999
 21
105.3
 31
0
  0
LINE
  8
1
 62
7
 10
-39.99999999999999
 20
115.3
 30
0
 11
-25.99999999999999
 21
115.3
 31
0
  0
LINE
  8
1
 62
7
 10
-40.99999999999999
 20
105.3
 30
0
 11
-32.99999999999999
 21
105.3
 31
0
  0
LINE
  8
1
 62
7
 10
-40.99999999999999
 20
105.3
 30
0
 11
-40.99999999999999
 21
114.3
 31
0
  0
LINE
  8
1
 62
7
 10
-32.99999999999999
 20
102.8
 30
0
 11
-23.79999999999999
 21
102.8
 31
0
  0
LINE
  8
1
 62
2
  6
DASHDOT
 10
-33.00000000000001
 20
87.29999999999993
 30
0
 11
-32.99999999999999
 21
117.3
 31
0
  0
LINE
  8
1
 62
7
 10
-24.99999999999999
 20
105.3
 30
0
 11
-32.99999999999999
 21
105.3
 31
0
  0
LINE
  8
1
 62
7
 10
-32.99999999999999
 20
102.8
 30
0
 11
-42
 21
102.8
 31
0
  0
LINE
  8
1
 62
7
 10
-23.79999999999999
 20
102.8
 30
0
 11
23.80000000000001
 21
102.8
 31
0
  0
LINE
  8
1
 62
7
 10
-23.79999999999999
 20
105.3
 30
0
 11
-23.79999999999999
 21
102.8
 31
0
  0
LINE
  8
1
 62
7
 10
-42.2
 20
105.3
 30
0
 11
-40.99999999999999
 21
105.3
 31
0
  0
LINE
  8
1
 62
7
 10
-42.2
 20
102.8
 30
0
 11
-42.2
 21
105.3
 31
0
  0
LINE
  8
1
 62
7
 10
-42
 20
102.8
 30
0
 11
-42.2
 21
102.8
 31
0
  0
LINE
  8
1
 62
7
 10
25
 20
105.8
 30
0
 11
-24.99999999999999
 21
105.8
 31
0
  0
LINE
  8
1
 62
7
 10
35.00000000000001
 20
115.3
 30
0
 11
35.00000000000001
 21
180
 31
0
  0
LINE
  8
1
 62
7
 10
25
 20
114.3
 30
0
 11
41
 21
114.5
 31
0
  0
LINE
  8
1
 62
7
 10
41
 20
114.5
 30
0
 11
40
 21
115.5
 31
0
  0
LINE
  8
1
 62
7
 10
26
 20
115.3
 30
0
 11
25
 21
114.3
 31
0
  0
LINE
  8
1
 62
7
 10
42
 20
103
 30
0
 11
42.20000000000001
 21
103
 31
0
  0
LINE
  8
1
 62
7
 10
45
 20
99.49999999999997
 30
0
 11
45
 21
99.99999999999997
 31
0
  0
LINE
  8
1
 62
7
 10
41
 20
105.5
 30
0
 11
42.20000000000001
 21
105.5
 31
0
  0
LINE
  8
1
 62
7
 10
41
 20
114.5
 30
0
 11
41
 21
105.5
 31
0
  0
LINE
  8
1
 62
7
 10
26
 20
115.3
 30
0
 11
40
 21
115.5
 31
0
  0
LINE
  8
1
 62
7
 10
25
 20
105.3
 30
0
 11
33.00000000000001
 21
105.3
 31
0
  0
LINE
  8
1
 62
7
 10
25
 20
105.3
 30
0
 11
25
 21
114.3
 31
0
  0
LINE
  8
1
 62
7
 10
33.00000000000001
 20
102.8
 30
0
 11
42
 21
103
 31
0
  0
LINE
  8
1
 62
7
 10
41
 20
105.5
 30
0
 11
33.00000000000001
 21
105.3
 31
0
  0
LINE
  8
1
 62
7
 10
33.00000000000001
 20
102.8
 30
0
 11
23.80000000000001
 21
102.8
 31
0
  0
LINE
  8
1
 62
7
 10
42.20000000000001
 20
105.5
 30
0
 11
42.20000000000001
 21
103
 31
0
  0
LINE
  8
1
 62
7
 10
23.80000000000001
 20
105.3
 30
0
 11
25
 21
105.3
 31
0
  0
LINE
  8
1
 62
7
 10
23.80000000000001
 20
102.8
 30
0
 11
23.80000000000001
 21
105.3
 31
0
  0
LINE
  8
1
 62
2
  6
DASHDOT
 10
33.00000000000001
 20
117.3
 30
0
 11
32.99999999999999
 21
87.29999999999993
 31
0
  0
LINE
  8
1
 62
7
 10
-45
 20
90.29999999999995
 30
0
 11
-45
 21
99.79999999999995
 31
0
  0
LINE
  8
1
 62
7
 10
45
 20
90.49999999999997
 30
0
 11
37.99999999999999
 21
90.29999999999995
 31
0
  0
LINE
  8
1
 62
7
 10
45
 20
99.49999999999997
 30
0
 11
45
 21
90.49999999999997
 31
0
  0
LINE
  8
1
 62
7
 10
-39.5
 20
74.79999999999995
 30
0
 11
39.5
 21
74.99999999999997
 31
0
  0
LINE
  8
1
 62
7
 10
36
 20
57.49999999999997
 30
0
 11
-36
 21
57.49999999999997
 31
0
  0
LINE
  8
1
 62
7
 10
36
 20
71.29999999999995
 30
0
 11
36
 21
57.49999999999997
 31
0
  0
LINE
  8
1
 62
7
 10
-36
 20
57.49999999999997
 30
0
 11
-39.99999999999999
 21
57.49999999999997
 31
0
  0
LINE
  8
1
 62
7
 10
-39.5
 20
74.79999999999995
 30
0
 11
-41.5
 21
74.79999999999995
 31
0
  0
LINE
  8
1
 62
7
 10
-36
 20
71.29999999999995
 30
0
 11
-36
 21
57.49999999999997
 31
0
  0
LINE
  8
1
 62
7
 10
-45
 20
78.29999999999995
 30
0
 11
-45
 21
88.79999999999995
 31
0
  0
LINE
  8
1
 62
7
 10
41.50000000000001
 20
74.99999999999997
 30
0
 11
39.5
 21
74.99999999999997
 31
0
  0
LINE
  8
1
 62
7
 10
45.00000000000001
 20
88.99999999999997
 30
0
 11
45.00000000000001
 21
78.49999999999997
 31
0
  0
LINE
  8
1
 62
7
 10
-57.5
 20
40
 30
0
 11
-57.5
 21
-40
 31
0
  0
LINE
  8
1
 62
7
 10
40.00000000000001
 20
57.49999999999997
 30
0
 11
36
 21
57.49999999999997
 31
0
  0
LINE
  8
1
 62
7
 10
57.50000000000001
 20
-40
 30
0
 11
57.50000000000001
 21
40
 31
0
  0
LINE
  8
1
 62
7
 10
-40
 20
-57.5
 30
0
 11
-8
 21
-57.5
 31
0
  0
LINE
  8
1
 62
2
  6
DASHDOT
 10
-25.99999999999999
 20
40
 30
0
 11
-21.8
 21
40
 31
0
  0
LINE
  8
1
 62
7
 10
-51.99999999999999
 20
39.9999999999999
 30
0
 11
-51.99999999999999
 21
33.0717967697244
 31
0
  0
LINE
  8
1
 62
7
 10
-27.99999999999999
 20
46.92820323027544
 30
0
 11
-39.99999999999999
 21
53.85640646055097
 31
0
  0
LINE
  8
1
 62
7
 10
-27.99999999999999
 20
33.0717967697244
 30
0
 11
-27.99999999999999
 21
46.92820323027544
 31
0
  0
LINE
  8
1
 62
7
 10
-39.99999999999999
 20
26.1435935394489
 30
0
 11
-27.99999999999999
 21
33.0717967697244
 31
0
  0
LINE
  8
1
 62
7
 10
-51.99999999999999
 20
33.0717967697244
 30
0
 11
-39.99999999999999
 21
26.1435935394489
 31
0
  0
LINE
  8
1
 62
7
 10
-51.99999999999999
 20
46.92820323027544
 30
0
 11
-51.99999999999999
 21
39.9999999999999
 31
0
  0
LINE
  8
1
 62
7
 10
-39.99999999999999
 20
53.85640646055097
 30
0
 11
-51.99999999999999
 21
46.92820323027544
 31
0
  0
LINE
  8
1
 62
2
  6
DASHDOT
 10
-39.99999999999999
 20
21.8
 30
0
 11
-39.99999999999999
 21
58.19999999999997
 31
0
  0
LINE
  8
1
 62
2
  6
DASHDOT
 10
-58.19999999999999
 20
40
 30
0
 11
-25.99999999999999
 21
40
 31
0
  0
LINE
  8
1
 62
2
  6
DASHDOT
 10
-26
 20
-40
 30
0
 11
-58.19999999999999
 21
-40
 31
0
  0
LINE
  8
1
 62
7
 10
-51.99999999999999
 20
-40
 30
0
 11
-51.99999999999999
 21
-46.9282032302755
 31
0
  0
LINE
  8
1
 62
2
  6
DASHDOT
 10
-21.8
 20
-40
 30
0
 11
-26
 21
-40
 31
0
  0
LINE
  8
1
 62
7
 10
-27.99999999999999
 20
-33.0717967697245
 30
0
 11
-39.99999999999999
 21
-26.143593539449
 31
0
  0
LINE
  8
1
 62
7
 10
-27.99999999999999
 20
-46.9282032302755
 30
0
 11
-27.99999999999999
 21
-33.0717967697245
 31
0
  0
LINE
  8
1
 62
7
 10
-40
 20
-53.85640646055111
 30
0
 11
-27.99999999999999
 21
-46.9282032302755
 31
0
  0
LINE
  8
1
 62
7
 10
-51.99999999999999
 20
-46.9282032302755
 30
0
 11
-40
 21
-53.85640646055111
 31
0
  0
LINE
  8
1
 62
7
 10
-51.99999999999999
 20
-33.0717967697245
 30
0
 11
-51.99999999999999
 21
-40
 31
0
  0
LINE
  8
1
 62
7
 10
-39.99999999999999
 20
-26.143593539449
 30
0
 11
-51.99999999999999
 21
-33.0717967697245
 31
0
  0
LINE
  8
1
 62
2
  6
DASHDOT
 10
-39.99999999999999
 20
-21.80000000000001
 30
0
 11
-39.99999999999999
 21
-58.19999999999999
 31
0
  0
LINE
  8
1
 62
2
  6
DASHDOT
 10
54.00000000000001
 20
40
 30
0
 11
58.2
 21
40
 31
0
  0
LINE
  8
1
 62
2
  6
DASHDOT
 10
54
 20
-40
 30
0
 11
21.80000000000001
 21
-40
 31
0
  0
LINE
  8
1
 62
7
 10
28.00000000000001
 20
39.9999999999999
 30
0
 11
28.00000000000001
 21
33.0717967697244
 31
0
  0
LINE
  8
1
 62
7
 10
52.00000000000001
 20
46.92820323027544
 30
0
 11
40.00000000000001
 21
53.85640646055097
 31
0
  0
LINE
  8
1
 62
7
 10
52.00000000000001
 20
33.0717967697244
 30
0
 11
52.00000000000001
 21
46.92820323027544
 31
0
  0
LINE
  8
1
 62
7
 10
40.00000000000001
 20
26.1435935394489
 30
0
 11
52.00000000000001
 21
33.0717967697244
 31
0
  0
LINE
  8
1
 62
7
 10
28.00000000000001
 20
33.0717967697244
 30
0
 11
40.00000000000001
 21
26.1435935394489
 31
0
  0
LINE
  8
1
 62
7
 10
28.00000000000001
 20
46.92820323027544
 30
0
 11
28.00000000000001
 21
39.9999999999999
 31
0
  0
LINE
  8
1
 62
7
 10
40.00000000000001
 20
53.85640646055097
 30
0
 11
28.00000000000001
 21
46.92820323027544
 31
0
  0
LINE
  8
1
 62
7
 10
28.00000000000001
 20
-40
 30
0
 11
28.00000000000001
 21
-46.9282032302755
 31
0
  0
LINE
  8
1
 62
2
  6
DASHDOT
 10
58.2
 20
-40
 30
0
 11
54
 21
-40
 31
0
  0
LINE
  8
1
 62
7
 10
52.00000000000001
 20
-33.0717967697245
 30
0
 11
40.00000000000001
 21
-26.143593539449
 31
0
  0
LINE
  8
1
 62
7
 10
52.00000000000001
 20
-46.9282032302755
 30
0
 11
52.00000000000001
 21
-33.0717967697245
 31
0
  0
LINE
  8
1
 62
7
 10
40
 20
-53.85640646055111
 30
0
 11
52.00000000000001
 21
-46.9282032302755
 31
0
  0
LINE
  8
1
 62
7
 10
28.00000000000001
 20
-46.9282032302755
 30
0
 11
40
 21
-53.85640646055111
 31
0
  0
LINE
  8
1
 62
7
 10
28.00000000000001
 20
-33.0717967697245
 30
0
 11
28.00000000000001
 21
-40
 31
0
  0
LINE
  8
1
 62
7
 10
40.00000000000001
 20
-26.143593539449
 30
0
 11
28.00000000000001
 21
-33.0717967697245
 31
0
  0
LINE
  8
1
 62
2
  6
DASHDOT
 10
40.00000000000001
 20
-21.80000000000001
 30
0
 11
40.00000000000001
 21
-58.19999999999999
 31
0
  0
LINE
  8
1
 62
2
  6
DASHDOT
 10
40.00000000000001
 20
21.8
 30
0
 11
40.00000000000001
 21
58.19999999999997
 31
0
  0
LINE
  8
1
 62
2
  6
DASHDOT
 10
21.80000000000001
 20
40
 30
0
 11
54.00000000000001
 21
40
 31
0
  0
LINE
  8
1
 62
2
  6
DASHDOT
 10
9.50983255953711e-15
 20
184.5
 30
0
 11
0
 21
-67.93782217350901
 31
0
  0
LINE
  8
1
 62
2
  6
DASHDOT
 10
-59.4
 20
0
 30
0
 11
28.328
 21
0
 31
0
  0
LINE
  8
1
 62
7
 10
-117
 20
148.3
 30
0
 11
-116.0268096875665
 21
148.3
 31
0
  0
LINE
  8
1
 62
7
 10
-117
 20
141.3
 30
0
 11
-116.0151976230134
 21
141.3
 31
0
  0
LINE
  8
1
 62
7
 10
-117
 20
148.3
 30
0
 11
-117
 21
141.3
 31
0
  0
LINE
  8
1
 62
7
 10
-114.4
 20
144.78052604957
 30
0
 11
-115.1390510419456
 21
142.75
 31
0
  0
LINE
  8
1
 62
7
 10
-115.1532269185458
 20
146.85
 30
0
 11
-114.4
 21
144.78052604957
 31
0
  0
LINE
  8
1
 62
7
 10
22.55043109856758
 20
146.2495689014324
 30
0
 11
25.44956890143242
 21
143.3504310985675
 31
0
  0
LINE
  8
1
 62
7
 10
22.55043109856756
 20
143.3504310985676
 30
0
 11
25.44956890143242
 21
146.2495689014324
 31
0
  0
LINE
  8
1
 62
7
 10
-25.44956890143241
 20
146.2495689014324
 30
0
 11
-22.55043109856757
 21
143.3504310985675
 31
0
  0
LINE
  8
1
 62
7
 10
-25.44956890143244
 20
143.3504310985676
 30
0
 11
-22.55043109856757
 21
146.2495689014324
 31
0
  0
LINE
  8
1
 62
7
 10
0.8333333333333439
 20
137.3
 30
0
 11
2.833333333333344
 21
137.3
 31
0
  0
LINE
  8
1
 62
7
 10
1.06581410364015e-14
 20
135.7920634920634
 30
0
 11
0.8333333333333439
 21
137.3
 31
0
  0
LINE
  8
1
 62
7
 10
-0.8333333333333226
 20
137.3
 30
0
 11
1.06581410364015e-14
 21
135.7920634920634
 31
0
  0
LINE
  8
1
 62
7
 10
-2.833333333333322
 20
137.3
 30
0
 11
-0.8333333333333226
 21
137.3
 31
0
  0
LINE
  8
1
 62
7
 10
1.083333333333344
 20
134.1333333333333
 30
0
 11
2.833333333333344
 21
137.3
 31
0
  0
LINE
  8
1
 62
7
 10
-2.833333333333322
 20
137.3
 30
0
 11
-1.083333333333323
 21
134.1333333333333
 31
0
  0
LINE
  8
1
 62
7
 10
-1.083333333333323
 20
132.1333333333333
 30
0
 11
1.083333333333344
 21
132.1333333333333
 31
0
  0
LINE
  8
1
 62
7
 10
1.083333333333344
 20
134.1333333333333
 30
0
 11
1.083333333333344
 21
132.1333333333333
 31
0
  0
LINE
  8
1
 62
7
 10
-1.083333333333323
 20
134.1333333333333
 30
0
 11
-1.083333333333323
 21
132.1333333333333
 31
0
  0
LINE
  8
1
 62
7
 10
-2.833333333333322
 20
131.8
 30
0
 11
-2.833333333333322
 21
130.8
 31
0
  0
LINE
  8
1
 62
7
 10
2.833333333333344
 20
131.8
 30
0
 11
-2.833333333333322
 21
131.8
 31
0
  0
LINE
  8
1
 62
7
 10
2.833333333333344
 20
130.8
 30
0
 11
2.833333333333344
 21
131.8
 31
0
  0
LINE
  8
1
 62
7
 10
-2.833333333333322
 20
130.8
 30
0
 11
2.833333333333344
 21
130.8
 31
0
  0
LINE
  8
1
 62
7
 10
-2.833333333333322
 20
138.8
 30
0
 11
-2.833333333333322
 21
137.8
 31
0
  0
LINE
  8
1
 62
7
 10
2.833333333333344
 20
138.8
 30
0
 11
-2.833333333333322
 21
138.8
 31
0
  0
LINE
  8
1
 62
7
 10
2.833333333333344
 20
137.8
 30
0
 11
2.833333333333344
 21
138.8
 31
0
  0
LINE
  8
1
 62
7
 10
-2.833333333333322
 20
137.8
 30
0
 11
2.833333333333344
 21
137.8
 31
0
  0
LINE
  8
1
 62
7
 10
-3.999999999999989
 20
139.4666666666666
 30
0
 11
-3.999999999999989
 21
131.1333333333333
 31
0
  0
LINE
  8
1
 62
7
 10
-3.999999999999989
 20
139.4666666666666
 30
0
 11
3.000000000000011
 21
139.4666666666666
 31
0
  0
LINE
  8
1
 62
7
 10
4.000000000000011
 20
130.1333333333333
 30
0
 11
4.000000000000011
 21
138.4666666666666
 31
0
  0
LINE
  8
1
 62
7
 10
4.000000000000011
 20
130.1333333333333
 30
0
 11
-2.999999999999989
 21
130.1333333333333
 31
0
  0
LINE
  8
1
 62
7
 10
-4.333333333333322
 20
139.8
 30
0
 11
-4.333333333333322
 21
131.1333333333333
 31
0
  0
LINE
  8
1
 62
7
 10
4.333333333333344
 20
129.8
 30
0
 11
-2.999999999999989
 21
129.8
 31
0
  0
LINE
  8
1
 62
7
 10
4.333333333333344
 20
129.8
 30
0
 11
4.333333333333344
 21
138.4666666666666
 31
0
  0
LINE
  8
1
 62
7
 10
-4.333333333333322
 20
139.8
 30
0
 11
3.000000000000011
 21
139.8
 31
0
  0
LINE
  8
1
 62
2
  6
DASHDOT
 10
5.684341886080801e-14
 20
191.0534180126148
 30
0
 11
5.684341886080801e-14
 21
186.4465819873852
 31
0
  0
LINE
  8
1
 62
7
 10
5.684341886080801e-14
 20
191.0534180126148
 30
0
 11
5.684341886080801e-14
 21
186.4465819873852
 31
0
  0
LINE
  8
1
 62
7
 10
5
 20
186.4465819873852
 30
0
 11
5.00000000000001
 21
191.5
 31
0
  0
LINE
  8
1
 62
2
  6
DASHDOT
 10
5.684341886080801e-14
 20
186.4465819873852
 30
0
 11
7.150963848845393e-14
 21
186
 31
0
  0
LINE
  8
1
 62
7
 10
-5
 20
186.4465819873852
 30
0
 11
-4.99999999999999
 21
186
 31
0
  0
LINE
  8
1
 62
7
 10
-204.3221008762885
 20
191.5
 30
0
 11
-195.6778991237116
 21
191.5
 31
0
  0
LINE
  8
1
 62
7
 10
-194.2264973081038
 20
191.0534180126148
 30
0
 11
-194.2264973081038
 21
186.4465819873852
 31
0
  0
LINE
  8
1
 62
7
 10
-197.1132486540519
 20
191.0534180126148
 30
0
 11
-197.1132486540519
 21
186.4465819873852
 31
0
  0
LINE
  8
1
 62
7
 10
-202.8867513459482
 20
191.0534180126148
 30
0
 11
-202.8867513459482
 21
186.4465819873852
 31
0
  0
LINE
  8
1
 62
7
 10
-205.7735026918963
 20
191.0534180126148
 30
0
 11
-205.7735026918963
 21
186.4577329726424
 31
0
  0
LINE
  8
1
 62
7
 10
-194.2264973081038
 20
191.0534180126148
 30
0
 11
-194.4129221376626
 21
191.1610504381442
 31
0
  0
LINE
  8
1
 62
7
 10
-205.7735026918963
 20
191.0534180126148
 30
0
 11
-205.5870778623374
 21
191.1610504381442
 31
0
  0
LINE
  8
1
 62
7
 10
-194.4129221376626
 20
186.3389495618557
 30
0
 11
-194.2264973081038
 21
186.4465819873852
 31
0
  0
LINE
  8
1
 62
7
 10
-205.5870778623374
 20
186.3389495618557
 30
0
 11
-205.7735026918963
 21
186.4465819873852
 31
0
  0
LINE
  8
1
 62
7
 10
-200
 20
184.5
 30
0
 11
-193.9
 21
184.5
 31
0
  0
LINE
  8
1
 62
2
  6
DASHDOT
 10
-200
 20
184.5
 30
0
 11
-200
 21
-99.99999999999989
 31
0
  0
LINE
  8
1
 62
2
  6
DASHDOT
 10
-200
 20
186
 30
0
 11
-200
 21
184.5
 31
0
  0
LINE
  8
1
 62
7
 10
-193.9
 20
184.5
 30
0
 11
-175
 21
184.5
 31
0
  0
LINE
  8
1
 62
7
 10
-193.9
 20
186
 30
0
 11
-193.9
 21
184.5
 31
0
  0
LINE
  8
1
 62
7
 10
-206.1
 20
184.5
 30
0
 11
-206.1
 21
186
 31
0
  0
LINE
  8
1
 62
7
 10
-4.499999999999957
 20
191.5
 30
0
 11
-4.99999999999999
 21
191.5
 31
0
  0
LINE
  8
1
 62
7
 10
4.500000000000043
 20
191.5
 30
0
 11
-4.499999999999957
 21
191.5
 31
0
  0
LINE
  8
1
 62
7
 10
9.50983255953711e-15
 20
184.5
 30
0
 11
6.100000000000009
 21
184.5
 31
0
  0
LINE
  8
1
 62
2
  6
DASHDOT
 10
7.150963848845393e-14
 20
186
 30
0
 11
9.50983255953711e-15
 21
184.5
 31
0
  0
LINE
  8
1
 62
7
 10
6.100000000000009
 20
184.5
 30
0
 11
25.00000000000001
 21
184.5
 31
0
  0
LINE
  8
1
 62
7
 10
6.100000000000009
 20
186
 30
0
 11
6.100000000000009
 21
184.5
 31
0
  0
LINE
  8
1
 62
7
 10
5.00000000000001
 20
186
 30
0
 11
6.100000000000009
 21
186
 31
0
  0
LINE
  8
1
 62
7
 10
-6.099999999999991
 20
186
 30
0
 11
-6.099999999999992
 21
184.5
 31
0
  0
LINE
  8
1
 62
7
 10
-4.99999999999999
 20
186
 30
0
 11
-6.099999999999991
 21
186
 31
0
  0
LINE
  8
1
 62
7
 10
-4.99999999999999
 20
191.5
 30
0
 11
-5
 21
186.4465819873852
 31
0
  0
LINE
  8
1
 62
7
 10
5.00000000000001
 20
191.5
 30
0
 11
4.500000000000043
 21
191.5
 31
0
  0
LINE
  8
1
 62
7
 10
5.00000000000001
 20
186
 30
0
 11
5
 21
186.4465819873852
 31
0
  0
LINE
  8
1
 62
7
 10
-4.99999999999999
 20
186
 30
0
 11
7.150963848845393e-14
 21
186
 31
0
  0
LINE
  8
1
 62
2
  6
DASHDOT
 10
-237
 20
144.8
 30
0
 11
-113.4
 21
145
 31
0
  0
LINE
  8
1
 62
7
 10
-153.5
 20
132.8
 30
0
 11
-163.5
 21
132.8
 31
0
  0
LINE
  8
1
 62
7
 10
-152
 20
131.3
 30
0
 11
-152
 21
158.3
 31
0
  0
LINE
  8
1
 62
7
 10
-152
 20
158.3
 30
0
 11
-152
 21
164.8
 31
0
  0
LINE
  8
1
 62
7
 10
-163.5
 20
156.8
 30
0
 11
-153.5
 21
156.8
 31
0
  0
LINE
  8
1
 62
7
 10
-123.5
 20
166.8
 30
0
 11
-122
 21
166.8
 31
0
  0
LINE
  8
1
 62
7
 10
-123.5
 20
122.8
 30
0
 11
-150
 21
122.8
 31
0
  0
LINE
  8
1
 62
7
 10
-123.5
 20
122.8
 30
0
 11
-123.5
 21
166.8
 31
0
  0
LINE
  8
1
 62
7
 10
-122
 20
122.8
 30
0
 11
-123.5
 21
122.8
 31
0
  0
LINE
  8
1
 62
7
 10
-122
 20
166.8
 30
0
 11
-119
 21
166.8
 31
0
  0
LINE
  8
1
 62
7
 10
-122
 20
166.8
 30
0
 11
-122
 21
122.8
 31
0
  0
LINE
  8
1
 62
7
 10
-152
 20
124.8
 30
0
 11
-152
 21
131.3
 31
0
  0
LINE
  8
1
 62
7
 10
-119
 20
122.8
 30
0
 11
-122
 21
122.8
 31
0
  0
LINE
  8
1
 62
7
 10
-117
 20
164.8
 30
0
 11
-117
 21
124.8
 31
0
  0
LINE
  8
1
 62
7
 10
-150
 20
166.8
 30
0
 11
-123.5
 21
166.8
 31
0
  0
LINE
  8
1
 62
7
 10
-235
 20
180
 30
0
 11
-235
 21
115.3
 31
0
  0
LINE
  8
1
 62
7
 10
-175
 20
184.5
 30
0
 11
-175
 21
184
 31
0
  0
LINE
  8
1
 62
7
 10
-225
 20
184.5
 30
0
 11
-206.1
 21
184.5
 31
0
  0
LINE
  8
1
 62
7
 10
-225
 20
184
 30
0
 11
-225
 21
184.5
 31
0
  0
LINE
  8
1
 62
7
 10
-169
 20
184
 30
0
 11
-231
 21
184
 31
0
  0
LINE
  8
1
 62
2
  6
DASHDOT
 10
-200
 20
200.5
 30
0
 11
-200
 21
186
 31
0
  0
LINE
  8
1
 62
7
 10
25.00000000000001
 20
184.5
 30
0
 11
25
 21
184
 31
0
  0
LINE
  8
1
 62
7
 10
-24.99999999999999
 20
184.5
 30
0
 11
-6.099999999999992
 21
184.5
 31
0
  0
LINE
  8
1
 62
7
 10
-24.99999999999999
 20
184
 30
0
 11
-24.99999999999999
 21
184.5
 31
0
  0
LINE
  8
1
 62
7
 10
-35
 20
180
 30
0
 11
-35
 21
115.3
 31
0
  0
LINE
  8
1
 62
7
 10
31.00000000000001
 20
184
 30
0
 11
-30.99999999999998
 21
184
 31
0
  0
LINE
  8
1
 62
2
  6
DASHDOT
 10
9.73656918978883e-15
 20
197.9
 30
0
 11
5.684341886080801e-14
 21
191.0534180126148
 31
0
  0
LINE
  8
1
 62
2
  6
DASHDOT
 10
-23.99999999999999
 20
152.3
 30
0
 11
-23.99999999999999
 21
137.3
 31
0
  0
LINE
  8
1
 62
2
  6
DASHDOT
 10
24
 20
152.3
 30
0
 11
24
 21
137.3
 31
0
  0
LINE
  8
1
 62
2
  6
DASHDOT
 10
37.5
 20
144.8
 30
0
 11
-37.49999999999999
 21
144.8
 31
0
  0
LINE
  8
1
 62
7
 10
-22
 20
164.8
 30
0
 11
-22
 21
152.8
 31
0
  0
LINE
  8
1
 62
7
 10
22
 20
152.8
 30
0
 11
22
 21
164.8
 31
0
  0
LINE
  8
1
 62
7
 10
22
 20
124.8
 30
0
 11
22
 21
136.8
 31
0
  0
LINE
  8
1
 62
7
 10
-22
 20
136.8
 30
0
 11
-22
 21
124.8
 31
0
  0
LINE
  8
1
 62
7
 10
20
 20
166.8
 30
0
 11
-20
 21
166.8
 31
0
  0
LINE
  8
1
 62
7
 10
-20
 20
122.8
 30
0
 11
20
 21
122.8
 31
0
  0
LINE
  8
1
 62
7
 10
-38.00000000000001
 20
90.29999999999995
 30
0
 11
-38.00000000000001
 21
88.79999999999995
 31
0
  0
LINE
  8
1
 62
7
 10
-45
 20
90.29999999999995
 30
0
 11
28
 21
90.29999999999995
 31
0
  0
LINE
  8
1
 62
2
 10
-37.18800000000001
 20
90.29999999999995
 30
0
 11
-37.18800000000001
 21
88.79999999999995
 31
0
  0
LINE
  8
1
 62
2
 10
-28.812
 20
90.29999999999995
 30
0
 11
-28.812
 21
88.79999999999995
 31
0
  0
LINE
  8
1
 62
7
 10
-28
 20
90.29999999999995
 30
0
 11
-28
 21
88.79999999999995
 31
0
  0
LINE
  8
1
 62
7
 10
28
 20
88.79999999999995
 30
0
 11
-45
 21
88.79999999999995
 31
0
  0
LINE
  8
1
 62
7
 10
28
 20
88.79999999999995
 30
0
 11
28.812
 21
88.79999999999995
 31
0
  0
LINE
  8
1
 62
7
 10
28
 20
90.29999999999995
 30
0
 11
28
 21
88.79999999999995
 31
0
  0
LINE
  8
1
 62
2
 10
28.812
 20
90.29999999999995
 30
0
 11
28.812
 21
88.79999999999995
 31
0
  0
LINE
  8
1
 62
7
 10
28.812
 20
90.29999999999995
 30
0
 11
28
 21
90.29999999999995
 31
0
  0
LINE
  8
1
 62
7
 10
28.812
 20
88.79999999999995
 30
0
 11
37.188
 21
88.79999999999995
 31
0
  0
LINE
  8
1
 62
2
 10
37.188
 20
90.29999999999995
 30
0
 11
37.188
 21
88.79999999999995
 31
0
  0
LINE
  8
1
 62
7
 10
37.188
 20
90.29999999999995
 30
0
 11
28.812
 21
90.29999999999995
 31
0
  0
LINE
  8
1
 62
7
 10
37.188
 20
88.79999999999995
 30
0
 11
37.99999999999999
 21
88.79999999999995
 31
0
  0
LINE
  8
1
 62
7
 10
37.99999999999999
 20
90.29999999999995
 30
0
 11
37.99999999999999
 21
88.79999999999995
 31
0
  0
LINE
  8
1
 62
7
 10
37.99999999999999
 20
90.29999999999995
 30
0
 11
37.188
 21
90.29999999999995
 31
0
  0
LINE
  8
1
 62
7
 10
37.99999999999999
 20
88.79999999999995
 30
0
 11
45.00000000000001
 21
88.99999999999997
 31
0
  0
ARC
  8
1
 62
7
 10
-200.0000000000001
 20
195.5534180126147
 30
0
 40
9.553418012614706
 50
252.4120462260063
 51
270
  0
ARC
  8
1
 62
7
 10
5.25
 20
-82.1638611415562
 30
0
 40
15.16386114155617
 50
69.7438419995826
 51
110.2561580004174
  0
ARC
  8
1
 62
7
 10
-5.25
 20
-82.1638611415562
 30
0
 40
15.16386114155617
 50
69.7438419995826
 51
110.2561580004174
  0
ARC
  8
1
 62
7
 10
5.25
 20
-64.83613885844301
 30
0
 40
15.16386114155702
 50
249.7438419995838
 51
290.2561580004162
  0
ARC
  8
1
 62
7
 10
-5.25
 20
-64.83613885844301
 30
0
 40
15.16386114155702
 50
249.7438419995838
 51
290.2561580004162
  0
ARC
  8
1
 62
7
 10
-190.9235881597942
 20
-72.31290334140559
 30
0
 40
5.312903341405465
 50
60.00000000000048
 51
124.5650930945276
  0
ARC
  8
1
 62
7
 10
-209.0764118402058
 20
-72.31290334140559
 30
0
 40
5.312903341405512
 50
55.43490690547243
 51
119.9999999999995
  0
ARC
  8
1
 62
7
 10
-200
 20
-87.06217782649139
 30
0
 40
20.06217782649132
 50
72.41204622600634
 51
107.5879537739937
  0
ARC
  8
1
 62
7
 10
-190.9235881597942
 20
-74.6870966585945
 30
0
 40
5.312903341405536
 50
235.4349069054726
 51
299.9999999999993
  0
ARC
  8
1
 62
7
 10
-209.0764118402058
 20
-74.6870966585945
 30
0
 40
5.31290334140549
 50
240.0000000000006
 51
304.5650930945274
  0
ARC
  8
1
 62
7
 10
-200
 20
-59.93782217350869
 30
0
 40
20.06217782649134
 50
252.4120462260064
 51
287.5879537739937
  0
ARC
  8
1
 62
7
 10
-244.0000000000001
 20
41
 30
0
 40
5
 50
180
 51
270
  0
ARC
  8
1
 62
7
 10
-211.5000000000001
 20
-47.74964387392129
 30
0
 40
3.5
 50
0
 51
82.53367242580588
  0
ARC
  8
1
 62
7
 10
-200
 20
40
 30
0
 40
85.00000000000004
 50
244.1580672368328
 51
262.5336724258056
  0
ARC
  8
1
 62
7
 10
-239.2300904918661
 20
-41
 30
0
 40
4.999999999999976
 50
64.15806723683342
 51
90
  0
ARC
  8
1
 62
7
 10
-244.0000000000001
 20
-41
 30
0
 40
5
 50
90
 51
180
  0
ARC
  8
1
 62
7
 10
-303.9281104669651
 20
29.6269578969076
 30
0
 40
6.071889533035005
 50
180
 51
209.9999999999995
  0
ARC
  8
1
 62
7
 10
-303.9281104669652
 20
50.37304210309225
 30
0
 40
6.071889533034891
 50
180
 51
214.5650930945278
  0
ARC
  8
1
 62
7
 10
-303.9281104669652
 20
50.37304210309225
 30
0
 40
6.071889533034834
 50
149.9999999999998
 51
180
  0
ARC
  8
1
 62
7
 10
-303.9281104669651
 20
29.6269578969076
 30
0
 40
6.071889533034961
 50
145.4349069054728
 51
180
  0
ARC
  8
1
 62
7
 10
-287.0717967697248
 20
39.9999999999999
 30
0
 40
22.92820323027529
 50
162.412046226006
 51
197.5879537739939
  0
ARC
  8
1
 62
7
 10
-303.9281104669651
 20
-50.3730421030923
 30
0
 40
6.071889533035005
 50
180
 51
210.0000000000003
  0
ARC
  8
1
 62
7
 10
-303.9281104669652
 20
-29.6269578969077
 30
0
 40
6.071889533034891
 50
180
 51
214.5650930945278
  0
ARC
  8
1
 62
7
 10
-303.9281104669652
 20
-29.6269578969077
 30
0
 40
6.071889533034811
 50
150.0000000000001
 51
180
  0
ARC
  8
1
 62
7
 10
-303.9281104669651
 20
-50.3730421030923
 30
0
 40
6.071889533034962
 50
145.4349069054728
 51
180
  0
ARC
  8
1
 62
7
 10
-287.0717967697248
 20
-40
 30
0
 40
22.92820323027527
 50
162.4120462260061
 51
197.5879537739939
  0
ARC
  8
1
 62
7
 10
-156
 20
41
 30
0
 40
5
 50
270
 51
0
  0
ARC
  8
1
 62
7
 10
-156
 20
-41
 30
0
 40
5
 50
0
 51
90
  0
ARC
  8
1
 62
7
 10
-160.7699095081339
 20
-41
 30
0
 40
5
 50
90
 51
115.8419327631678
  0
ARC
  8
1
 62
7
 10
-200
 20
40
 30
0
 40
85.00000000000001
 50
277.4663275741943
 51
295.8419327631671
  0
ARC
  8
1
 62
7
 10
-188.5
 20
-47.74964387392129
 30
0
 40
3.500000000000069
 50
97.46632757419414
 51
180
  0
ARC
  8
1
 62
7
 10
-96.07188953303492
 20
29.6269578969076
 30
0
 40
6.071889533034892
 50
330.0000000000004
 51
0
  0
ARC
  8
1
 62
7
 10
-96.07188953303491
 20
50.37304210309225
 30
0
 40
6.071889533034908
 50
325.4349069054724
 51
0
  0
ARC
  8
1
 62
7
 10
-96.07188953303491
 20
50.37304210309225
 30
0
 40
6.071889533034906
 50
0
 51
29.9999999999999
  0
ARC
  8
1
 62
7
 10
-96.07188953303492
 20
29.6269578969076
 30
0
 40
6.07188953303492
 50
0
 51
34.56509309452748
  0
ARC
  8
1
 62
7
 10
-112.9282032302753
 20
39.9999999999999
 30
0
 40
22.9282032302753
 50
342.4120462260061
 51
17.58795377399402
  0
ARC
  8
1
 62
7
 10
-96.07188953303492
 20
-50.3730421030923
 30
0
 40
6.071889533034943
 50
329.9999999999996
 51
0
  0
ARC
  8
1
 62
7
 10
-96.07188953303491
 20
-29.6269578969077
 30
0
 40
6.071889533034902
 50
325.4349069054725
 51
0
  0
ARC
  8
1
 62
7
 10
-96.07188953303491
 20
-29.6269578969077
 30
0
 40
6.071889533034906
 50
0
 51
29.99999999999953
  0
ARC
  8
1
 62
7
 10
-96.07188953303492
 20
-50.3730421030923
 30
0
 40
6.07188953303492
 50
0
 51
34.56509309452752
  0
ARC
  8
1
 62
7
 10
-112.9282032302753
 20
-40
 30
0
 40
22.9282032302753
 50
342.4120462260061
 51
17.58795377399392
  0
ARC
  8
1
 62
7
 10
-158
 20
99.79999999999995
 30
0
 40
3
 50
0
 51
90
  0
ARC
  8
1
 62
7
 10
42
 20
99.99999999999997
 30
0
 40
3
 50
0
 51
90
  0
ARC
  8
1
 62
7
 10
-24
 20
144.8
 30
0
 40
6
 50
90
 51
180
  0
ARC
  8
1
 62
7
 10
24
 20
144.8
 30
0
 40
6
 50
270
 51
0
  0
ARC
  8
1
 62
7
 10
-123.4
 20
144.78052604957
 30
0
 40
9
 50
0
 51
16.75281834738649
  0
ARC
  8
1
 62
7
 10
-123.4
 20
144.78052604957
 30
0
 40
9.000000000000012
 50
343.5496001733873
 51
0
  0
ARC
  8
1
 62
7
 10
2.500000000000028
 20
184.279113742117
 30
0
 40
7.220886257883065
 50
69.74384199958043
 51
110.2561580004196
  0
ARC
  8
1
 62
7
 10
-2.499999999999972
 20
184.2791137421167
 30
0
 40
7.220886257883379
 50
69.74384199958085
 51
110.2561580004191
  0
ARC
  8
1
 62
7
 10
2.500000000000028
 20
193.220886257883
 30
0
 40
7.220886257883065
 50
249.7438419995804
 51
290.2561580004195
  0
ARC
  8
1
 62
7
 10
-2.499999999999972
 20
193.2208862578834
 30
0
 40
7.220886257883458
 50
249.7438419995811
 51
290.2561580004189
  0
ARC
  8
1
 62
7
 10
-195.6778991237116
 20
188.9700460279021
 30
0
 40
2.529953972097898
 50
59.99999999999886
 51
90
  0
ARC
  8
1
 62
7
 10
-204.3221008762885
 20
188.9700460279021
 30
0
 40
2.529953972097876
 50
55.43490690547362
 51
90
  0
ARC
  8
1
 62
7
 10
-195.6778991237116
 20
188.9700460279021
 30
0
 40
2.5299539720979
 50
90
 51
124.5650930945264
  0
ARC
  8
1
 62
7
 10
-200.0000000000001
 20
181.9465819873852
 30
0
 40
9.553418012614831
 50
72.41204622600569
 51
107.5879537739935
  0
ARC
  8
1
 62
7
 10
-204.3221008762885
 20
188.9700460279021
 30
0
 40
2.5299539720979
 50
90
 51
119.9999999999994
  0
ARC
  8
1
 62
7
 10
-195.6778991237116
 20
188.5299539720979
 30
0
 40
2.529953972097876
 50
235.4349069054736
 51
300.0000000000002
  0
ARC
  8
1
 62
7
 10
-204.3221008762885
 20
188.5299539720978
 30
0
 40
2.52995397209783
 50
240.0000000000002
 51
304.5650930945278
  0
ARC
  8
1
 62
7
 10
-200.0000000000001
 20
195.5534180126147
 30
0
 40
9.553418012614713
 50
270
 51
287.5879537739945
  0
ARC
  8
1
 62
7
 10
-200
 20
191.5
 30
0
 40
4.5
 50
0
 51
180
  0
ARC
  8
1
 62
7
 10
7.413987119704231e-14
 20
191.5
 30
0
 40
4.499999999999969
 50
0
 51
90
  0
ARC
  8
1
 62
7
 10
7.413987119704231e-14
 20
191.5
 30
0
 40
4.5
 50
90
 51
180
  0
ARC
  8
1
 62
7
 10
-163.5
 20
131.3
 30
0
 40
1.5
 50
90
 51
180
  0
ARC
  8
1
 62
7
 10
-153.5
 20
131.3
 30
0
 40
1.5
 50
0
 51
90
  0
ARC
  8
1
 62
7
 10
-153.5
 20
158.3
 30
0
 40
1.5
 50
270
 51
0
  0
ARC
  8
1
 62
7
 10
-163.5
 20
158.3
 30
0
 40
1.5
 50
180
 51
270
  0
ARC
  8
1
 62
7
 10
24
 20
144.8
 30
0
 40
6
 50
0
 51
90
  0
ARC
  8
1
 62
7
 10
-24
 20
144.8
 30
0
 40
6
 50
180
 51
270
  0
CIRCLE
  8
1
 62
7
 10
0
 20
0
 30
0
 40
28.328
  0
CIRCLE
  8
1
 62
2
 10
0
 20
0
 30
0
 40
29.807
  0
CIRCLE
  8
1
 62
7
 10
-39.99999999999999
 20
40
 30
0
 40
14
  0
CIRCLE
  8
1
 62
7
 10
-39.99999999999999
 20
40
 30
0
 40
12
  0
CIRCLE
  8
1
 62
7
 10
-39.99999999999999
 20
-40
 30
0
 40
13.99999999999999
  0
CIRCLE
  8
1
 62
7
 10
-39.99999999999999
 20
-40
 30
0
 40
12
  0
CIRCLE
  8
1
 62
7
 10
40.00000000000001
 20
40
 30
0
 40
14
  0
CIRCLE
  8
1
 62
7
 10
40.00000000000001
 20
-40
 30
0
 40
13.99999999999999
  0
CIRCLE
  8
1
 62
7
 10
40.00000000000001
 20
40
 30
0
 40
12
  0
CIRCLE
  8
1
 62
7
 10
40.00000000000001
 20
-40
 30
0
 40
12
  0
CIRCLE
  8
1
 62
7
 10
0
 20
0
 30
0
 40
38
  0
CIRCLE
  8
1
 62
7
 10
24
 20
144.8
 30
0
 40
3.5
  0
CIRCLE
  8
1
 62
7
 10
-24
 20
144.8
 30
0
 40
3.500000000000011
  0
ARC
  8
1
 62
7
 10
-241.0000000000001
 20
41
 30
0
 40
5
 50
270
 51
0
  0
ARC
  8
1
 62
7
 10
-239.5
 20
71.29999999999995
 30
0
 40
3.5
 50
0
 51
90
  0
ARC
  8
1
 62
7
 10
-252.0000000000001
 20
-54.5
 30
0
 40
3
 50
270
 51
0
  0
ARC
  8
1
 62
7
 10
-252.0000000000001
 20
54.49999999999997
 30
0
 40
3
 50
0
 51
90
  0
ARC
  8
1
 62
7
 10
-293.0000000000001
 20
54.49999999999997
 30
0
 40
3
 50
90
 51
180
  0
ARC
  8
1
 62
7
 10
-293.0000000000001
 20
-54.5
 30
0
 40
3
 50
180
 51
270
  0
ARC
  8
1
 62
7
 10
-297.0000000000001
 20
-39
 30
0
 40
1
 50
0
 51
90
  0
ARC
  8
1
 62
7
 10
-300.0000000000001
 20
-37
 30
0
 40
1
 50
180
 51
270
  0
ARC
  8
1
 62
7
 10
-297.0000000000001
 20
39
 30
0
 40
1
 50
270
 51
0
  0
ARC
  8
1
 62
7
 10
-300.0000000000001
 20
37
 30
0
 40
1
 50
90
 51
180
  0
ARC
  8
1
 62
7
 10
-159
 20
41
 30
0
 40
5
 50
180
 51
270
  0
ARC
  8
1
 62
7
 10
-148
 20
-54.5
 30
0
 40
3
 50
180
 51
270
  0
ARC
  8
1
 62
7
 10
-148
 20
54.49999999999997
 30
0
 40
3
 50
90
 51
180
  0
ARC
  8
1
 62
7
 10
-107
 20
54.49999999999997
 30
0
 40
3
 50
0
 51
90
  0
ARC
  8
1
 62
7
 10
-107
 20
-54.5
 30
0
 40
3
 50
270
 51
0
  0
ARC
  8
1
 62
7
 10
-103
 20
-39
 30
0
 40
1
 50
90
 51
180
  0
ARC
  8
1
 62
7
 10
-100
 20
-37
 30
0
 40
1
 50
270
 51
0
  0
ARC
  8
1
 62
7
 10
-103
 20
39
 30
0
 40
1
 50
180
 51
270
  0
ARC
  8
1
 62
7
 10
-100
 20
37
 30
0
 40
0.9999999999999858
 50
0
 51
90
  0
ARC
  8
1
 62
7
 10
-195
 20
-95
 30
0
 40
2
 50
270
 51
0
  0
ARC
  8
1
 62
7
 10
-205
 20
-95
 30
0
 40
2
 50
180
 51
270
  0
ARC
  8
1
 62
7
 10
-242
 20
99.79999999999995
 30
0
 40
3.000000000000043
 50
90
 51
180
  0
ARC
  8
1
 62
7
 10
-241.5
 20
78.29999999999995
 30
0
 40
3.5
 50
180
 51
270
  0
ARC
  8
1
 62
7
 10
-158.5
 20
78.29999999999995
 30
0
 40
3.5
 50
270
 51
0
  0
ARC
  8
1
 62
7
 10
-160.5
 20
71.29999999999995
 30
0
 40
3.5
 50
90
 51
180
  0
ARC
  8
1
 62
7
 10
5
 20
-95
 30
0
 40
2
 50
270
 51
0
  0
ARC
  8
1
 62
7
 10
-5
 20
-95
 30
0
 40
2
 50
180
 51
270
  0
ARC
  8
1
 62
7
 10
-42
 20
99.79999999999995
 30
0
 40
3.000000000000043
 50
90
 51
180
  0
ARC
  8
1
 62
7
 10
-41.5
 20
78.29999999999995
 30
0
 40
3.5
 50
180
 51
270
  0
ARC
  8
1
 62
7
 10
41.50000000000001
 20
78.49999999999997
 30
0
 40
3.5
 50
270
 51
0
  0
ARC
  8
1
 62
7
 10
39.5
 20
71.49999999999997
 30
0
 40
3.5
 50
90
 51
180
  0
ARC
  8
1
 62
7
 10
-39.5
 20
71.29999999999995
 30
0
 40
3.5
 50
0
 51
90
  0
ARC
  8
1
 62
7
 10
40.00000000000001
 20
-40
 30
0
 40
17.5
 50
270
 51
0
  0
ARC
  8
1
 62
7
 10
40.00000000000001
 20
40
 30
0
 40
17.5
 50
0
 51
90
  0
ARC
  8
1
 62
7
 10
-39.99999999999999
 20
40
 30
0
 40
17.49999999999997
 50
90
 51
180
  0
ARC
  8
1
 62
7
 10
-39.99999999999999
 20
-40
 30
0
 40
17.50000000000001
 50
180
 51
270
  0
ARC
  8
1
 62
7
 10
-116.0151976230134
 20
142.6
 30
0
 40
1.299999999999983
 50
270
 51
343.5496001733842
  0
ARC
  8
1
 62
7
 10
-116.0268096875665
 20
147
 30
0
 40
1.299999999999991
 50
16.7528183473855
 51
90
  0
ARC
  8
1
 62
7
 10
3.000000000000011
 20
138.4666666666666
 30
0
 40
0.9999999999999996
 50
0
 51
90
  0
ARC
  8
1
 62
7
 10
-2.999999999999989
 20
131.1333333333333
 30
0
 40
1
 50
180
 51
270
  0
ARC
  8
1
 62
7
 10
3.000000000000011
 20
138.4666666666666
 30
0
 40
1.333333333333333
 50
0
 51
90
  0
ARC
  8
1
 62
7
 10
-2.999999999999989
 20
131.1333333333333
 30
0
 40
1.333333333333333
 50
180
 51
270
  0
ARC
  8
1
 62
7
 10
-150
 20
164.8
 30
0
 40
2
 50
90
 51
180
  0
ARC
  8
1
 62
7
 10
-150
 20
124.8
 30
0
 40
2
 50
180
 51
270
  0
ARC
  8
1
 62
7
 10
-119
 20
124.8
 30
0
 40
2
 50
270
 51
0
  0
ARC
  8
1
 62
7
 10
-119
 20
164.8
 30
0
 40
2
 50
0
 51
90
  0
ARC
  8
1
 62
7
 10
-169
 20
180
 30
0
 40
4
 50
0
 51
90
  0
ARC
  8
1
 62
7
 10
-231
 20
180
 30
0
 40
4
 50
90
 51
180
  0
ARC
  8
1
 62
7
 10
31.00000000000001
 20
180
 30
0
 40
3.999999999999996
 50
0
 51
90
  0
ARC
  8
1
 62
7
 10
-31
 20
180
 30
0
 40
4
 50
90
 51
180
  0
ARC
  8
1
 62
7
 10
24
 20
136.8
 30
0
 40
2
 50
90
 51
180
  0
ARC
  8
1
 62
7
 10
24
 20
152.8
 30
0
 40
2
 50
180
 51
270
  0
ARC
  8
1
 62
7
 10
-24
 20
152.8
 30
0
 40
2
 50
270
 51
0
  0
ARC
  8
1
 62
7
 10
-24
 20
136.8
 30
0
 40
2
 50
0
 51
90
  0
ARC
  8
1
 62
7
 10
20
 20
124.8
 30
0
 40
2
 50
270
 51
0
  0
ARC
  8
1
 62
7
 10
20
 20
164.8
 30
0
 40
2
 50
0
 51
90
  0
ARC
  8
1
 62
7
 10
-20
 20
164.8
 30
0
 40
2
 50
90
 51
180
  0
ARC
  8
1
 62
7
 10
-20
 20
124.8
 30
0
 40
2
 50
180
 51
270
  0
TEXT
  8
1
 62
7
 10
53.51761472914519
 20
199.3570186733237
 30
0
 40
3.149999999999999
  1
DWG No.  SV-4006
 41
0.9
  0
TEXT
  8
1
 62
7
 10
53.51761472914519
 20
192.4270186733237
 30
0
 40
3.149999999999999
  1
REV.     00
 41
0.9
  0
TEXT
  8
1
 62
7
 10
53.51761472914519
 20
185.4970186733237
 30
0
 40
3.149999999999999
  1
Yamatake Corporation
 41
0.9
  0
ENDSEC
  0
EOF
