  0
SECTION
  2
HEADER
  9
$ACADVER
  1
AC1009
  9
$INSBASE
 10
0
 20
0
  9
$EXTMIN
 10
-71.5
 20
-241.3
  9
$EXTMAX
 10
337.5920767524721
 20
78.92190683990168
  9
$LIMMIN
 10
-71.5
 20
-241.3
  9
$LIMMAX
 10
337.5920767524721
 20
78.92190683990168
  9
$VIEWCTR
 10
10
 20
10
  9
$VIEWSIZE
 40
10
  9
$SNAPMODE
 70
0
  9
$SNAPUNIT
 10
1
 20
1
  9
$SNAPBASE
 10
0
 20
0
  9
$SNAPANG
 50
0
  9
$SNAPSTYLE
 70
0
  9
$SNAPISOPAIR
 70
0
  9
$GRIDMODE
 70
0
  9
$GRIDUNIT
 10
0
 20
0
  9
$ORTHOMODE
 70
0
  9
$REGENMODE
 70
1
  9
$FILLMODE
 70
1
  9
$QTEXTMODE
 70
0
  9
$DRAGMODE
 70
2
  9
$LTSCALE
 40
1
  9
$OSMODE
 70
0
  9
$ATTMODE
 70
1
  9
$TEXTSIZE
 40
3.5
  9
$TRACEWID
 40
0.5
  9
$TEXTSTYLE
  7
STANDARD
  9
$CLAYER
  8
0
  9
$CELTYPE
  6
BYLAYER
  9
$CECOLOR
 62
256
  9
$DIMSCALE
 40
1
  9
$DIMASZ
 40
0.18
  9
$DIMEXO
 40
0.0625
  9
$DIMDLI
 40
0.38
  9
$DIMRND
 40
0
  9
$DIMDLE
 40
0
  9
$DIMEXE
 40
0.18
  9
$DIMTP
 40
0
  9
$DIMTM
 40
0
  9
$DIMTXT
 40
0.18
  9
$DIMCEN
 40
0.09
  9
$DIMTSZ
 40
0
  9
$DIMTOL
 70
0
  9
$DIMLIM
 70
0
  9
$DIMTIH
 70
1
  9
$DIMTOH
 70
1
  9
$DIMSE1
 70
0
  9
$DIMSE2
 70
0
  9
$DIMTAD
 70
0
  9
$DIMZIN
 70
0
  9
$DIMBLK
  1

  9
$DIMASO
 70
1
  9
$DIMSHO
 70
1
  9
$DIMPOST
  1

  9
$DIMAPOST
  1

  9
$DIMALT
 70
0
  9
$DIMALTD
 70
2
  9
$DIMALTF
 40
25.4
  9
$DIMLFAC
 40
1
  9
$DIMTOFL
 70
0
  9
$DIMTVP
 40
0
  9
$DIMTIX
 70
0
  9
$DIMSOXD
 70
0
  9
$DIMSAH
 70
0
  9
$DIMBLK1
  1

  9
$DIMBLK2
  1

  9
$DIMSTYLE
  2
*UNNAMED
  9
$DIMCLRD
 70
0
  9
$DIMCLRE
 70
0
  9
$DIMCLRT
 70
0
  9
$DIMTFAC
 40
1
  9
$DIMGAP
 40
0.09
  9
$LUNITS
 70
2
  9
$LUPREC
 70
4
  9
$AXISMODE
 70
0
  9
$AXISUNIT
 10
0
 20
0
  9
$SKETCHINC
 40
0.1
  9
$FILLETRAD
 40
2
  9
$AUNITS
 70
0
  9
$AUPREC
 70
0
  9
$MENU
  1
ACAD
  9
$ELEVATION
 40
0
  9
$THICKNESS
 40
0
  9
$VIEWDIR
 10
0
 20
0
 30
1
  9
$LIMCHECK
 70
0
  9
$BLIPMODE
 70
1
  9
$CHAMFERA
 40
0
  9
$CHAMFERB
 40
0
  9
$FASTZOOM
 70
1
  9
$SKPOLY
 70
0
  9
$ANGBASE
 50
0
  9
$ANGDIR
 70
0
  9
$PDMODE
 70
0
  9
$PDSIZE
 40
0
  9
$PLINEWID
 40
0
  9
$COORDS
 70
2
  0
ENDSEC
  0
SECTION
  2
TABLES
  0
TABLE
  2
DIMSTYLE
 70
0
  0
ENDTAB
  0
TABLE
  2
LTYPE
 70
9
  0
LTYPE
  2
CONTINUOUS
 70
64
  3
Solid line
 72
65
 73
0
 40
0
  0
LTYPE
  2
BORDER
 70
64
  3
__ __ . __ __ .
 72
65
 73
6
 40
18.83976669254806
 49
5.382790483585159
 49
-2.69139524179258
 49
5.382790483585159
 49
-2.69139524179258
 49
0
 49
-2.69139524179258
  0
LTYPE
  2
CENTER
 70
64
  3
____ _ ____ _
 72
65
 73
4
 40
21.53116193434064
 49
13.4569762089629
 49
-2.69139524179258
 49
2.69139524179258
 49
-2.69139524179258
  0
LTYPE
  2
DASHDOT
 70
64
  3
__ . __ . __ .
 72
65
 73
4
 40
10.76558096717032
 49
5.382790483585159
 49
-2.69139524179258
 49
0
 49
-2.69139524179258
  0
LTYPE
  2
DASHED
 70
64
  3
__ __ __ __ __
 72
65
 73
2
 40
8.074185725377738
 49
5.382790483585159
 49
-2.69139524179258
  0
LTYPE
  2
DIVIDE
 70
64
  3
__ . . __ . . 
 72
65
 73
6
 40
13.4569762089629
 49
5.382790483585159
 49
-2.69139524179258
 49
0
 49
-2.69139524179258
 49
0
 49
-2.69139524179258
  0
LTYPE
  2
DOT
 70
64
  3
..............
 72
65
 73
4
 40
5.382790483585159
 49
0
 49
-2.69139524179258
 49
0
 49
-2.69139524179258
  0
LTYPE
  2
HIDDEN
 70
64
  3
_ _ _ _ _ _ _
 72
65
 73
2
 40
4.037092862688869
 49
2.69139524179258
 49
-1.34569762089629
  0
LTYPE
  2
PHANTOM
 70
64
  3
_____ _ _ _____ _ _ 
 72
65
 73
6
 40
26.9139524179258
 49
13.4569762089629
 49
-2.69139524179258
 49
2.69139524179258
 49
-2.69139524179258
 49
2.69139524179258
 49
-2.69139524179258
  0
ENDTAB
  0
TABLE
  2
LAYER
 70
3
  0
LAYER
  2
1
 70
0
 62
7
  6
CONTINUOUS
  0
LAYER
  2
0
 70
0
 62
7
  6
CONTINUOUS
  0
ENDTAB
  0
TABLE
  2
STYLE
 70
4
  0
STYLE
  2
STANDARD
 70
0
 40
0
 41
1
 50
0
 71
0
 42
3.5
  3
txt
  4

  0
STYLE
  2
SIMPLEX
 70
0
 40
0
 41
1
 50
0
 71
0
 42
3.5
  3
simplex
  4

  0
STYLE
  2
COMPLEX
 70
0
 40
0
 41
1
 50
0
 71
0
 42
3.5
  3
complex
  4

  0
STYLE
  2
ITALIC
 70
0
 40
0
 41
1
 50
0
 71
0
 42
3.5
  3
italic
  4

  0
ENDTAB
  0
TABLE
  2
VIEW
 70
0
  0
ENDTAB
  0
ENDSEC
  0
SECTION
  2
BLOCKS
  0
ENDSEC
  0
SECTION
  2
ENTITIES
  0
LINE
  8
1
 62
2
  6
DASHDOT
 10
148.8
 20
52
 30
0
 11
148.8
 21
-241.3
 31
0
  0
LINE
  8
1
 62
2
  6
DASHDOT
 10
62
 20
-83
 30
0
 11
62
 21
-96.5
 31
0
  0
LINE
  8
1
 62
2
  6
DASHDOT
 10
-62
 20
-83
 30
0
 11
-62
 21
-96.5
 31
0
  0
LINE
  8
1
 62
2
  6
DASHDOT
 10
0
 20
-241.3
 30
0
 11
0
 21
52
 31
0
  0
LINE
  8
1
 62
7
 10
37.4983270970526
 20
-214.8479442192185
 30
0
 11
23.45201974734522
 21
-232.2077210399933
 31
0
  0
LINE
  8
1
 62
7
 10
35.4884644934773
 20
-214.8479442192185
 30
0
 11
23.05763216920241
 21
-231.9047602481793
 31
0
  0
LINE
  8
1
 62
7
 10
22.7695854977469
 20
-231.9047602481793
 30
0
 11
22.7695854977469
 21
-215.0695854977469
 31
0
  0
LINE
  8
1
 62
7
 10
23.25865128714122
 20
-232.2999999999999
 30
0
 11
23.16482524956763
 21
-232.2999999999999
 31
0
  0
LINE
  8
1
 62
7
 10
26.62235902394832
 20
-228.2895110138463
 30
0
 11
26.62235902394832
 21
-239.3
 31
0
  0
LINE
  8
1
 62
7
 10
-22
 20
-214.3
 30
0
 11
-52.5
 21
-214.3
 31
0
  0
LINE
  8
1
 62
7
 10
-23.05763216920241
 20
-231.9047602481793
 30
0
 11
-35.48846449347741
 21
-214.8479442192185
 31
0
  0
LINE
  8
1
 62
7
 10
-23.45201974734516
 20
-232.2077210399933
 30
0
 11
-37.49832709705271
 21
-214.8479442192185
 31
0
  0
LINE
  8
1
 62
7
 10
-23.16482524956757
 20
-232.2999999999999
 30
0
 11
-23.25865128714116
 21
-232.2999999999999
 31
0
  0
LINE
  8
1
 62
7
 10
-22.7695854977469
 20
-215.0695854977469
 30
0
 11
-22.7695854977469
 21
-231.9047602481793
 31
0
  0
LINE
  8
1
 62
7
 10
162.69860696318
 20
-232.3
 30
0
 11
162.4412731626463
 21
-232.3
 31
0
  0
LINE
  8
1
 62
7
 10
161.4563784081654
 20
-230.4534386547568
 30
0
 11
167.3322964527288
 21
-216.012133468583
 31
0
  0
LINE
  8
1
 62
7
 10
145.9180264837881
 20
-228.8605150439622
 30
0
 11
144.2859188205243
 21
-216.012133468583
 31
0
  0
LINE
  8
1
 62
7
 10
132.4827252597732
 20
-214.3
 30
0
 11
148.834457289801
 21
-214.3
 31
0
  0
LINE
  8
1
 62
7
 10
146.1100805007364
 20
-230.3724148704121
 30
0
 11
145.9180264837881
 21
-228.8605150439622
 31
0
  0
LINE
  8
1
 62
7
 10
125.2053197510586
 20
-211.3
 30
0
 11
141.1637639674836
 21
-211.3
 31
0
  0
LINE
  8
1
 62
7
 10
141.1637639674836
 20
-211.3
 30
0
 11
144.8
 21
-202.3
 31
0
  0
LINE
  8
1
 62
7
 10
125.2053197510586
 20
-214.3
 30
0
 11
125.2053197510586
 21
-211.3
 31
0
  0
LINE
  8
1
 62
7
 10
177.2
 20
-202.3
 30
0
 11
144.8
 21
-202.3
 31
0
  0
LINE
  8
1
 62
7
 10
22
 20
-214.3
 30
0
 11
52.5
 21
-214.3000000000001
 31
0
  0
LINE
  8
1
 62
7
 10
132.4827252597732
 20
-239.3
 30
0
 11
172.3516852899781
 21
-239.3
 31
0
  0
LINE
  8
1
 62
7
 10
172.3516852899781
 20
-239.3
 30
0
 11
172.3516852899781
 21
-214.3
 31
0
  0
LINE
  8
1
 62
7
 10
172.3516852899781
 20
-214.3
 30
0
 11
177.2
 21
-202.3
 31
0
  0
LINE
  8
1
 62
7
 10
-26.62235902394826
 20
-239.3
 30
0
 11
-26.62235902394826
 21
-228.2895110138463
 31
0
  0
LINE
  8
1
 62
7
 10
-40.5
 20
-202.3
 30
0
 11
40.5
 21
-202.3
 31
0
  0
LINE
  8
1
 62
7
 10
40.46568877480712
 20
-202.3
 30
0
 11
52.5
 21
-202.3
 31
0
  0
LINE
  8
1
 62
7
 10
39.2194151267862
 20
-210.3348994967025
 30
0
 11
39.46629794778789
 21
-203.2651005032975
 31
0
  0
LINE
  8
1
 62
7
 10
-38.2200242997672
 20
-211.3
 30
0
 11
38.2200242997672
 21
-211.3
 31
0
  0
LINE
  8
1
 62
7
 10
-39.46629794778801
 20
-203.2651005032975
 30
0
 11
-39.21941512678632
 21
-210.3348994967025
 31
0
  0
LINE
  8
1
 62
2
  6
DASHDOT
 10
-11
 20
-236.7
 30
0
 11
-11
 21
-223.9
 31
0
  0
LINE
  8
1
 62
2
  6
DASHDOT
 10
-17.39999999999998
 20
-230.3
 30
0
 11
-4.599999999999966
 21
-230.3
 31
0
  0
LINE
  8
1
 62
2
  6
DASHDOT
 10
11
 20
-236.7
 30
0
 11
11
 21
-223.9
 31
0
  0
LINE
  8
1
 62
2
  6
DASHDOT
 10
4.600000000000023
 20
-230.3
 30
0
 11
17.40000000000003
 21
-230.3
 31
0
  0
LINE
  8
1
 62
7
 10
26.62235902394832
 20
-239.3
 30
0
 11
17
 21
-239.3
 31
0
  0
LINE
  8
1
 62
7
 10
-26.62235902394826
 20
-239.3
 30
0
 11
-17
 21
-239.3
 31
0
  0
LINE
  8
1
 62
7
 10
17
 20
-219.3
 30
0
 11
17
 21
-239.3
 31
0
  0
LINE
  8
1
 62
7
 10
-17
 20
-239.3
 30
0
 11
17
 21
-239.3
 31
0
  0
LINE
  8
1
 62
7
 10
-17
 20
-219.3
 30
0
 11
-17
 21
-239.3
 31
0
  0
LINE
  8
1
 62
7
 10
-52.5
 20
-214.3
 30
0
 11
-52.5
 21
-202.3
 31
0
  0
LINE
  8
1
 62
7
 10
52.5
 20
-202.3
 30
0
 11
52.5
 21
-214.3000000000001
 31
0
  0
LINE
  8
1
 62
7
 10
-52.5
 20
-202.3
 30
0
 11
-40.46568877480706
 21
-202.3
 31
0
  0
LINE
  8
1
 62
7
 10
125.2053197510586
 20
-239.3
 30
0
 11
125.2053197510586
 21
-214.3
 31
0
  0
LINE
  8
1
 62
7
 10
146.3549383019417
 20
-216.7795189878593
 30
0
 11
146.3549383019417
 21
-230.3569251752391
 31
0
  0
LINE
  8
1
 62
7
 10
140.9167180399364
 20
-216.9795073266423
 30
0
 11
142.7142805226775
 21
-230.8087922030327
 31
0
  0
LINE
  8
1
 62
7
 10
160.7050444401458
 20
-230.5637712774995
 30
0
 11
160.7050444401458
 21
-216.4977856843383
 31
0
  0
LINE
  8
1
 62
7
 10
172.3516852899781
 20
-214.3
 30
0
 11
148.834457289801
 21
-214.3
 31
0
  0
LINE
  8
1
 62
7
 10
171.1962898868982
 20
-215.0525074725342
 30
0
 11
163.9252265429319
 21
-231.5011043169641
 31
0
  0
LINE
  8
1
 62
7
 10
132.4827252597732
 20
-214.3
 30
0
 11
132.4827252597732
 21
-239.3
 31
0
  0
LINE
  8
1
 62
7
 10
125.2053197510586
 20
-239.3
 30
0
 11
132.4827252597732
 21
-239.3
 31
0
  0
LINE
  8
1
 62
7
 10
125.2053197510586
 20
-214.3
 30
0
 11
132.4827252597732
 21
-214.3
 31
0
  0
LINE
  8
1
 62
7
 10
-55.34677308145422
 20
-78.05000000000001
 30
0
 11
-56.09999999999997
 21
-75.98052604957007
 31
0
  0
LINE
  8
1
 62
7
 10
-56.09999999999997
 20
-75.98052604957007
 30
0
 11
-55.36094895805439
 21
-73.94999999999999
 31
0
  0
LINE
  8
1
 62
7
 10
-53.5
 20
-79.5
 30
0
 11
-53.5
 21
-72.5
 31
0
  0
LINE
  8
1
 62
7
 10
-53.5
 20
-72.5
 30
0
 11
-54.48480237698658
 21
-72.5
 31
0
  0
LINE
  8
1
 62
7
 10
-53.5
 20
-79.5
 30
0
 11
-54.47319031243347
 21
-79.5
 31
0
  0
LINE
  8
1
 62
7
 10
55.34677308145422
 20
-73.95000000000002
 30
0
 11
56.10000000000002
 21
-76.01947395042995
 31
0
  0
LINE
  8
1
 62
7
 10
56.10000000000002
 20
-76.01947395042995
 30
0
 11
55.36094895805439
 21
-78.05000000000004
 31
0
  0
LINE
  8
1
 62
7
 10
53.5
 20
-72.50000000000003
 30
0
 11
53.5
 21
-79.50000000000003
 31
0
  0
LINE
  8
1
 62
7
 10
53.5
 20
-79.50000000000003
 30
0
 11
54.48480237698664
 21
-79.50000000000003
 31
0
  0
LINE
  8
1
 62
7
 10
53.5
 20
-72.50000000000003
 30
0
 11
54.47319031243353
 21
-72.50000000000003
 31
0
  0
LINE
  8
1
 62
7
 10
20.99999999999989
 20
-125.5
 30
0
 11
20.99999999999989
 21
-141.5
 31
0
  0
LINE
  8
1
 62
7
 10
18.99999999999989
 20
-125.5
 30
0
 11
18.99999999999989
 21
-126.5
 31
0
  0
LINE
  8
1
 62
7
 10
18.74999999999989
 20
-125.5
 30
0
 11
18.74999999999989
 21
-126.5
 31
0
  0
LINE
  8
1
 62
7
 10
-3.800000000000011
 20
-125
 30
0
 11
-2.000000000000114
 21
-125
 31
0
  0
LINE
  8
1
 62
7
 10
142.6768172149018
 20
-141.5
 30
0
 11
135.3
 21
-141.5
 31
0
  0
LINE
  8
1
 62
7
 10
142.1530056725255
 20
-126.5
 30
0
 11
139.3
 21
-126.5
 31
0
  0
LINE
  8
1
 62
7
 10
139.3
 20
-125.5
 30
0
 11
139.3
 21
-126.5
 31
0
  0
LINE
  8
1
 62
7
 10
135.3
 20
-126.5
 30
0
 11
139.3
 21
-126.5
 31
0
  0
LINE
  8
1
 62
7
 10
135.3
 20
-141.5
 30
0
 11
135.3
 21
-126.5
 31
0
  0
LINE
  8
1
 62
7
 10
1.999999999999886
 20
-125
 30
0
 11
1.999999999999886
 21
-123.9
 31
0
  0
LINE
  8
1
 62
7
 10
1.999999999999886
 20
-123.9
 30
0
 11
1.999999999999886
 21
-121.5
 31
0
  0
LINE
  8
1
 62
7
 10
-2.000000000000114
 20
-123.9
 30
0
 11
-2.000000000000114
 21
-121.5
 31
0
  0
LINE
  8
1
 62
7
 10
-2.000000000000114
 20
-125
 30
0
 11
-2.000000000000114
 21
-123.9
 31
0
  0
LINE
  8
1
 62
7
 10
-19.00000000000011
 20
-126.5
 30
0
 11
-19.00000000000011
 21
-125.5
 31
0
  0
LINE
  8
1
 62
7
 10
1.999999999999886
 20
-125
 30
0
 11
3.800000000000011
 21
-125
 31
0
  0
LINE
  8
1
 62
7
 10
18.99999999999989
 20
-126.5
 30
0
 11
6.276540312079931
 21
-126.5
 31
0
  0
LINE
  8
1
 62
7
 10
-21.00000000000011
 20
-141.5
 30
0
 11
-21.00000000000011
 21
-125.5
 31
0
  0
LINE
  8
1
 62
7
 10
20.99999999999989
 20
-141.5
 30
0
 11
6.276540312079931
 21
-141.5
 31
0
  0
LINE
  8
1
 62
7
 10
-6.276540312079874
 20
-126.5
 30
0
 11
-6.276540312079874
 21
-141.5
 31
0
  0
LINE
  8
1
 62
7
 10
-6.276540312079874
 20
-126.5
 30
0
 11
-14.62019151721347
 21
-126.5
 31
0
  0
LINE
  8
1
 62
7
 10
-6.276540312079874
 20
-141.5
 30
0
 11
-14.62019151721347
 21
-141.5
 31
0
  0
LINE
  8
1
 62
7
 10
6.276540312079931
 20
-126.5
 30
0
 11
6.276540312079931
 21
-141.5
 31
0
  0
LINE
  8
1
 62
7
 10
6.276540312079931
 20
-126.5
 30
0
 11
-6.276540312079874
 21
-126.5
 31
0
  0
LINE
  8
1
 62
7
 10
6.276540312079931
 20
-141.5
 30
0
 11
-6.276540312079874
 21
-141.5
 31
0
  0
LINE
  8
1
 62
7
 10
-14.62019151721347
 20
-126.5
 30
0
 11
-14.62019151721347
 21
-141.5
 31
0
  0
LINE
  8
1
 62
7
 10
-14.62019151721347
 20
-126.5
 30
0
 11
-19.00000000000011
 21
-126.5
 31
0
  0
LINE
  8
1
 62
7
 10
-14.62019151721347
 20
-141.5
 30
0
 11
-21.00000000000011
 21
-141.5
 31
0
  0
LINE
  8
1
 62
7
 10
14.62019151721341
 20
-141.5
 30
0
 11
14.62019151721341
 21
-126.5
 31
0
  0
LINE
  8
1
 62
7
 10
-1.237436867076497
 20
-94.26256313292353
 30
0
 11
1.23743686707644
 21
-96.73743686707647
 31
0
  0
LINE
  8
1
 62
7
 10
-1.237436867076497
 20
-96.73743686707647
 30
0
 11
1.23743686707644
 21
-94.26256313292353
 31
0
  0
LINE
  8
1
 62
7
 10
-1.237436867076497
 20
-112.7625631329235
 30
0
 11
1.23743686707644
 21
-115.2374368670765
 31
0
  0
LINE
  8
1
 62
7
 10
-1.237436867076497
 20
-115.2374368670765
 30
0
 11
1.23743686707644
 21
-112.7625631329235
 31
0
  0
LINE
  8
1
 62
7
 10
124.6
 20
-98.25
 30
0
 11
123.8608798583755
 21
-98.25
 31
0
  0
LINE
  8
1
 62
7
 10
124.6
 20
-92.75
 30
0
 11
123.8608798583755
 21
-92.75000000000001
 31
0
  0
LINE
  8
1
 62
7
 10
124.6
 20
-98.25
 30
0
 11
124.6
 21
-92.75
 31
0
  0
LINE
  8
1
 62
7
 10
122.5999999999999
 20
-95.5
 30
0
 11
123.2369479099659
 21
-93.75
 31
0
  0
LINE
  8
1
 62
7
 10
123.2369479099659
 20
-97.25
 30
0
 11
122.5999999999999
 21
-95.5
 31
0
  0
LINE
  8
1
 62
7
 10
124.6
 20
-116.75
 30
0
 11
123.8608798583755
 21
-116.75
 31
0
  0
LINE
  8
1
 62
7
 10
124.6
 20
-111.25
 30
0
 11
123.8608798583755
 21
-111.25
 31
0
  0
LINE
  8
1
 62
7
 10
124.6
 20
-116.75
 30
0
 11
124.6
 21
-111.25
 31
0
  0
LINE
  8
1
 62
7
 10
122.5999999999999
 20
-114
 30
0
 11
123.2369479099659
 21
-112.25
 31
0
  0
LINE
  8
1
 62
7
 10
123.2369479099659
 20
-115.75
 30
0
 11
122.5999999999999
 21
-114
 31
0
  0
LINE
  8
1
 62
7
 10
124.6
 20
-117.5
 30
0
 11
124.6
 21
-92
 31
0
  0
LINE
  8
1
 62
7
 10
-3.500000000000114
 20
-118.5
 30
0
 11
3.499999999999886
 21
-118.5
 31
0
  0
LINE
  8
1
 62
7
 10
3.499999999999886
 20
-118.5
 30
0
 11
3.499999999999886
 21
-91
 31
0
  0
LINE
  8
1
 62
7
 10
-3.500000000000114
 20
-91
 30
0
 11
3.499999999999886
 21
-91
 31
0
  0
LINE
  8
1
 62
7
 10
-3.500000000000114
 20
-91
 30
0
 11
-3.500000000000114
 21
-118.5
 31
0
  0
LINE
  8
1
 62
7
 10
139.3
 20
-126.5
 30
0
 11
130.05
 21
-126.5
 31
0
  0
LINE
  8
1
 62
7
 10
-2.000000000000114
 20
-123.9
 30
0
 11
1.999999999999886
 21
-123.9
 31
0
  0
LINE
  8
1
 62
7
 10
18.74999999999989
 20
-126.5
 30
0
 11
-18.75000000000011
 21
-126.5
 31
0
  0
LINE
  8
1
 62
7
 10
-18.75000000000011
 20
-126.5
 30
0
 11
-18.75000000000011
 21
-125.5
 31
0
  0
LINE
  8
1
 62
7
 10
130.05
 20
-126.5
 30
0
 11
130.05
 21
-125.5
 31
0
  0
LINE
  8
1
 62
7
 10
-1.13686837721616e-13
 20
-127.7264973081038
 30
0
 11
-5
 21
-130.6132486540519
 31
0
  0
LINE
  8
1
 62
7
 10
-5
 20
-130.6132486540519
 30
0
 11
-5.000000000000114
 21
-132.7
 31
0
  0
LINE
  8
1
 62
7
 10
4.999999999999886
 20
-136.3867513459481
 30
0
 11
4.999999999999886
 21
-134.3
 31
0
  0
LINE
  8
1
 62
7
 10
4.999999999999886
 20
-130.6132486540519
 30
0
 11
-1.13686837721616e-13
 21
-127.7264973081038
 31
0
  0
LINE
  8
1
 62
2
 10
-1.13686837721616e-13
 20
-139.2735026918963
 30
0
 11
4.999999999999886
 21
-136.3867513459481
 31
0
  0
LINE
  8
1
 62
7
 10
135.3
 20
-130.6132486540519
 30
0
 11
135.3
 21
-127.7264973081038
 31
0
  0
LINE
  8
1
 62
7
 10
135.3
 20
-127.7264973081038
 30
0
 11
131.1333333333333
 21
-127.7264973081038
 31
0
  0
LINE
  8
1
 62
7
 10
130.7465819873852
 20
-127.7264973081038
 30
0
 11
131.1333333333333
 21
-127.7264973081038
 31
0
  0
LINE
  8
1
 62
7
 10
130.7465819873852
 20
-139.2735026918963
 30
0
 11
130.6389495618558
 21
-139.0870778623374
 31
0
  0
LINE
  8
1
 62
7
 10
135.3
 20
-139.2735026918963
 30
0
 11
130.7465819873852
 21
-139.2735026918963
 31
0
  0
LINE
  8
1
 62
7
 10
130.7465819873852
 20
-127.7264973081038
 30
0
 11
130.6389495618558
 21
-127.9129221376627
 31
0
  0
LINE
  8
1
 62
7
 10
135.3
 20
-130.6132486540519
 30
0
 11
130.7465819873852
 21
-130.6132486540519
 31
0
  0
LINE
  8
1
 62
7
 10
135.3
 20
-136.3867513459481
 30
0
 11
135.3
 21
-130.6132486540519
 31
0
  0
LINE
  8
1
 62
7
 10
135.3
 20
-136.3867513459481
 30
0
 11
130.7465819873852
 21
-136.3867513459481
 31
0
  0
LINE
  8
1
 62
7
 10
135.3
 20
-139.2735026918963
 30
0
 11
135.3
 21
-136.3867513459481
 31
0
  0
LINE
  8
1
 62
7
 10
130.3
 20
-134.3
 30
0
 11
130.3
 21
-137.8221008762885
 31
0
  0
LINE
  8
1
 62
7
 10
130.3335547928121
 20
-132.7
 30
0
 11
130.3
 21
-132.7
 31
0
  0
LINE
  8
1
 62
7
 10
130.3
 20
-129.1778991237116
 30
0
 11
130.3
 21
-132.7
 31
0
  0
LINE
  8
1
 62
7
 10
132.3
 20
-132.7
 30
0
 11
130.3335547928121
 21
-132.7
 31
0
  0
LINE
  8
1
 62
7
 10
132.3
 20
-134.3
 30
0
 11
132.3
 21
-132.7
 31
0
  0
LINE
  8
1
 62
7
 10
130.3335547928121
 20
-134.3
 30
0
 11
132.3
 21
-134.3
 31
0
  0
LINE
  8
1
 62
7
 10
130.3
 20
-134.3
 30
0
 11
130.3335547928121
 21
-134.3
 31
0
  0
LINE
  8
1
 62
7
 10
-5.000000000000114
 20
-132.7
 30
0
 11
-4.935585071701212
 21
-132.7
 31
0
  0
LINE
  8
1
 62
7
 10
-5.000000000000114
 20
-132.7
 30
0
 11
-5.000000000000114
 21
-134.3
 31
0
  0
LINE
  8
1
 62
7
 10
-4.935585071701212
 20
-132.7
 30
0
 11
4.935585071701098
 21
-132.7
 31
0
  0
LINE
  8
1
 62
7
 10
4.935585071701098
 20
-132.7
 30
0
 11
4.999999999999886
 21
-132.7
 31
0
  0
LINE
  8
1
 62
7
 10
4.999999999999886
 20
-132.7
 30
0
 11
4.999999999999886
 21
-130.6132486540519
 31
0
  0
LINE
  8
1
 62
7
 10
4.999999999999886
 20
-134.3
 30
0
 11
4.935585071701098
 21
-134.3
 31
0
  0
LINE
  8
1
 62
7
 10
4.999999999999886
 20
-134.3
 30
0
 11
4.999999999999886
 21
-132.7
 31
0
  0
LINE
  8
1
 62
7
 10
4.935585071701098
 20
-134.3
 30
0
 11
-4.935585071701212
 21
-134.3
 31
0
  0
LINE
  8
1
 62
7
 10
-4.935585071701212
 20
-134.3
 30
0
 11
-5.000000000000114
 21
-134.3
 31
0
  0
LINE
  8
1
 62
7
 10
-5.000000000000114
 20
-134.3
 30
0
 11
-5.000000000000114
 21
-136.3867513459481
 31
0
  0
LINE
  8
1
 62
7
 10
-1.13686837721616e-13
 20
-139.2735026918963
 30
0
 11
-5.000000000000114
 21
-136.3867513459481
 31
0
  0
LINE
  8
1
 62
7
 10
-11.00000000000011
 20
-141.5
 30
0
 11
-11.00000000000011
 21
-157
 31
0
  0
LINE
  8
1
 62
7
 10
10.99999999999989
 20
-141.5
 30
0
 11
10.99999999999989
 21
-157.0000000000001
 31
0
  0
LINE
  8
1
 62
7
 10
10.99999999999989
 20
-157.0000000000001
 30
0
 11
-11.00000000000011
 21
-157
 31
0
  0
LINE
  8
1
 62
7
 10
136.4455866609305
 20
-150.8031640454145
 30
0
 11
142.2373627022307
 21
-146.9448632462506
 31
0
  0
LINE
  8
1
 62
7
 10
132.8
 20
-152.8000000000001
 30
0
 11
132.8
 21
-151.6442270553016
 31
0
  0
LINE
  8
1
 62
7
 10
134.671462530459
 20
-148.1488138818779
 30
0
 11
140.4632410496721
 21
-144.2905079740642
 31
0
  0
LINE
  8
1
 62
7
 10
136
 20
-151.6354055064472
 30
0
 11
136
 21
-152.8
 31
0
  0
LINE
  8
1
 62
7
 10
137
 20
-153.8
 30
0
 11
143.1063426796502
 21
-153.8
 31
0
  0
LINE
  8
1
 62
7
 10
137
 20
-157
 30
0
 11
143.2180891420238
 21
-157
 31
0
  0
LINE
  8
1
 62
7
 10
171.3504310985676
 20
-77.44956890143241
 30
0
 11
174.2495689014324
 21
-74.5504310985676
 31
0
  0
LINE
  8
1
 62
7
 10
171.3504310985676
 20
-74.5504310985676
 30
0
 11
174.2495689014324
 21
-77.44956890143244
 31
0
  0
LINE
  8
1
 62
7
 10
175.4381811916546
 20
-78.3
 30
0
 11
181.8
 21
-78.3
 31
0
  0
LINE
  8
1
 62
7
 10
118.3
 20
-5
 30
0
 11
118.3
 21
5
 31
0
  0
LINE
  8
1
 62
7
 10
118.3
 20
-5
 30
0
 11
120.2
 21
-5
 31
0
  0
LINE
  8
1
 62
7
 10
120.2
 20
5
 30
0
 11
118.3
 21
5
 31
0
  0
LINE
  8
1
 62
7
 10
120.8
 20
-91
 30
0
 11
121.8
 21
-91
 31
0
  0
LINE
  8
1
 62
7
 10
184.8
 20
50
 30
0
 11
132.8
 21
50
 31
0
  0
LINE
  8
1
 62
7
 10
120.8
 20
38
 30
0
 11
120.8
 21
-91
 31
0
  0
LINE
  8
1
 62
7
 10
121.8
 20
-91
 30
0
 11
121.8
 21
38
 31
0
  0
LINE
  8
1
 62
7
 10
121.8
 20
-91
 30
0
 11
148.6
 21
-91
 31
0
  0
LINE
  8
1
 62
7
 10
132.8
 20
49
 30
0
 11
184.8
 21
49
 31
0
  0
LINE
  8
1
 62
7
 10
184.8
 20
49
 30
0
 11
184.8
 21
50
 31
0
  0
LINE
  8
1
 62
7
 10
148.8
 20
-90.8
 30
0
 11
148.8
 21
-85.2
 31
0
  0
LINE
  8
1
 62
7
 10
149
 20
-85
 30
0
 11
181.8
 21
-85
 31
0
  0
LINE
  8
1
 62
7
 10
183.8
 20
-73.7
 30
0
 11
175.4381811916546
 21
-73.7
 31
0
  0
LINE
  8
1
 62
7
 10
184.8
 20
-72.7
 30
0
 11
184.8
 21
49
 31
0
  0
LINE
  8
1
 62
7
 10
182.8
 20
-79.3
 30
0
 11
182.8
 21
-84
 31
0
  0
LINE
  8
1
 62
7
 10
148.8
 20
-90.8
 30
0
 11
148.6
 21
-91
 31
0
  0
LINE
  8
1
 62
7
 10
149
 20
-85
 30
0
 11
148.8
 21
-85.2
 31
0
  0
LINE
  8
1
 62
7
 10
-52.5
 20
48.5
 30
0
 11
-52.5
 21
-91
 31
0
  0
LINE
  8
1
 62
7
 10
51
 20
50
 30
0
 11
-51
 21
50
 31
0
  0
LINE
  8
1
 62
7
 10
52.5
 20
-91
 30
0
 11
52.5
 21
48.5
 31
0
  0
LINE
  8
1
 62
7
 10
-52.5
 20
-91
 30
0
 11
52.5
 21
-91
 31
0
  0
LINE
  8
1
 62
7
 10
52.5
 20
-91
 30
0
 11
53.5
 21
-91
 31
0
  0
LINE
  8
1
 62
7
 10
53.5
 20
49
 30
0
 11
53.5
 21
-91
 31
0
  0
LINE
  8
1
 62
7
 10
-53.5
 20
-91
 30
0
 11
-52.5
 21
-91
 31
0
  0
LINE
  8
1
 62
7
 10
-53.5
 20
49
 30
0
 11
-53.5
 21
-91
 31
0
  0
LINE
  8
1
 62
7
 10
-52.5
 20
49
 30
0
 11
-52.5
 21
48.5
 31
0
  0
LINE
  8
1
 62
7
 10
-52.5
 20
49
 30
0
 11
-53.5
 21
49
 31
0
  0
LINE
  8
1
 62
7
 10
52.5
 20
49
 30
0
 11
52.5
 21
48.5
 31
0
  0
LINE
  8
1
 62
7
 10
52.5
 20
49
 30
0
 11
53.5
 21
49
 31
0
  0
LINE
  8
1
 62
7
 10
115.4
 20
-4.150000000000006
 30
0
 11
115.4
 21
4.149999999999977
 31
0
  0
LINE
  8
1
 62
7
 10
115.4
 20
4.149999999999977
 30
0
 11
117.1
 21
4.149999999999977
 31
0
  0
LINE
  8
1
 62
7
 10
117.1
 20
4.149999999999977
 30
0
 11
117.1
 21
-4.150000000000006
 31
0
  0
LINE
  8
1
 62
7
 10
117.1
 20
-4.150000000000006
 30
0
 11
115.4
 21
-4.150000000000006
 31
0
  0
LINE
  8
1
 62
7
 10
115.1626933041054
 20
-2.100000000000023
 30
0
 11
114.6
 21
0
 31
0
  0
LINE
  8
1
 62
7
 10
114.6
 20
0
 30
0
 11
115.1626933041054
 21
2.099999999999994
 31
0
  0
LINE
  8
1
 62
7
 10
-1.484924240491807
 20
-1.48492424049175
 30
0
 11
1.484924240491807
 21
1.484924240491779
 31
0
  0
LINE
  8
1
 62
7
 10
-1.484924240491807
 20
1.484924240491807
 30
0
 11
1.484924240491807
 21
-1.484924240491694
 31
0
  0
LINE
  8
1
 62
7
 10
120.2
 20
37.5
 30
0
 11
120.8
 21
37.5
 31
0
  0
LINE
  8
1
 62
7
 10
120.2
 20
-77.5
 30
0
 11
120.2
 21
-74.15000000000001
 31
0
  0
LINE
  8
1
 62
7
 10
120.2
 20
-77.5
 30
0
 11
120.8
 21
-77.5
 31
0
  0
LINE
  8
1
 62
2
 10
-32.5
 20
-55.5
 30
0
 11
-25.16666666666669
 21
-55.5
 31
0
  0
LINE
  8
1
 62
2
 10
-23.83333333333331
 20
-65.5
 30
0
 11
-23.83333333333331
 21
-56.83333333333334
 31
0
  0
LINE
  8
1
 62
2
 10
-23.83333333333331
 20
-65.5
 30
0
 11
-31.16666666666669
 21
-65.5
 31
0
  0
LINE
  8
1
 62
2
 10
-32.5
 20
-55.5
 30
0
 11
-32.5
 21
-64.16666666666667
 31
0
  0
LINE
  8
1
 62
2
 10
-24.16666666666669
 20
-65.16666666666667
 30
0
 11
-31.16666666666669
 21
-65.16666666666667
 31
0
  0
LINE
  8
1
 62
2
 10
-24.16666666666669
 20
-65.16666666666667
 30
0
 11
-24.16666666666669
 21
-56.83333333333334
 31
0
  0
LINE
  8
1
 62
2
 10
-32.16666666666669
 20
-55.83333333333334
 30
0
 11
-25.16666666666669
 21
-55.83333333333334
 31
0
  0
LINE
  8
1
 62
2
 10
-32.16666666666669
 20
-55.83333333333334
 30
0
 11
-32.16666666666669
 21
-64.16666666666667
 31
0
  0
LINE
  8
1
 62
2
 10
-31
 20
-57.5
 30
0
 11
-25.33333333333331
 21
-57.5
 31
0
  0
LINE
  8
1
 62
2
 10
-25.33333333333331
 20
-57.5
 30
0
 11
-25.33333333333331
 21
-56.5
 31
0
  0
LINE
  8
1
 62
2
 10
-25.33333333333331
 20
-56.5
 30
0
 11
-31
 21
-56.5
 31
0
  0
LINE
  8
1
 62
2
 10
-31
 20
-56.5
 30
0
 11
-31
 21
-57.5
 31
0
  0
LINE
  8
1
 62
2
 10
-31
 20
-64.5
 30
0
 11
-25.33333333333331
 21
-64.5
 31
0
  0
LINE
  8
1
 62
2
 10
-25.33333333333331
 20
-64.5
 30
0
 11
-25.33333333333331
 21
-63.5
 31
0
  0
LINE
  8
1
 62
2
 10
-25.33333333333331
 20
-63.5
 30
0
 11
-31
 21
-63.5
 31
0
  0
LINE
  8
1
 62
2
 10
-31
 20
-63.5
 30
0
 11
-31
 21
-64.5
 31
0
  0
LINE
  8
1
 62
2
 10
-29.25
 20
-61.16666666666667
 30
0
 11
-29.25
 21
-63.16666666666667
 31
0
  0
LINE
  8
1
 62
2
 10
-27.08333333333331
 20
-61.16666666666667
 30
0
 11
-27.08333333333331
 21
-63.16666666666667
 31
0
  0
LINE
  8
1
 62
2
 10
-29.25
 20
-63.16666666666667
 30
0
 11
-27.08333333333331
 21
-63.16666666666667
 31
0
  0
LINE
  8
1
 62
2
 10
-31
 20
-58
 30
0
 11
-29.25
 21
-61.16666666666667
 31
0
  0
LINE
  8
1
 62
2
 10
-27.08333333333331
 20
-61.16666666666667
 30
0
 11
-25.33333333333331
 21
-58
 31
0
  0
LINE
  8
1
 62
2
 10
-31
 20
-58
 30
0
 11
-29
 21
-58
 31
0
  0
LINE
  8
1
 62
2
 10
-29
 20
-58
 30
0
 11
-28.16666666666669
 21
-59.50793650793651
 31
0
  0
LINE
  8
1
 62
2
 10
-28.16666666666669
 20
-59.50793650793651
 30
0
 11
-27.33333333333331
 21
-58
 31
0
  0
LINE
  8
1
 62
2
 10
-27.33333333333331
 20
-58
 30
0
 11
-25.33333333333331
 21
-58
 31
0
  0
LINE
  8
1
 62
2
 10
12.69999999999999
 20
-64.3
 30
0
 11
13.37058823529412
 21
-64.3
 31
0
  0
LINE
  8
1
 62
2
 10
13.37058823529412
 20
-64.3
 30
0
 11
13.37058823529412
 21
-63.71764705882353
 31
0
  0
LINE
  8
1
 62
2
 10
12.69999999999999
 20
-63.71764705882353
 30
0
 11
12.69999999999999
 21
-64.3
 31
0
  0
LINE
  8
1
 62
2
 10
12.69999999999999
 20
-64.54705882352941
 30
0
 11
14.1916665658448
 21
-64.54705882352941
 31
0
  0
LINE
  8
1
 62
2
 10
14.19999999999999
 20
-64.54705882352941
 30
0
 11
14.19999999999999
 21
-64.40588235294118
 31
0
  0
LINE
  8
1
 62
2
 10
13.82941176470592
 20
-65.00588235294117
 30
0
 11
14.0068107171009
 21
-65.05882352941177
 31
0
  0
LINE
  8
1
 62
2
 10
11.80000000000001
 20
-64.40588235294118
 30
0
 11
11.80000000000001
 21
-64.33529411764707
 31
0
  0
LINE
  8
1
 62
2
 10
12.69999999999999
 20
-64.54705882352941
 30
0
 11
12.69999999999999
 21
-65.04117647058824
 31
0
  0
LINE
  8
1
 62
2
 10
13.01764705882351
 20
-65.35882352941177
 30
0
 11
13.12352941176471
 21
-65.35882352941177
 31
0
  0
LINE
  8
1
 62
2
 10
14.1916665658448
 20
-64.54705882352941
 30
0
 11
14.19999999999999
 21
-64.54705882352941
 31
0
  0
LINE
  8
1
 62
2
 10
14.19999999999999
 20
-64.40588235294118
 30
0
 11
14.19999999999999
 21
-64.33529411764707
 31
0
  0
LINE
  8
1
 62
2
 10
15.37700534759364
 20
-65.5
 30
0
 11
15.19782681884931
 21
-65.92234938918304
 31
0
  0
LINE
  8
1
 62
2
 10
16.65294117647062
 20
-63.24117647058824
 30
0
 11
15.50956433980741
 21
-65.93954580511326
 31
0
  0
LINE
  8
1
 62
2
 10
14.2705882352941
 20
-63.24117647058824
 30
0
 11
15.37700534759364
 21
-65.5
 31
0
  0
LINE
  8
1
 62
2
 10
15.27647058823533
 20
-63.24117647058824
 30
0
 11
14.2705882352941
 21
-63.24117647058824
 31
0
  0
LINE
  8
1
 62
2
 10
15.27647058823533
 20
-63.24117647058824
 30
0
 11
15.84117647058821
 21
-64.40588235294118
 31
0
  0
LINE
  8
1
 62
2
 10
16.33529411764709
 20
-63.24117647058824
 30
0
 11
16.65294117647062
 21
-63.24117647058824
 31
0
  0
LINE
  8
1
 62
2
 10
15.84117647058821
 20
-64.40588235294118
 30
0
 11
16.33529411764709
 21
-63.24117647058824
 31
0
  0
LINE
  8
1
 62
2
 10
16.70588235294122
 20
-63.24117647058824
 30
0
 11
17.35882352941184
 21
-65.5
 31
0
  0
LINE
  8
1
 62
2
 10
17.58823529411774
 20
-63.24117647058824
 30
0
 11
16.70588235294122
 21
-63.24117647058824
 31
0
  0
LINE
  8
1
 62
2
 10
18.43590041493769
 20
-64.10588235294118
 30
0
 11
18.0117647058824
 21
-65.5
 31
0
  0
LINE
  8
1
 62
2
 10
18.43590041493769
 20
-64.10588235294118
 30
0
 11
18.84117647058821
 21
-65.5
 31
0
  0
LINE
  8
1
 62
2
 10
17.35882352941184
 20
-65.5
 30
0
 11
18.0117647058824
 21
-65.5
 31
0
  0
LINE
  8
1
 62
2
 10
17.58823529411774
 20
-63.24117647058824
 30
0
 11
17.99411764705883
 21
-64.63529411764706
 31
0
  0
LINE
  8
1
 62
2
 10
18.41764705882349
 20
-63.24117647058824
 30
0
 11
17.99411764705883
 21
-64.63529411764706
 31
0
  0
LINE
  8
1
 62
2
 10
18.41764705882349
 20
-63.24117647058824
 30
0
 11
19.07058823529411
 21
-63.24117647058824
 31
0
  0
LINE
  8
1
 62
2
 10
18.84117647058821
 20
-65.5
 30
0
 11
19.49411764705883
 21
-65.5
 31
0
  0
LINE
  8
1
 62
2
 10
19.07058823529411
 20
-63.24117647058824
 30
0
 11
19.47647058823532
 21
-64.63529411764706
 31
0
  0
LINE
  8
1
 62
2
 10
19.90000000000003
 20
-63.24117647058824
 30
0
 11
19.47647058823532
 21
-64.63529411764706
 31
0
  0
LINE
  8
1
 62
2
 10
20.18235294117653
 20
-63.24117647058824
 30
0
 11
19.90000000000003
 21
-63.24117647058824
 31
0
  0
LINE
  8
1
 62
2
 10
20.18235294117653
 20
-63.24117647058824
 30
0
 11
19.49411764705883
 21
-65.5
 31
0
  0
LINE
  8
1
 62
2
 10
-2.08823529411768
 20
-64.32171845606335
 30
0
 11
-1.435294117647061
 21
-65.5
 31
0
  0
LINE
  8
1
 62
2
 10
-2.317647058823468
 20
-64.56470588235294
 30
0
 11
-2.08823529411768
 21
-64.32171845606335
 31
0
  0
LINE
  8
1
 62
2
 10
-1.894117647058806
 20
-64.12026147572053
 30
0
 11
-1.047058823529369
 21
-65.5
 31
0
  0
LINE
  8
1
 62
2
 10
-1.047058823529369
 20
-63.24117647058824
 30
0
 11
-1.894117647058806
 21
-64.12026147572053
 31
0
  0
LINE
  8
1
 62
2
 10
-1.435294117647061
 20
-63.24117647058824
 30
0
 11
-1.047058823529369
 21
-63.24117647058824
 31
0
  0
LINE
  8
1
 62
2
 10
-2.317647058823468
 20
-64.12352941176471
 30
0
 11
-1.435294117647061
 21
-63.24117647058824
 31
0
  0
LINE
  8
1
 62
2
 10
-14.44117647058818
 20
-63.24117647058824
 30
0
 11
-13.54117647058831
 21
-63.24117647058824
 31
0
  0
LINE
  8
1
 62
2
 10
-13.54117647058831
 20
-63.24117647058824
 30
0
 11
-13.54117647058831
 21
-63.47058823529412
 31
0
  0
LINE
  8
1
 62
2
 10
-14.44117647058818
 20
-63.24117647058824
 30
0
 11
-14.44117647058818
 21
-65.5
 31
0
  0
LINE
  8
1
 62
2
 10
21.20588235294122
 20
-64.3
 30
0
 11
21.87647058823529
 21
-64.3
 31
0
  0
LINE
  8
1
 62
2
 10
21.87647058823529
 20
-64.3
 30
0
 11
21.87647058823529
 21
-63.71764705882353
 31
0
  0
LINE
  8
1
 62
2
 10
21.20588235294122
 20
-63.71764705882353
 30
0
 11
21.20588235294122
 21
-64.3
 31
0
  0
LINE
  8
1
 62
2
 10
21.20588235294122
 20
-64.54705882352941
 30
0
 11
22.69754891878591
 21
-64.54705882352941
 31
0
  0
LINE
  8
1
 62
2
 10
22.70588235294122
 20
-64.54705882352941
 30
0
 11
22.70588235294122
 21
-64.40588235294118
 31
0
  0
LINE
  8
1
 62
2
 10
22.33529411764709
 20
-65.00588235294117
 30
0
 11
22.51269307004213
 21
-65.05882352941177
 31
0
  0
LINE
  8
1
 62
2
 10
20.30588235294124
 20
-64.40588235294118
 30
0
 11
20.30588235294124
 21
-64.33529411764707
 31
0
  0
LINE
  8
1
 62
2
 10
21.20588235294122
 20
-64.54705882352941
 30
0
 11
21.20588235294122
 21
-65.04117647058824
 31
0
  0
LINE
  8
1
 62
2
 10
21.52352941176468
 20
-65.35882352941177
 30
0
 11
21.62941176470594
 21
-65.35882352941177
 31
0
  0
LINE
  8
1
 62
2
 10
22.69754891878591
 20
-64.54705882352941
 30
0
 11
22.70588235294122
 21
-64.54705882352941
 31
0
  0
LINE
  8
1
 62
2
 10
22.70588235294122
 20
-64.40588235294118
 30
0
 11
22.70588235294122
 21
-64.33529411764707
 31
0
  0
LINE
  8
1
 62
2
 10
24.24117647058819
 20
-62.32352941176471
 30
0
 11
24.24117647058819
 21
-65.5
 31
0
  0
LINE
  8
1
 62
2
 10
25
 20
-62.32352941176471
 30
0
 11
24.24117647058819
 21
-62.32352941176471
 31
0
  0
LINE
  8
1
 62
2
 10
25
 20
-65.5
 30
0
 11
25
 21
-62.32352941176471
 31
0
  0
LINE
  8
1
 62
2
 10
24.24117647058819
 20
-65.5
 30
0
 11
25
 21
-65.5
 31
0
  0
LINE
  8
1
 62
2
 10
23.05882352941182
 20
-62.32352941176471
 30
0
 11
23.05882352941182
 21
-65.5
 31
0
  0
LINE
  8
1
 62
2
 10
23.81764705882352
 20
-62.32352941176471
 30
0
 11
23.05882352941182
 21
-62.32352941176471
 31
0
  0
LINE
  8
1
 62
2
 10
23.81764705882352
 20
-65.5
 30
0
 11
23.81764705882352
 21
-62.32352941176471
 31
0
  0
LINE
  8
1
 62
2
 10
23.05882352941182
 20
-65.5
 30
0
 11
23.81764705882352
 21
-65.5
 31
0
  0
LINE
  8
1
 62
2
 10
1.935294117647118
 20
-64.24705882352941
 30
0
 11
1.935294117647118
 21
-64.54705882352941
 31
0
  0
LINE
  8
1
 62
2
 10
2.447058823529403
 20
-64.24705882352941
 30
0
 11
1.935294117647118
 21
-64.24705882352941
 31
0
  0
LINE
  8
1
 62
2
 10
2.447058823529403
 20
-64.54705882352941
 30
0
 11
2.447058823529403
 21
-64.24705882352941
 31
0
  0
LINE
  8
1
 62
2
 10
1.935294117647118
 20
-64.54705882352941
 30
0
 11
2.447058823529403
 21
-64.54705882352941
 31
0
  0
LINE
  8
1
 62
2
 10
1.300000000000011
 20
-64.40588235294118
 30
0
 11
1.300000000000011
 21
-64.33529411764707
 31
0
  0
LINE
  8
1
 62
2
 10
1.291666565844821
 20
-64.54705882352941
 30
0
 11
1.300000000000011
 21
-64.54705882352941
 31
0
  0
LINE
  8
1
 62
2
 10
0.1176470588235361
 20
-65.35882352941177
 30
0
 11
0.22352941176473
 21
-65.35882352941177
 31
0
  0
LINE
  8
1
 62
2
 10
-0.1999999999999886
 20
-64.54705882352941
 30
0
 11
-0.1999999999999886
 21
-65.04117647058824
 31
0
  0
LINE
  8
1
 62
2
 10
-1.099999999999966
 20
-64.40588235294118
 30
0
 11
-1.099999999999966
 21
-64.33529411764707
 31
0
  0
LINE
  8
1
 62
2
 10
0.9294117647058897
 20
-65.00588235294117
 30
0
 11
1.106810717100927
 21
-65.05882352941177
 31
0
  0
LINE
  8
1
 62
2
 10
1.300000000000011
 20
-64.54705882352941
 30
0
 11
1.300000000000011
 21
-64.40588235294118
 31
0
  0
LINE
  8
1
 62
2
 10
-0.1999999999999886
 20
-64.54705882352941
 30
0
 11
1.291666565844821
 21
-64.54705882352941
 31
0
  0
LINE
  8
1
 62
2
 10
-0.1999999999999886
 20
-63.71764705882353
 30
0
 11
-0.1999999999999886
 21
-64.3
 31
0
  0
LINE
  8
1
 62
2
 10
0.4705882352940876
 20
-64.3
 30
0
 11
0.4705882352940876
 21
-63.71764705882353
 31
0
  0
LINE
  8
1
 62
2
 10
-0.1999999999999886
 20
-64.3
 30
0
 11
0.4705882352940876
 21
-64.3
 31
0
  0
LINE
  8
1
 62
2
 10
-1.435294117647061
 20
-65.5
 30
0
 11
-1.047058823529369
 21
-65.5
 31
0
  0
LINE
  8
1
 62
2
 10
-2.317647058823468
 20
-65.5
 30
0
 11
-3.094117647058795
 21
-65.5
 31
0
  0
LINE
  8
1
 62
2
 10
-2.317647058823468
 20
-64.56470588235294
 30
0
 11
-2.317647058823468
 21
-65.5
 31
0
  0
LINE
  8
1
 62
2
 10
-2.317647058823468
 20
-62.32352941176471
 30
0
 11
-2.317647058823468
 21
-64.12352941176471
 31
0
  0
LINE
  8
1
 62
2
 10
-3.094117647058795
 20
-62.32352941176471
 30
0
 11
-2.317647058823468
 21
-62.32352941176471
 31
0
  0
LINE
  8
1
 62
2
 10
-3.094117647058795
 20
-65.5
 30
0
 11
-3.094117647058795
 21
-62.32352941176471
 31
0
  0
LINE
  8
1
 62
2
 10
-4.34705882352938
 20
-64.26470588235294
 30
0
 11
-4.417647058823491
 21
-64.26470588235294
 31
0
  0
LINE
  8
1
 62
2
 10
-4.34705882352938
 20
-64.90000000000001
 30
0
 11
-4.34705882352938
 21
-64.26887259943055
 31
0
  0
LINE
  8
1
 62
2
 10
-5.017647058823513
 20
-64.86470588235294
 30
0
 11
-5.017647058823513
 21
-64.90000000000001
 31
0
  0
LINE
  8
1
 62
2
 10
-4.34705882352938
 20
-65.34117647058824
 30
0
 11
-4.34705882352938
 21
-65.5
 31
0
  0
LINE
  8
1
 62
2
 10
-4.34705882352938
 20
-65.5
 30
0
 11
-3.5
 21
-65.5
 31
0
  0
LINE
  8
1
 62
2
 10
-3.5
 20
-65.5
 30
0
 11
-3.5
 21
-64.07724511879383
 31
0
  0
LINE
  8
1
 62
2
 10
-5.77647058823527
 20
-63.87647058823529
 30
0
 11
-5.458823529411688
 21
-63.87647058823529
 31
0
  0
LINE
  8
1
 62
2
 10
-4.785454681352689
 20
-63.38235294117646
 30
0
 11
-4.699999999999989
 21
-63.38235294117646
 31
0
  0
LINE
  8
1
 62
2
 10
-4.34705882352938
 20
-63.73529411764706
 30
0
 11
-4.34705882352938
 21
-64.08823529411765
 31
0
  0
LINE
  8
1
 62
2
 10
-4.34705882352938
 20
-64.08823529411765
 30
0
 11
-5.052941176470597
 21
-64.08823529411765
 31
0
  0
LINE
  8
1
 62
2
 10
-4.711611236796614
 20
-65.52478075844895
 30
0
 11
-4.34705882352938
 21
-65.34117647058824
 31
0
  0
LINE
  8
1
 62
2
 10
-6.641176470588164
 20
-63.41764705882353
 30
0
 11
-6.641176470588164
 21
-64.95294117647059
 31
0
  0
LINE
  8
1
 62
2
 10
-5.988235294117715
 20
-65.12941176470588
 30
0
 11
-6.312774807561198
 21
-65.20986928251693
 31
0
  0
LINE
  8
1
 62
2
 10
-5.988235294117715
 20
-65.39411764705882
 30
0
 11
-5.988235294117715
 21
-65.12941176470588
 31
0
  0
LINE
  8
1
 62
2
 10
-6.477951472763209
 20
-65.56603398427718
 30
0
 11
-5.988235294117715
 21
-65.39411764705882
 31
0
  0
LINE
  8
1
 62
2
 10
-7.417647058823491
 20
-63.41764705882353
 30
0
 11
-7.417647058823491
 21
-64.90000000000001
 31
0
  0
LINE
  8
1
 62
2
 10
-7.417647058823491
 20
-62.87058823529412
 30
0
 11
-7.417647058823491
 21
-63.20941176470588
 31
0
  0
LINE
  8
1
 62
2
 10
-6.641176470588164
 20
-62.51764705882353
 30
0
 11
-7.417647058823491
 21
-62.87058823529412
 31
0
  0
LINE
  8
1
 62
2
 10
-6.641176470588164
 20
-63.20941176470588
 30
0
 11
-6.641176470588164
 21
-62.51764705882353
 31
0
  0
LINE
  8
1
 62
2
 10
-6.023529411764684
 20
-63.41764705882353
 30
0
 11
-6.641176470588164
 21
-63.41764705882353
 31
0
  0
LINE
  8
1
 62
2
 10
-6.023529411764684
 20
-63.20941176470588
 30
0
 11
-6.023529411764684
 21
-63.41764705882353
 31
0
  0
LINE
  8
1
 62
2
 10
-6.641176470588164
 20
-63.20941176470588
 30
0
 11
-6.023529411764684
 21
-63.20941176470588
 31
0
  0
LINE
  8
1
 62
2
 10
-7.682352941176475
 20
-63.41764705882353
 30
0
 11
-7.417647058823491
 21
-63.41764705882353
 31
0
  0
LINE
  8
1
 62
2
 10
-7.682352941176475
 20
-63.20941176470588
 30
0
 11
-7.682352941176475
 21
-63.41764705882353
 31
0
  0
LINE
  8
1
 62
2
 10
-7.417647058823491
 20
-63.20941176470588
 30
0
 11
-7.682352941176475
 21
-63.20941176470588
 31
0
  0
LINE
  8
1
 62
2
 10
-8.652941176470563
 20
-64.26470588235294
 30
0
 11
-8.723529411764673
 21
-64.26470588235294
 31
0
  0
LINE
  8
1
 62
2
 10
-8.652941176470563
 20
-64.90000000000001
 30
0
 11
-8.652941176470563
 21
-64.26887259943055
 31
0
  0
LINE
  8
1
 62
2
 10
-9.323529411764696
 20
-64.86470588235294
 30
0
 11
-9.323529411764696
 21
-64.90000000000001
 31
0
  0
LINE
  8
1
 62
2
 10
-8.652941176470563
 20
-65.34117647058824
 30
0
 11
-8.652941176470563
 21
-65.5
 31
0
  0
LINE
  8
1
 62
2
 10
-8.652941176470563
 20
-65.5
 30
0
 11
-7.805882352941182
 21
-65.5
 31
0
  0
LINE
  8
1
 62
2
 10
-7.805882352941182
 20
-65.5
 30
0
 11
-7.805882352941182
 21
-64.07724511879383
 31
0
  0
LINE
  8
1
 62
2
 10
-10.08235294117651
 20
-63.87647058823529
 30
0
 11
-9.764705882352871
 21
-63.87647058823529
 31
0
  0
LINE
  8
1
 62
2
 10
-9.091337034293872
 20
-63.38235294117646
 30
0
 11
-9.005882352941171
 21
-63.38235294117646
 31
0
  0
LINE
  8
1
 62
2
 10
-8.652941176470563
 20
-63.73529411764706
 30
0
 11
-8.652941176470563
 21
-64.08823529411765
 31
0
  0
LINE
  8
1
 62
2
 10
-8.652941176470563
 20
-64.08823529411765
 30
0
 11
-9.358823529411779
 21
-64.08823529411765
 31
0
  0
LINE
  8
1
 62
2
 10
-9.017493589737796
 20
-65.52478075844895
 30
0
 11
-8.652941176470563
 21
-65.34117647058824
 31
0
  0
LINE
  8
1
 62
2
 10
-13.54117647058831
 20
-64
 30
0
 11
-13.54117647058831
 21
-65.5
 31
0
  0
LINE
  8
1
 62
2
 10
-12.90588235294109
 20
-65.5
 30
0
 11
-12.90588235294109
 21
-63.75294117647059
 31
0
  0
LINE
  8
1
 62
2
 10
-12.04117647058831
 20
-64
 30
0
 11
-12.04117647058831
 21
-65.5
 31
0
  0
LINE
  8
1
 62
2
 10
-11.40588235294109
 20
-65.5
 30
0
 11
-11.40588235294109
 21
-63.75294117647059
 31
0
  0
LINE
  8
1
 62
2
 10
-12.65882352941179
 20
-63.13529411764706
 30
0
 11
-12.84888075602589
 21
-63.13529411764706
 31
0
  0
LINE
  8
1
 62
2
 10
-11.15882352941179
 20
-63.13529411764706
 30
0
 11
-11.34888075602589
 21
-63.13529411764706
 31
0
  0
LINE
  8
1
 62
2
 10
-10.54117647058831
 20
-65.5
 30
0
 11
-10.54117647058831
 21
-63.75294117647059
 31
0
  0
LINE
  8
1
 62
2
 10
-11.40588235294109
 20
-65.5
 30
0
 11
-10.54117647058831
 21
-65.5
 31
0
  0
LINE
  8
1
 62
2
 10
-12.90588235294109
 20
-65.5
 30
0
 11
-12.04117647058831
 21
-65.5
 31
0
  0
LINE
  8
1
 62
2
 10
-14.44117647058818
 20
-65.5
 30
0
 11
-13.54117647058831
 21
-65.5
 31
0
  0
LINE
  8
1
 62
2
 10
-16.05867006032611
 20
-65.52478075844895
 30
0
 11
-15.69411764705876
 21
-65.34117647058824
 31
0
  0
LINE
  8
1
 62
2
 10
-15.69411764705876
 20
-64.08823529411765
 30
0
 11
-16.39999999999998
 21
-64.08823529411765
 31
0
  0
LINE
  8
1
 62
2
 10
-15.69411764705876
 20
-63.73529411764706
 30
0
 11
-15.69411764705876
 21
-64.08823529411765
 31
0
  0
LINE
  8
1
 62
2
 10
-16.13251350488218
 20
-63.38235294117646
 30
0
 11
-16.04705882352937
 21
-63.38235294117646
 31
0
  0
LINE
  8
1
 62
2
 10
-17.12352941176471
 20
-63.87647058823529
 30
0
 11
-16.80588235294118
 21
-63.87647058823529
 31
0
  0
LINE
  8
1
 62
2
 10
-14.84705882352938
 20
-65.5
 30
0
 11
-14.84705882352938
 21
-64.07724511879383
 31
0
  0
LINE
  8
1
 62
2
 10
-15.69411764705876
 20
-65.5
 30
0
 11
-14.84705882352938
 21
-65.5
 31
0
  0
LINE
  8
1
 62
2
 10
-15.69411764705876
 20
-65.34117647058824
 30
0
 11
-15.69411764705876
 21
-65.5
 31
0
  0
LINE
  8
1
 62
2
 10
-16.36470588235301
 20
-64.86470588235294
 30
0
 11
-16.36470588235301
 21
-64.90000000000001
 31
0
  0
LINE
  8
1
 62
2
 10
-15.69411764705876
 20
-64.90000000000001
 30
0
 11
-15.69411764705876
 21
-64.26887259943055
 31
0
  0
LINE
  8
1
 62
2
 10
-15.69411764705876
 20
-64.26470588235294
 30
0
 11
-15.76470588235287
 21
-64.26470588235294
 31
0
  0
LINE
  8
1
 62
2
 10
-17.76764705882351
 20
-64.15882352941176
 30
0
 11
-16.54117647058831
 21
-62.32352941176471
 31
0
  0
LINE
  8
1
 62
2
 10
-17.76764705882351
 20
-65.5
 30
0
 11
-17.76764705882351
 21
-64.15882352941176
 31
0
  0
LINE
  8
1
 62
2
 10
-18.77352941176468
 20
-65.5
 30
0
 11
-17.76764705882351
 21
-65.5
 31
0
  0
LINE
  8
1
 62
2
 10
-18.77352941176468
 20
-64.15882352941176
 30
0
 11
-18.77352941176468
 21
-65.5
 31
0
  0
LINE
  8
1
 62
2
 10
-20
 20
-62.32352941176471
 30
0
 11
-18.77352941176468
 21
-64.15882352941176
 31
0
  0
LINE
  8
1
 62
2
 10
-17.54705882352937
 20
-62.32352941176471
 30
0
 11
-16.54117647058831
 21
-62.32352941176471
 31
0
  0
LINE
  8
1
 62
2
 10
-18.2705882352941
 20
-63.47058823529412
 30
0
 11
-17.54705882352937
 21
-62.32352941176471
 31
0
  0
LINE
  8
1
 62
2
 10
-18.99411764705877
 20
-62.32352941176471
 30
0
 11
-18.2705882352941
 21
-63.47058823529412
 31
0
  0
LINE
  8
1
 62
2
 10
-20
 20
-62.32352941176471
 30
0
 11
-18.99411764705877
 21
-62.32352941176471
 31
0
  0
LINE
  8
1
 62
2
 10
4.141176470588221
 20
-63.91176470588235
 30
0
 11
4.141176470588221
 21
-65.5
 31
0
  0
LINE
  8
1
 62
2
 10
4.141176470588221
 20
-65.5
 30
0
 11
3.135294117646993
 21
-65.5
 31
0
  0
LINE
  8
1
 62
2
 10
3.135294117646993
 20
-65.5
 30
0
 11
3.135294117646993
 21
-62.32352941176471
 31
0
  0
LINE
  8
1
 62
2
 10
3.135294117646993
 20
-62.32352941176471
 30
0
 11
4.141176470588221
 21
-62.32352941176471
 31
0
  0
LINE
  8
1
 62
2
 10
4.141176470588221
 20
-62.32352941176471
 30
0
 11
4.141176470588221
 21
-63.62941176470588
 31
0
  0
LINE
  8
1
 62
2
 10
4.141176470588221
 20
-63.62941176470588
 30
0
 11
4.952941176470631
 21
-63.62941176470588
 31
0
  0
LINE
  8
1
 62
2
 10
4.952941176470631
 20
-63.62941176470588
 30
0
 11
4.952941176470631
 21
-62.32352941176471
 31
0
  0
LINE
  8
1
 62
2
 10
4.952941176470631
 20
-62.32352941176471
 30
0
 11
5.958823529411802
 21
-62.32352941176471
 31
0
  0
LINE
  8
1
 62
2
 10
5.958823529411802
 20
-62.32352941176471
 30
0
 11
5.958823529411802
 21
-65.5
 31
0
  0
LINE
  8
1
 62
2
 10
5.958823529411802
 20
-65.5
 30
0
 11
4.952941176470631
 21
-65.5
 31
0
  0
LINE
  8
1
 62
2
 10
4.952941176470631
 20
-65.5
 30
0
 11
4.952941176470631
 21
-63.91176470588235
 31
0
  0
LINE
  8
1
 62
2
 10
4.952941176470631
 20
-63.91176470588235
 30
0
 11
4.141176470588221
 21
-63.91176470588235
 31
0
  0
LINE
  8
1
 62
2
 10
6.294117647058783
 20
-64.33529411764707
 30
0
 11
6.294117647058783
 21
-64.40588235294118
 31
0
  0
LINE
  8
1
 62
2
 10
8.694117647058704
 20
-64.40588235294118
 30
0
 11
8.694117647058704
 21
-64.33529411764707
 31
0
  0
LINE
  8
1
 62
2
 10
7.123529411764707
 20
-63.75294117647059
 30
0
 11
7.123529411764707
 21
-64.98823529411766
 31
0
  0
LINE
  8
1
 62
2
 10
7.864705882353007
 20
-64.98823529411766
 30
0
 11
7.864705882353007
 21
-63.75294117647059
 31
0
  0
LINE
  8
1
 62
2
 10
9.029411764705912
 20
-65.5
 30
0
 11
9.92941176470589
 21
-65.5
 31
0
  0
LINE
  8
1
 62
2
 10
10.56470588235294
 20
-65.5
 30
0
 11
11.42941176470589
 21
-65.5
 31
0
  0
LINE
  8
1
 62
2
 10
10.81176470588241
 20
-63.13529411764706
 30
0
 11
10.6217074792682
 21
-63.13529411764706
 31
0
  0
LINE
  8
1
 62
2
 10
10.56470588235294
 20
-65.5
 30
0
 11
10.56470588235294
 21
-63.75294117647059
 31
0
  0
LINE
  8
1
 62
2
 10
9.92941176470589
 20
-64
 30
0
 11
9.92941176470589
 21
-65.5
 31
0
  0
LINE
  8
1
 62
2
 10
9.029411764705912
 20
-63.24117647058824
 30
0
 11
9.029411764705912
 21
-65.5
 31
0
  0
LINE
  8
1
 62
2
 10
9.92941176470589
 20
-63.24117647058824
 30
0
 11
9.92941176470589
 21
-63.47058823529412
 31
0
  0
LINE
  8
1
 62
2
 10
9.029411764705912
 20
-63.24117647058824
 30
0
 11
9.92941176470589
 21
-63.24117647058824
 31
0
  0
LINE
  8
1
 62
2
 10
11.42941176470589
 20
-63.75294117647059
 30
0
 11
11.42941176470589
 21
-65.5
 31
0
  0
LINE
  8
1
 62
7
 10
-10
 20
-53
 30
0
 11
-10
 21
-49
 31
0
  0
LINE
  8
1
 62
7
 10
20
 20
-53
 30
0
 11
-10
 21
-53
 31
0
  0
LINE
  8
1
 62
7
 10
20
 20
-49
 30
0
 11
20
 21
-53
 31
0
  0
LINE
  8
1
 62
7
 10
-10
 20
-49
 30
0
 11
20
 21
-49
 31
0
  0
LINE
  8
1
 62
7
 10
-35.5
 20
-69.5
 30
0
 11
-35.5
 21
-72.5
 31
0
  0
LINE
  8
1
 62
7
 10
-35.5
 20
-69.5
 30
0
 11
35.5
 21
-69.5
 31
0
  0
LINE
  8
1
 62
7
 10
35.5
 20
-38
 30
0
 11
35.5
 21
32.5
 31
0
  0
LINE
  8
1
 62
7
 10
-35.5
 20
-38
 30
0
 11
35.5
 21
-38
 31
0
  0
LINE
  8
1
 62
7
 10
-19.61951994718402
 20
13.82296773641789
 30
0
 11
-24.30615573152011
 21
17.5843906222279
 31
0
  0
LINE
  8
1
 62
7
 10
-22.4283853149679
 20
19.9240440715065
 30
0
 11
-17.74174953063181
 21
16.16262118569649
 31
0
  0
LINE
  8
1
 62
7
 10
-29.96247653315731
 20
1.5
 30
0
 11
-23.95307913400688
 21
1.5
 31
0
  0
LINE
  8
1
 62
7
 10
-23.95307913400688
 20
-1.5
 30
0
 11
-29.96247653315731
 21
-1.5
 31
0
  0
LINE
  8
1
 62
7
 10
-24.30615573152011
 20
-17.58439062222789
 30
0
 11
-19.61951994718402
 21
-13.82296773641787
 31
0
  0
LINE
  8
1
 62
7
 10
-17.74174953063181
 20
-16.16262118569648
 30
0
 11
-22.4283853149679
 21
-19.9240440715065
 31
0
  0
LINE
  8
1
 62
7
 10
24.30615573152011
 20
-17.58439062222789
 30
0
 11
19.61951994718402
 21
-13.82296773641787
 31
0
  0
LINE
  8
1
 62
7
 10
17.74174953063181
 20
-16.16262118569648
 30
0
 11
22.4283853149679
 21
-19.9240440715065
 31
0
  0
LINE
  8
1
 62
7
 10
22.4283853149679
 20
19.9240440715065
 30
0
 11
17.74174953063181
 21
16.16262118569649
 31
0
  0
LINE
  8
1
 62
7
 10
19.61951994718402
 20
13.82296773641789
 30
0
 11
24.30615573152011
 21
17.5843906222279
 31
0
  0
LINE
  8
1
 62
7
 10
29.96247653315731
 20
1.5
 30
0
 11
23.953079134007
 21
1.5
 31
0
  0
LINE
  8
1
 62
7
 10
23.953079134007
 20
-1.5
 30
0
 11
29.96247653315731
 21
-1.5
 31
0
  0
LINE
  8
1
 62
7
 10
7.76457135307561
 20
-28.97777478867204
 30
0
 11
6.211657082460533
 21
-23.18221983093764
 31
0
  0
LINE
  8
1
 62
7
 10
-6.211657082460476
 20
-23.18221983093764
 30
0
 11
-7.76457135307561
 21
-28.97777478867204
 31
0
  0
LINE
  8
1
 62
7
 10
7.76457135307561
 20
28.97777478867209
 30
0
 11
6.211657082460533
 21
23.1822198309376
 31
0
  0
LINE
  8
1
 62
7
 10
-6.211657082460476
 20
23.1822198309376
 30
0
 11
-7.76457135307561
 21
28.97777478867209
 31
0
  0
LINE
  8
1
 62
7
 10
32.5
 20
35.5
 30
0
 11
-32.5
 21
35.5
 31
0
  0
LINE
  8
1
 62
7
 10
32.5
 20
36.5
 30
0
 11
-32.5
 21
36.5
 31
0
  0
LINE
  8
1
 62
7
 10
-35.5
 20
32.5
 30
0
 11
-35.5
 21
-38
 31
0
  0
LINE
  8
1
 62
7
 10
-32.5
 20
-75.5
 30
0
 11
32.5
 21
-75.5
 31
0
  0
LINE
  8
1
 62
7
 10
35.5
 20
-72.5
 30
0
 11
35.5
 21
-69.5
 31
0
  0
LINE
  8
1
 62
7
 10
36.5
 20
-72.5
 30
0
 11
36.5
 21
32.5
 31
0
  0
LINE
  8
1
 62
7
 10
-32.5
 20
-76.5
 30
0
 11
32.5
 21
-76.5
 31
0
  0
LINE
  8
1
 62
7
 10
-36.5
 20
32.5
 30
0
 11
-36.5
 21
-72.49999999999999
 31
0
  0
LINE
  8
1
 62
7
 10
-37.5
 20
32.5
 30
0
 11
-37.5
 21
-72.5
 31
0
  0
LINE
  8
1
 62
7
 10
32.5
 20
37.5
 30
0
 11
-32.5
 21
37.5
 31
0
  0
LINE
  8
1
 62
7
 10
37.5
 20
-72.5
 30
0
 11
37.5
 21
32.5
 31
0
  0
LINE
  8
1
 62
7
 10
-32.5
 20
-77.5
 30
0
 11
32.5
 21
-77.5
 31
0
  0
LINE
  8
1
 62
7
 10
119.5
 20
-70.84999999999999
 30
0
 11
119.5
 21
-74.15000000000001
 31
0
  0
LINE
  8
1
 62
7
 10
120.2
 20
-74.15000000000001
 30
0
 11
120.2
 21
-70.84999999999999
 31
0
  0
LINE
  8
1
 62
7
 10
120.2
 20
37.5
 30
0
 11
120.2
 21
-70.84999999999999
 31
0
  0
LINE
  8
1
 62
7
 10
119.5
 20
34.15000000000001
 30
0
 11
119.5
 21
30.84999999999999
 31
0
  0
LINE
  8
1
 62
7
 10
117.1
 20
5.5
 30
0
 11
117.1
 21
-25
 31
0
  0
LINE
  8
1
 62
7
 10
118.3
 20
5.5
 30
0
 11
117.1
 21
5.5
 31
0
  0
LINE
  8
1
 62
7
 10
118.3
 20
-25
 30
0
 11
118.3
 21
5.5
 31
0
  0
LINE
  8
1
 62
7
 10
117.1
 20
-25
 30
0
 11
118.3
 21
-25
 31
0
  0
LINE
  8
1
 62
7
 10
-2.599999999999966
 20
-25
 30
0
 11
2.600000000000023
 21
-25
 31
0
  0
LINE
  8
1
 62
7
 10
-5.462412721213298
 20
-0.6419090769938123
 30
0
 11
-2.599999999999966
 21
-25
 31
0
  0
LINE
  8
1
 62
7
 10
2.600000000000023
 20
-25
 30
0
 11
5.462412721213298
 21
-0.6419090769937839
 31
0
  0
LINE
  8
1
 62
7
 10
24
 20
-125.5
 30
0
 11
3.800000000000011
 21
-125.5
 31
0
  0
LINE
  8
1
 62
7
 10
-24
 20
-125.5
 30
0
 11
-3.800000000000011
 21
-125.5
 31
0
  0
LINE
  8
1
 62
7
 10
142.1180849030338
 20
-125.5
 30
0
 11
144.8
 21
-202.3
 31
0
  0
LINE
  8
1
 62
7
 10
127.8
 20
-125.5
 30
0
 11
142.1180849030338
 21
-125.5
 31
0
  0
LINE
  8
1
 62
7
 10
33.92101857861263
 20
-125.5
 30
0
 11
24
 21
-125.5
 31
0
  0
LINE
  8
1
 62
7
 10
-24
 20
-125.5
 30
0
 11
-33.92101857861257
 21
-125.5
 31
0
  0
LINE
  8
1
 62
7
 10
52
 20
-92.04416080527601
 30
0
 11
53.43994747821591
 21
-92.04416080527601
 31
0
  0
LINE
  8
1
 62
7
 10
-53.43994747821591
 20
-92.04416080527601
 30
0
 11
-52
 21
-92.04416080527601
 31
0
  0
LINE
  8
1
 62
7
 10
140.9482391250602
 20
-92
 30
0
 11
148.8
 21
-92
 31
0
  0
LINE
  8
1
 62
7
 10
177.2
 20
-202.3
 30
0
 11
144.8
 21
-202.3
 31
0
  0
LINE
  8
1
 62
7
 10
200.9303535150391
 20
-119.7256369976165
 30
0
 11
307.8418890660016
 21
-100.8742487310096
 31
0
  0
LINE
  8
1
 62
7
 10
177.2
 20
-202.3
 30
0
 11
180.305819587848
 21
-143.0374319168481
 31
0
  0
LINE
  8
1
 62
7
 10
140.9497812543618
 20
-92.04416080527601
 30
0
 11
142.1180849030338
 21
-125.5
 31
0
  0
LINE
  8
1
 62
7
 10
52.5
 20
-202.3
 30
0
 11
39.5
 21
-202.3
 31
0
  0
LINE
  8
1
 62
7
 10
-39.5
 20
-202.3
 30
0
 11
-52.5
 21
-202.3
 31
0
  0
LINE
  8
1
 62
7
 10
36.91919105966991
 20
-128.3953015098925
 30
0
 11
39.5
 21
-202.3
 31
0
  0
LINE
  8
1
 62
7
 10
-39.5
 20
-202.3
 30
0
 11
-36.91919105966991
 21
-128.3953015098925
 31
0
  0
LINE
  8
1
 62
7
 10
-53.41901108269388
 20
-94.5
 30
0
 11
-70.5
 21
-94.5
 31
0
  0
LINE
  8
1
 62
7
 10
70.5
 20
-94.5
 30
0
 11
53.41901108269388
 21
-94.5
 31
0
  0
LINE
  8
1
 62
7
 10
71.5
 20
-86
 30
0
 11
71.5
 21
-93.5
 31
0
  0
LINE
  8
1
 62
7
 10
53.5
 20
-85
 30
0
 11
70.5
 21
-85
 31
0
  0
LINE
  8
1
 62
7
 10
-71.5
 20
-86
 30
0
 11
-71.5
 21
-93.5
 31
0
  0
LINE
  8
1
 62
7
 10
-53.5
 20
-85
 30
0
 11
-70.5
 21
-85
 31
0
  0
LINE
  8
1
 62
7
 10
312.8
 20
-94.96540221293633
 30
0
 11
312.8
 21
-94.5
 31
0
  0
LINE
  8
1
 62
7
 10
191.8
 20
-85
 30
0
 11
183.8532696579726
 21
-85
 31
0
  0
LINE
  8
1
 62
7
 10
293.8
 20
-86
 30
0
 11
293.8
 21
-94.5
 31
0
  0
LINE
  8
1
 62
7
 10
209.8
 20
-88
 30
0
 11
293.8
 21
-88
 31
0
  0
LINE
  8
1
 62
2
  6
DASHDOT
 10
303.3
 20
-83
 30
0
 11
303.3
 21
-97.5
 31
0
  0
LINE
  8
1
 62
2
  6
DASHDOT
 10
200.3
 20
-83
 30
0
 11
200.3
 21
-97.5
 31
0
  0
LINE
  8
1
 62
7
 10
190.8
 20
-94.5
 30
0
 11
190.8
 21
-86
 31
0
  0
LINE
  8
1
 62
7
 10
208.8
 20
-95.5
 30
0
 11
191.8
 21
-95.5
 31
0
  0
LINE
  8
1
 62
7
 10
209.8
 20
-86
 30
0
 11
209.8
 21
-94.5
 31
0
  0
LINE
  8
1
 62
7
 10
191.8
 20
-85
 30
0
 11
208.8
 21
-85
 31
0
  0
LINE
  8
1
 62
7
 10
311.8
 20
-95.5
 30
0
 11
294.8
 21
-95.5
 31
0
  0
LINE
  8
1
 62
7
 10
312.8
 20
-86
 30
0
 11
312.8
 21
-94.5
 31
0
  0
LINE
  8
1
 62
7
 10
294.8
 20
-85
 30
0
 11
311.8
 21
-85
 31
0
  0
LINE
  8
1
 62
7
 10
148.8
 20
-90.8
 30
0
 11
148.8
 21
-92
 31
0
  0
LINE
  8
1
 62
7
 10
124.8
 20
-91
 30
0
 11
124.8
 21
-122.5
 31
0
  0
LINE
  8
1
 62
7
 10
179.7560291047472
 20
-78.3
 30
0
 11
178.523462819564
 21
-73.7
 31
0
  0
LINE
  8
1
 62
7
 10
52
 20
-91
 30
0
 11
52
 21
-92.04416080527601
 31
0
  0
LINE
  8
1
 62
7
 10
24
 20
-91
 30
0
 11
24
 21
-125.5
 31
0
  0
LINE
  8
1
 62
7
 10
3.800000000000011
 20
-91
 30
0
 11
3.800000000000011
 21
-125.5
 31
0
  0
LINE
  8
1
 62
7
 10
-3.800000000000011
 20
-91
 30
0
 11
-3.800000000000011
 21
-125.5
 31
0
  0
LINE
  8
1
 62
7
 10
-52
 20
-91
 30
0
 11
-52
 21
-92.04416080527601
 31
0
  0
LINE
  8
1
 62
7
 10
-53.44884910485928
 20
-91
 30
0
 11
-52.5
 21
-202.3
 31
0
  0
LINE
  8
1
 62
7
 10
53.44884910485933
 20
-91
 30
0
 11
52.5
 21
-202.3
 31
0
  0
LINE
  8
1
 62
2
  6
DASHDOT
 10
123.2053197510586
 20
-230.3
 30
0
 11
127.2053197510586
 21
-230.3
 31
0
  0
LINE
  8
1
 62
7
 10
-24
 20
-91
 30
0
 11
-24
 21
-125.5
 31
0
  0
ARC
  8
1
 62
7
 10
22
 20
-215.0695854977469
 30
0
 40
0.769585497746899
 50
0
 51
90
  0
ARC
  8
1
 62
7
 10
38.64653173590341
 20
-215.7769904520225
 30
0
 40
1.476990452022477
 50
90
 51
141.0226571752264
  0
ARC
  8
1
 62
7
 10
23.25865128714122
 20
-232.0512609165823
 30
0
 40
0.248739083417604
 50
270
 51
321.02265717522
  0
ARC
  8
1
 62
7
 10
23.16482524956763
 20
-231.9047602481793
 30
0
 40
0.395239751820732
 50
180
 51
270
  0
ARC
  8
1
 62
7
 10
-38.64653173590341
 20
-215.7769904520225
 30
0
 40
1.47699045202247
 50
38.97734282477618
 51
90
  0
ARC
  8
1
 62
7
 10
-23.25865128714116
 20
-232.0512609165823
 30
0
 40
0.2487390834176456
 50
218.9773428247795
 51
270
  0
ARC
  8
1
 62
7
 10
-23.16482524956757
 20
-231.9047602481793
 30
0
 40
0.3952397518206112
 50
270
 51
0
  0
ARC
  8
1
 62
7
 10
-22
 20
-215.0695854977469
 30
0
 40
0.7695854977469025
 50
90
 51
180
  0
ARC
  8
1
 62
7
 10
162.4412731626463
 20
-230.5637712774995
 30
0
 40
1.736228722500499
 50
180
 51
270
  0
ARC
  8
1
 62
7
 10
162.69860696318
 20
-230.958880031958
 30
0
 40
1.341119968042022
 50
270
 51
336.1522881203552
  0
ARC
  8
1
 62
7
 10
144.4118634771809
 20
-230.5881364382819
 30
0
 40
1.711863561718111
 50
187.4059157704702
 51
270
  0
ARC
  8
1
 62
7
 10
144.4118634771809
 20
-230.3569251752391
 30
0
 40
1.943074824760799
 50
270
 51
0
  0
ARC
  8
1
 62
7
 10
148.834457289801
 20
-216.7795189878593
 30
0
 40
2.479518987859279
 50
90
 51
180
  0
ARC
  8
1
 62
7
 10
137.8663812770616
 20
-217.3759971649585
 30
0
 40
3.075997164958621
 50
7.405915770467562
 51
90
  0
ARC
  8
1
 62
7
 10
158.5072587558076
 20
-216.4977856843383
 30
0
 40
2.197785684338186
 50
0
 51
90.00000307059719
  0
ARC
  8
1
 62
7
 10
172.3516852899781
 20
-215.5632472786452
 30
0
 40
1.263247278645196
 50
90
 51
156.152288120351
  0
ARC
  8
1
 62
7
 10
-47.09999999999997
 20
-75.98052604957007
 30
0
 40
9.000000000000018
 50
163.5496001733873
 51
180
  0
ARC
  8
1
 62
7
 10
-47.09999999999997
 20
-75.98052604957007
 30
0
 40
9
 50
180
 51
196.7528183473859
  0
ARC
  8
1
 62
7
 10
47.10000000000002
 20
-76.01947395042995
 30
0
 40
8.999999999999972
 50
343.5496001733872
 51
0
  0
ARC
  8
1
 62
7
 10
47.10000000000002
 20
-76.01947395042995
 30
0
 40
9
 50
0
 51
16.75281834738602
  0
ARC
  8
1
 62
7
 10
129.6
 20
-95.5
 30
0
 40
7.000000000000099
 50
180
 51
196.957763300004
  0
ARC
  8
1
 62
7
 10
129.6
 20
-95.5
 30
0
 40
7.000000000000012
 50
163.042236699996
 51
180
  0
ARC
  8
1
 62
7
 10
129.6
 20
-114
 30
0
 40
7.000000000000099
 50
180
 51
196.9577633000044
  0
ARC
  8
1
 62
7
 10
129.6
 20
-114
 30
0
 40
7.000000000000023
 50
163.0422366999956
 51
180
  0
ARC
  8
1
 62
7
 10
139.8534180126144
 20
-133.5
 30
0
 40
9.553418012614417
 50
162.4120462260056
 51
175.1964455479933
  0
ARC
  8
1
 62
7
 10
132.8299539720979
 20
-137.8221008762885
 30
0
 40
2.529953972097924
 50
145.434906905472
 51
209.9999999999995
  0
ARC
  8
1
 62
7
 10
132.8299539720978
 20
-129.1778991237116
 30
0
 40
2.529953972097786
 50
180
 51
214.5650930945278
  0
ARC
  8
1
 62
7
 10
132.8299539720978
 20
-129.1778991237116
 30
0
 40
2.52995397209775
 50
149.9999999999995
 51
180
  0
ARC
  8
1
 62
7
 10
139.8534180126144
 20
-133.5
 30
0
 40
9.553418012614383
 50
184.8035544520067
 51
197.5879537739944
  0
ARC
  8
1
 62
7
 10
-1.13686837721616e-13
 20
-133.5
 30
0
 40
4.999999999999988
 50
9.206896221346057
 51
170.7931037786537
  0
ARC
  8
1
 62
7
 10
-1.13686837721616e-13
 20
-133.5
 30
0
 40
4.999999999999876
 50
189.2068962213463
 51
350.7931037786539
  0
ARC
  8
1
 62
7
 10
125.7640625
 20
0
 30
0
 40
11.1640625
 50
180
 51
201.8222567685668
  0
ARC
  8
1
 62
7
 10
125.7640625
 20
0
 30
0
 40
11.16406249999998
 50
158.1777432314333
 51
180
  0
ARC
  8
1
 62
2
 10
13.03529411764708
 20
-63.71764705882353
 30
0
 40
0.3352941176470399
 50
0
 51
180
  0
ARC
  8
1
 62
2
 10
13
 20
-64.40588235294118
 30
0
 40
1.19999999999999
 50
180
 51
327.0356126762448
  0
ARC
  8
1
 62
2
 10
13
 20
-64.33529411764707
 30
0
 40
1.19999999999999
 50
0
 51
180
  0
ARC
  8
1
 62
2
 10
13.01764705882351
 20
-65.04117647058824
 30
0
 40
0.3176470588235194
 50
180
 51
270
  0
ARC
  8
1
 62
2
 10
13.12352941176471
 20
-64.47647058823529
 30
0
 40
0.8823529411764781
 50
270
 51
323.1301023541572
  0
ARC
  8
1
 62
2
 10
13
 20
-64.40588235294118
 30
0
 40
1.200000000000037
 50
353.2436729694124
 51
0
  0
ARC
  8
1
 62
2
 10
14.64117647058822
 20
-65.9235294117647
 30
0
 40
0.3352941176471023
 50
355.0114580244441
 51
223.1433208835651
  0
ARC
  8
1
 62
2
 10
14.88552449133391
 20
-65.69452579959112
 30
0
 40
0.6701800827618419
 50
223.1433208835575
 51
337.0362269401384
  0
ARC
  8
1
 62
2
 10
15.04552138484911
 20
-65.95882352941176
 30
0
 40
0.07058823529415349
 50
175.0114580244515
 51
270
  0
ARC
  8
1
 62
2
 10
15.03537121768881
 20
-65.85342881051665
 30
0
 40
0.1762754267008116
 50
273.300990969144
 51
337.0112770412741
  0
ARC
  8
1
 62
2
 10
21.5411764705882
 20
-63.71764705882353
 30
0
 40
0.3352941176470878
 50
0
 51
180
  0
ARC
  8
1
 62
2
 10
21.50588235294123
 20
-64.40588235294118
 30
0
 40
1.199999999999992
 50
180
 51
327.0356126762447
  0
ARC
  8
1
 62
2
 10
21.50588235294123
 20
-64.33529411764707
 30
0
 40
1.199999999999989
 50
0
 51
180
  0
ARC
  8
1
 62
2
 10
21.52352941176468
 20
-65.04117647058824
 30
0
 40
0.3176470588234608
 50
180
 51
270
  0
ARC
  8
1
 62
2
 10
21.62941176470594
 20
-64.47647058823529
 30
0
 40
0.8823529411764781
 50
270
 51
323.130102354155
  0
ARC
  8
1
 62
2
 10
21.50588235294123
 20
-64.40588235294118
 30
0
 40
1.199999999999916
 50
353.2436729694118
 51
0
  0
ARC
  8
1
 62
2
 10
0.1000000000000227
 20
-64.40588235294118
 30
0
 40
1.200000000000036
 50
353.2436729694124
 51
0
  0
ARC
  8
1
 62
2
 10
0.22352941176473
 20
-64.47647058823529
 30
0
 40
0.8823529411764781
 50
270
 51
323.1301023541552
  0
ARC
  8
1
 62
2
 10
0.1176470588235361
 20
-65.04117647058824
 30
0
 40
0.3176470588235247
 50
180
 51
270
  0
ARC
  8
1
 62
2
 10
0.1000000000000227
 20
-64.33529411764707
 30
0
 40
1.199999999999988
 50
0
 51
180
  0
ARC
  8
1
 62
2
 10
0.1000000000000227
 20
-64.40588235294118
 30
0
 40
1.199999999999989
 50
180
 51
327.035612676245
  0
ARC
  8
1
 62
2
 10
0.1352941176469926
 20
-63.71764705882353
 30
0
 40
0.335294117647095
 50
0
 51
180
  0
ARC
  8
1
 62
2
 10
-4.682352941176475
 20
-64.90000000000001
 30
0
 40
0.3352941176470381
 50
180
 51
0
  0
ARC
  8
1
 62
2
 10
-4.417647058823491
 20
-64.86470588235294
 30
0
 40
0.5999999999999943
 50
90
 51
180
  0
ARC
  8
1
 62
2
 10
-4.382352941176464
 20
-64.07724511879383
 30
0
 40
0.8823529411764639
 50
0
 51
64.62306647484938
  0
ARC
  8
1
 62
2
 10
-4.647058823529392
 20
-64.63529411764706
 30
0
 40
1.5
 50
64.62306647484907
 51
116.0153943971724
  0
ARC
  8
1
 62
2
 10
-4.917966619204492
 20
-64.08022938672298
 30
0
 40
0.8823529411764686
 50
116.0153943971729
 51
166.6483670553766
  0
ARC
  8
1
 62
2
 10
-4.785454681352689
 20
-64.08823529411765
 30
0
 40
0.7058823529411953
 50
90
 51
162.5423968762769
  0
ARC
  8
1
 62
2
 10
-4.699999999999989
 20
-63.73529411764706
 30
0
 40
0.3529411764706083
 50
0
 51
90
  0
ARC
  8
1
 62
2
 10
-5.052941176470597
 20
-64.84705882352941
 30
0
 40
0.7588235294117567
 50
90
 51
296.7317926572453
  0
ARC
  8
1
 62
2
 10
-6.376470588235293
 20
-64.95294117647059
 30
0
 40
0.264705882352871
 50
180
 51
283.9236381802822
  0
ARC
  8
1
 62
2
 10
-6.711764705882274
 20
-64.90000000000001
 30
0
 40
0.7058823529412166
 50
180
 51
289.3437772227645
  0
ARC
  8
1
 62
2
 10
-8.988235294117715
 20
-64.90000000000001
 30
0
 40
0.3352941176469812
 50
180
 51
0
  0
ARC
  8
1
 62
2
 10
-8.723529411764673
 20
-64.86470588235294
 30
0
 40
0.5999999999999943
 50
90
 51
180
  0
ARC
  8
1
 62
2
 10
-8.68823529411759
 20
-64.07724511879383
 30
0
 40
0.8823529411764079
 50
0
 51
64.62306647485272
  0
ARC
  8
1
 62
2
 10
-8.952941176470574
 20
-64.63529411764706
 30
0
 40
1.5
 50
64.62306647484907
 51
116.0153943971724
  0
ARC
  8
1
 62
2
 10
-9.223848972145674
 20
-64.08022938672298
 30
0
 40
0.8823529411764686
 50
116.0153943971729
 51
166.6483670553774
  0
ARC
  8
1
 62
2
 10
-9.091337034293872
 20
-64.08823529411765
 30
0
 40
0.7058823529411953
 50
90
 51
162.5423968762769
  0
ARC
  8
1
 62
2
 10
-9.005882352941171
 20
-63.73529411764706
 30
0
 40
0.3529411764706083
 50
0
 51
90
  0
ARC
  8
1
 62
2
 10
-9.358823529411779
 20
-64.84705882352941
 30
0
 40
0.7588235294117567
 50
90
 51
296.7317926572453
  0
ARC
  8
1
 62
2
 10
-13.09999999999997
 20
-64
 30
0
 40
0.441176470588232
 50
90
 51
180
  0
ARC
  8
1
 62
2
 10
-13.09999999999997
 20
-63.75294117647059
 30
0
 40
0.1941176470588797
 50
0
 51
90
  0
ARC
  8
1
 62
2
 10
-11.59999999999997
 20
-64
 30
0
 40
0.441176470588232
 50
90
 51
180
  0
ARC
  8
1
 62
2
 10
-11.59999999999997
 20
-63.75294117647059
 30
0
 40
0.1941176470588797
 50
0
 51
90
  0
ARC
  8
1
 62
2
 10
-12.84888075602589
 20
-64.01764705882353
 30
0
 40
0.882352941176471
 50
90
 51
141.6838655263377
  0
ARC
  8
1
 62
2
 10
-12.65882352941179
 20
-63.75294117647059
 30
0
 40
0.6176470588235681
 50
21.2929329954059
 51
90
  0
ARC
  8
1
 62
2
 10
-11.34888075602589
 20
-64.01764705882353
 30
0
 40
0.882352941176471
 50
90
 51
146.3446850020565
  0
ARC
  8
1
 62
2
 10
-11.15882352941179
 20
-63.75294117647059
 30
0
 40
0.617647058823481
 50
0
 51
90
  0
ARC
  8
1
 62
2
 10
-16.39999999999998
 20
-64.84705882352941
 30
0
 40
0.7588235294117567
 50
90
 51
296.7317926572376
  0
ARC
  8
1
 62
2
 10
-16.04705882352937
 20
-63.73529411764706
 30
0
 40
0.3529411764706083
 50
0
 51
90
  0
ARC
  8
1
 62
2
 10
-16.13251350488218
 20
-64.08823529411765
 30
0
 40
0.7058823529411953
 50
90
 51
162.5423968762769
  0
ARC
  8
1
 62
2
 10
-16.26502544273387
 20
-64.08022938672298
 30
0
 40
0.8823529411764716
 50
116.0153943971733
 51
166.6483670553775
  0
ARC
  8
1
 62
2
 10
-15.99411764705877
 20
-64.63529411764706
 30
0
 40
1.5
 50
64.62306647484907
 51
116.0153943971726
  0
ARC
  8
1
 62
2
 10
-15.7294117647059
 20
-64.07724511879383
 30
0
 40
0.882352941176519
 50
0
 51
64.62306647484606
  0
ARC
  8
1
 62
2
 10
-15.76470588235287
 20
-64.86470588235294
 30
0
 40
0.5999999999999943
 50
90
 51
180
  0
ARC
  8
1
 62
2
 10
-16.02941176470591
 20
-64.90000000000001
 30
0
 40
0.335294117647102
 50
180
 51
0
  0
ARC
  8
1
 62
2
 10
7.494117647058829
 20
-64.33529411764707
 30
0
 40
1.199999999999875
 50
0
 51
180
  0
ARC
  8
1
 62
2
 10
7.494117647058829
 20
-64.40588235294118
 30
0
 40
1.200000000000045
 50
180
 51
0
  0
ARC
  8
1
 62
2
 10
7.494117647058829
 20
-63.75294117647059
 30
0
 40
0.3705882352941785
 50
0
 51
180
  0
ARC
  8
1
 62
2
 10
7.494117647058829
 20
-64.98823529411766
 30
0
 40
0.3705882352941217
 50
180
 51
0
  0
ARC
  8
1
 62
2
 10
10.6217074792682
 20
-64.01764705882353
 30
0
 40
0.882352941176471
 50
90
 51
141.6838655263333
  0
ARC
  8
1
 62
2
 10
10.37058823529412
 20
-63.75294117647059
 30
0
 40
0.1941176470588193
 50
0
 51
90
  0
ARC
  8
1
 62
2
 10
10.37058823529412
 20
-64
 30
0
 40
0.441176470588232
 50
90
 51
180
  0
ARC
  8
1
 62
2
 10
10.81176470588241
 20
-63.75294117647059
 30
0
 40
0.6176470588234793
 50
0
 51
90
  0
ARC
  8
1
 62
7
 10
0
 20
2.842170943040401e-14
 30
0
 40
23.99999999999996
 50
137.6666783015281
 51
144.833321698472
  0
ARC
  8
1
 62
7
 10
0
 20
2.842170943040401e-14
 30
0
 40
30
 50
138.3840160174013
 51
144.1159839825989
  0
ARC
  8
1
 62
7
 10
0
 20
2.842170943040401e-14
 30
0
 40
30.00000000000004
 50
177.1340160174012
 51
182.8659839825989
  0
ARC
  8
1
 62
7
 10
0
 20
2.842170943040401e-14
 30
0
 40
23.99999999999991
 50
176.4166783015281
 51
183.583321698472
  0
ARC
  8
1
 62
7
 10
0
 20
2.842170943040401e-14
 30
0
 40
30.00000000000009
 50
215.8840160174012
 51
221.6159839825989
  0
ARC
  8
1
 62
7
 10
0
 20
2.842170943040401e-14
 30
0
 40
24.00000000000004
 50
215.1666783015281
 51
222.333321698472
  0
ARC
  8
1
 62
7
 10
0
 20
2.842170943040401e-14
 30
0
 40
30.00000000000004
 50
318.3840160174012
 51
324.1159839825988
  0
ARC
  8
1
 62
7
 10
0
 20
2.842170943040401e-14
 30
0
 40
23.99999999999999
 50
317.666678301528
 51
324.8333216984719
  0
ARC
  8
1
 62
7
 10
0
 20
2.842170943040401e-14
 30
0
 40
30.00000000000006
 50
35.88401601740108
 51
41.61598398259877
  0
ARC
  8
1
 62
7
 10
0
 20
2.842170943040401e-14
 30
0
 40
24.00000000000002
 50
35.16667830152802
 51
42.33332169847194
  0
ARC
  8
1
 62
7
 10
0
 20
2.842170943040401e-14
 30
0
 40
30.00000000000005
 50
357.1340160174011
 51
2.865983982598804
  0
ARC
  8
1
 62
7
 10
0
 20
2.842170943040401e-14
 30
0
 40
24.00000000000004
 50
356.416678301528
 51
3.583321698471901
  0
ARC
  8
1
 62
7
 10
0
 20
2.842170943040401e-14
 30
0
 40
24
 50
276.545707068994
 51
285.0000000000001
  0
ARC
  8
1
 62
7
 10
0
 20
2.842170943040401e-14
 30
0
 40
30.00000000000002
 50
255
 51
285
  0
ARC
  8
1
 62
7
 10
0
 20
2.842170943040401e-14
 30
0
 40
23.99999999999995
 50
74.99999999999989
 51
105
  0
ARC
  8
1
 62
7
 10
0
 20
2.842170943040401e-14
 30
0
 40
30.00000000000001
 50
75.00000000000003
 51
105
  0
ARC
  8
1
 62
7
 10
-32.5
 20
-72.5
 30
0
 40
3
 50
180
 51
270
  0
ARC
  8
1
 62
7
 10
-32.5
 20
-72.5
 30
0
 40
4
 50
180
 51
270
  0
ARC
  8
1
 62
7
 10
32.5
 20
-72.5
 30
0
 40
3
 50
270
 51
0
  0
ARC
  8
1
 62
7
 10
32.5
 20
-72.5
 30
0
 40
4
 50
270
 51
0
  0
ARC
  8
1
 62
7
 10
32.5
 20
32.5
 30
0
 40
3
 50
0
 51
90
  0
ARC
  8
1
 62
7
 10
32.5
 20
32.5
 30
0
 40
4
 50
0
 51
90
  0
ARC
  8
1
 62
7
 10
-32.5
 20
32.5
 30
0
 40
3
 50
90
 51
180
  0
ARC
  8
1
 62
7
 10
-32.5
 20
32.5
 30
0
 40
4
 50
90
 51
180
  0
ARC
  8
1
 62
7
 10
119.85
 20
-70.84999999999999
 30
0
 40
0.3500000000000085
 50
0
 51
90
  0
ARC
  8
1
 62
7
 10
119.85
 20
-70.84999999999999
 30
0
 40
0.3499999999999943
 50
90
 51
180
  0
ARC
  8
1
 62
7
 10
119.85
 20
-74.15000000000001
 30
0
 40
0.3499999999999943
 50
180
 51
0
  0
ARC
  8
1
 62
7
 10
119.85
 20
34.15000000000001
 30
0
 40
0.3500000000000085
 50
0
 51
180
  0
ARC
  8
1
 62
7
 10
119.85
 20
30.84999999999999
 30
0
 40
0.3499999999999943
 50
180
 51
0
  0
ARC
  8
1
 62
7
 10
0
 20
2.842170943040401e-14
 30
0
 40
24.00000000000002
 50
255.0000000000001
 51
263.454292931006
  0
ARC
  8
1
 62
7
 10
0
 20
2.842170943040401e-14
 30
0
 40
5.499999999999991
 50
353.2976921633172
 51
186.7023078366831
  0
CIRCLE
  8
1
 62
2
 10
-11
 20
-230.3
 30
0
 40
4
  0
CIRCLE
  8
1
 62
7
 10
-11
 20
-230.3
 30
0
 40
3.19999999999999
  0
CIRCLE
  8
1
 62
2
 10
11
 20
-230.3
 30
0
 40
4
  0
CIRCLE
  8
1
 62
7
 10
11
 20
-230.3
 30
0
 40
3.19999999999999
  0
CIRCLE
  8
1
 62
7
 10
-1.13686837721616e-13
 20
-95.5
 30
0
 40
2.75
  0
CIRCLE
  8
1
 62
7
 10
-1.13686837721616e-13
 20
-114
 30
0
 40
2.75
  0
CIRCLE
  8
1
 62
7
 10
172.8
 20
-76.00000000000001
 30
0
 40
3.5
  0
CIRCLE
  8
1
 62
7
 10
0
 20
2.842170943040401e-14
 30
0
 40
4.150000000000034
  0
CIRCLE
  8
1
 62
7
 10
-32.5
 20
-72.5
 30
0
 40
2
  0
CIRCLE
  8
1
 62
7
 10
32.5
 20
-72.5
 30
0
 40
2
  0
CIRCLE
  8
1
 62
7
 10
32.5
 20
32.5
 30
0
 40
2
  0
CIRCLE
  8
1
 62
7
 10
-32.5
 20
32.5
 30
0
 40
2
  0
ARC
  8
1
 62
7
 10
40.46568877480712
 20
-203.3
 30
0
 40
1
 50
90
 51
177.9999999999999
  0
ARC
  8
1
 62
7
 10
-40.46568877480706
 20
-203.3
 30
0
 40
0.9999999999999605
 50
2.000000000000471
 51
90
  0
ARC
  8
1
 62
7
 10
38.2200242997672
 20
-210.3
 30
0
 40
1
 50
270
 51
358.000000000001
  0
ARC
  8
1
 62
7
 10
-38.2200242997672
 20
-210.3
 30
0
 40
1.000000000000023
 50
181.9999999999987
 51
270
  0
ARC
  8
1
 62
7
 10
22
 20
-219.3
 30
0
 40
5
 50
90
 51
180
  0
ARC
  8
1
 62
7
 10
-22
 20
-219.3
 30
0
 40
5
 50
0
 51
90
  0
ARC
  8
1
 62
7
 10
-54.47319031243347
 20
-78.19999999999999
 30
0
 40
1.300000000000018
 50
196.7528183473851
 51
270
  0
ARC
  8
1
 62
7
 10
-54.48480237698658
 20
-73.80000000000001
 30
0
 40
1.300000000000011
 50
90
 51
163.5496001733866
  0
ARC
  8
1
 62
7
 10
54.47319031243353
 20
-73.80000000000004
 30
0
 40
1.299999999999963
 50
16.75281834738587
 51
90
  0
ARC
  8
1
 62
7
 10
54.48480237698664
 20
-78.20000000000002
 30
0
 40
1.300000000000011
 50
270
 51
343.5496001733857
  0
ARC
  8
1
 62
7
 10
138.8
 20
-141.7849661878479
 30
0
 40
6.199999999999959
 50
303.6703165368492
 51
310.7935627793327
  0
ARC
  8
1
 62
7
 10
125.6
 20
-117.5
 30
0
 40
1
 50
180
 51
216.8698976458393
  0
ARC
  8
1
 62
7
 10
-1.13686837721616e-13
 20
-121.5
 30
0
 40
2
 50
0
 51
90
  0
ARC
  8
1
 62
7
 10
-1.13686837721616e-13
 20
-121.5
 30
0
 40
2
 50
90
 51
180
  0
ARC
  8
1
 62
7
 10
123.8608798583755
 20
-93.75
 30
0
 40
0.9999999999999858
 50
90
 51
163.0422366999966
  0
ARC
  8
1
 62
7
 10
123.8608798583755
 20
-97.25000000000001
 30
0
 40
1.000000000000009
 50
196.9577633000026
 51
270
  0
ARC
  8
1
 62
7
 10
123.8608798583755
 20
-112.25
 30
0
 40
1
 50
90
 51
163.0422366999943
  0
ARC
  8
1
 62
7
 10
123.8608798583755
 20
-115.75
 30
0
 40
1.000000000000025
 50
196.9577633000057
 51
270
  0
ARC
  8
1
 62
7
 10
125.6
 20
-92
 30
0
 40
0.9999999999999858
 50
143.1301023541568
 51
180
  0
ARC
  8
1
 62
7
 10
138.8
 20
-141.7937842787616
 30
0
 40
2.999999999999976
 50
303.6703402302211
 51
0
  0
ARC
  8
1
 62
7
 10
137
 20
-152.8
 30
0
 40
4.199999999999989
 50
180
 51
270
  0
ARC
  8
1
 62
7
 10
137
 20
-151.6442270553016
 30
0
 40
4.200000000000031
 50
123.670340230222
 51
180
  0
ARC
  8
1
 62
7
 10
137
 20
-151.6354055064472
 30
0
 40
1.000000000000024
 50
123.6703165368501
 51
180
  0
ARC
  8
1
 62
7
 10
137
 20
-152.8
 30
0
 40
1
 50
180
 51
270
  0
ARC
  8
1
 62
7
 10
132.8
 20
38
 30
0
 40
12
 50
90
 51
180
  0
ARC
  8
1
 62
7
 10
132.8
 20
38
 30
0
 40
11
 50
90
 51
180
  0
ARC
  8
1
 62
7
 10
181.8
 20
-79.3
 30
0
 40
1
 50
0
 51
90
  0
ARC
  8
1
 62
7
 10
181.8
 20
-84
 30
0
 40
1
 50
270
 51
0
  0
ARC
  8
1
 62
7
 10
183.8
 20
-72.7
 30
0
 40
1
 50
270
 51
0
  0
ARC
  8
1
 62
7
 10
-51
 20
48.5
 30
0
 40
1.5
 50
90
 51
180
  0
ARC
  8
1
 62
7
 10
51
 20
48.5
 30
0
 40
1.5
 50
0
 51
90
  0
ARC
  8
1
 62
2
 10
-31.16666666666669
 20
-64.16666666666667
 30
0
 40
1.333333333333311
 50
180
 51
270
  0
ARC
  8
1
 62
2
 10
-25.16666666666669
 20
-56.83333333333334
 30
0
 40
1.333333333333378
 50
0
 51
90
  0
ARC
  8
1
 62
2
 10
-31.16666666666669
 20
-64.16666666666667
 30
0
 40
1.000000000000004
 50
180
 51
270
  0
ARC
  8
1
 62
2
 10
-25.16666666666669
 20
-56.83333333333334
 30
0
 40
1
 50
0
 51
90
  0
ARC
  8
1
 62
7
 10
32.5
 20
32.5
 30
0
 40
5
 50
0
 51
90
  0
ARC
  8
1
 62
7
 10
32.5
 20
-72.5
 30
0
 40
5
 50
270
 51
0
  0
ARC
  8
1
 62
7
 10
-32.5
 20
-72.5
 30
0
 40
5
 50
180
 51
270
  0
ARC
  8
1
 62
7
 10
-32.5
 20
32.5
 30
0
 40
5
 50
90
 51
180
  0
ARC
  8
1
 62
7
 10
127.8
 20
-122.5
 30
0
 40
3
 50
180
 51
270
  0
ARC
  8
1
 62
7
 10
205.2715579567124
 20
-144.3458308229217
 30
0
 40
25
 50
100.0000000000001
 51
177
  0
ARC
  8
1
 62
7
 10
33.92101857861263
 20
-128.5
 30
0
 40
2.999999999999994
 50
1.999999999999852
 51
90
  0
ARC
  8
1
 62
7
 10
-33.92101857861257
 20
-128.5
 30
0
 40
3
 50
90
 51
178.0000000000002
  0
ARC
  8
1
 62
7
 10
70.5
 20
-93.5
 30
0
 40
1
 50
270
 51
0
  0
ARC
  8
1
 62
7
 10
70.5
 20
-86
 30
0
 40
1
 50
0
 51
90
  0
ARC
  8
1
 62
7
 10
-70.5
 20
-93.5
 30
0
 40
1
 50
180
 51
270
  0
ARC
  8
1
 62
7
 10
-70.5
 20
-86
 30
0
 40
1
 50
90
 51
180
  0
ARC
  8
1
 62
7
 10
306.8
 20
-94.96540221293633
 30
0
 40
6.000000000000029
 50
280.0000000000001
 51
0
  0
ARC
  8
1
 62
7
 10
183.8532696579726
 20
-82
 30
0
 40
3.00000000000001
 50
243.7038877347535
 51
270
  0
ARC
  8
1
 62
7
 10
311.8
 20
-94.5
 30
0
 40
1
 50
270
 51
0
  0
ARC
  8
1
 62
7
 10
311.8
 20
-86
 30
0
 40
1
 50
0
 51
90
  0
ARC
  8
1
 62
7
 10
294.8
 20
-86
 30
0
 40
1
 50
90
 51
180
  0
ARC
  8
1
 62
7
 10
294.8
 20
-94.5
 30
0
 40
1
 50
180
 51
270
  0
ARC
  8
1
 62
7
 10
208.8
 20
-94.5
 30
0
 40
1
 50
270
 51
0
  0
ARC
  8
1
 62
7
 10
208.8
 20
-86
 30
0
 40
1
 50
0
 51
90
  0
ARC
  8
1
 62
7
 10
191.8
 20
-86
 30
0
 40
1
 50
90
 51
180
  0
ARC
  8
1
 62
7
 10
191.8
 20
-94.5
 30
0
 40
1
 50
180
 51
270
  0
ARC
  8
1
 62
7
 10
139.3507559311313
 20
-92.10000000000001
 30
0
 40
1.599999999999953
 50
2.000000000000043
 51
43.43253655779029
  0
TEXT
  8
1
 62
7
 10
281.5220767524721
 20
75.77190683990167
 30
0
 40
3.149999999999999
  1
DWG No.  ZA-0001
 41
0.9
  0
TEXT
  8
1
 62
7
 10
281.5220767524721
 20
68.84190683990168
 30
0
 40
3.149999999999999
  1
REV.     00
 41
0.9
  0
TEXT
  8
1
 62
7
 10
281.5220767524721
 20
61.91190683990168
 30
0
 40
3.149999999999999
  1
Yamatake Corporation
 41
0.9
  0
TEXT
  8
1
 62
7
 10
-20
 20
-52
 30
0
 40
2
  1
TYPE
 41
0.9
 73
2
 11
-20
 21
-51
 31
0
  0
TEXT
  8
1
 62
7
 10
-24.57
 20
-46
 30
0
 40
4
  1
VALVE LINKAGE
 41
0.9450000000000001
 72
1
 73
3
 11
0
 21
-42
 31
0
  0
TEXT
  8
1
 62
7
 10
-9.720000000000001
 20
-33.84999999999999
 30
0
 40
3
  1
CLOSED
 41
1.08
 72
1
 11
0
 21
-33.84999999999999
 31
0
  0
TEXT
  8
1
 62
7
 10
-6.75
 20
30.84999999999999
 30
0
 40
3
  1
OPEN
 41
1.125
 72
1
 73
3
 11
0
 21
33.84999999999999
 31
0
  0
ENDSEC
  0
EOF
