  0
SECTION
  2
HEADER
  9
$ACADVER
  1
AC1006
  9
$INSBASE
 10
0.0
 20
0.0
 30
0.0
  9
$EXTMIN
 10
-207.1651001
 20
-269.8689880
  9
$EXTMAX
 10
527.4638062
 20
304.8678894
  9
$LIMMIN
 10
0.0
 20
0.0
  9
$LIMMAX
 10
12.0
 20
9.0
  9
$ORTHOMODE
 70
     0
  9
$REGENMODE
 70
     1
  9
$FILLMODE
 70
     1
  9
$QTEXTMODE
 70
     0
  9
$MIRRTEXT
 70
     1
  9
$DRAGMODE
 70
     2
  9
$LTSCALE
 40
5.0000000
  9
$OSMODE
 70
     0
  9
$ATTMODE
 70
     1
  9
$TEXTSIZE
 40
4.0
  9
$TRACEWID
 40
0.05
  9
$TEXTSTYLE
  7
STANDARD
  9
$CLAYER
  8
0
  9
$CELTYPE
  6
BYLAYER
  9
$CECOLOR
 62
   256
  9
$DIMSCALE
 40
1.0000000
  9
$DIMASZ
 40
0.18
  9
$DIMEXO
 40
0.0625
  9
$DIMDLI
 40
0.38
  9
$DIMRND
 40
0.0
  9
$DIMDLE
 40
0.0
  9
$DIMEXE
 40
0.18
  9
$DIMTP
 40
0.0
  9
$DIMTM
 40
0.0
  9
$DIMTXT
 40
0.18
  9
$DIMCEN
 40
0.09
  9
$DIMTSZ
 40
0.0
  9
$DIMTOL
 70
     0
  9
$DIMLIM
 70
     0
  9
$DIMTIH
 70
     1
  9
$DIMTOH
 70
     1
  9
$DIMSE1
 70
     0
  9
$DIMSE2
 70
     0
  9
$DIMTAD
 70
     0
  9
$DIMZIN
 70
     0
  9
$DIMBLK
  1

  9
$DIMASO
 70
     1
  9
$DIMSHO
 70
     0
  9
$DIMPOST
  1

  9
$DIMAPOST
  1

  9
$DIMALT
 70
     0
  9
$DIMALTD
 70
     2
  9
$DIMALTF
 40
25.4
  9
$DIMLFAC
 40
1.0
  9
$DIMTOFL
 70
     0
  9
$DIMTVP
 40
0.0
  9
$DIMTIX
 70
     0
  9
$DIMSOXD
 70
     0
  9
$DIMSAH
 70
     0
  9
$DIMBLK1
  1

  9
$DIMBLK2
  1

  9
$LUNITS
 70
     2
  9
$LUPREC
 70
     4
  9
$AXISMODE
 70
     0
  9
$AXISUNIT
 10
0.0
 20
0.0
  9
$SKETCHINC
 40
0.1
  9
$FILLETRAD
 40
0.0
  9
$AUNITS
 70
     0
  9
$AUPREC
 70
     0
  9
$MENU
  1
acad
  9
$ELEVATION
 40
0.0
  9
$THICKNESS
 40
0.0
  9
$LIMCHECK
 70
     0
  9
$BLIPMODE
 70
     1
  9
$CHAMFERA
 40
0.0
  9
$CHAMFERB
 40
0.0
  9
$SKPOLY
 70
     0
  9
$TDCREATE
 40
2448026.6008101851
  9
$TDUPDATE
 40
2448026.6181597221
  9
$TDINDWG
 40
0.0173495370
  9
$TDUSRTIMER
 40
0.0173495370
  9
$USRTIMER
 70
     1
  9
$ANGBASE
 50
0.0
  9
$ANGDIR
 70
     0
  9
$PDMODE
 70
     0
  9
$PDSIZE
 40
0.0
  9
$PLINEWID
 40
0.0
  9
$COORDS
 70
     2
  9
$SPLFRAME
 70
     0
  9
$SPLINETYPE
 70
     6
  9
$SPLINESEGS
 70
     8
  9
$ATTDIA
 70
     0
  9
$ATTREQ
 70
     1
  9
$HANDLING
 70
     0
  9
$HANDSEED
  5
A
  9
$SURFTAB1
 70
     6
  9
$SURFTAB2
 70
     6
  9
$SURFTYPE
 70
     6
  9
$SURFU
 70
     6
  9
$SURFV
 70
     6
  9
$FLATLAND
 70
     0
  9
$UCSNAME
  2

  9
$UCSORG
 10
0.0
 20
0.0
 30
0.0
  9
$UCSXDIR
 10
1.0
 20
0.0
 30
0.0
  9
$UCSYDIR
 10
0.0
 20
1.0
 30
0.0
  9
$USERI1
 70
     0
  9
$USERI2
 70
     0
  9
$USERI3
 70
     0
  9
$USERI4
 70
     0
  9
$USERI5
 70
     0
  9
$USERR1
 40
0.0
  9
$USERR2
 40
0.0
  9
$USERR3
 40
0.0
  9
$USERR4
 40
0.0
  9
$USERR5
 40
0.0
  9
$WORLDVIEW
 70
     1
  0
ENDSEC
  0
SECTION
  2
TABLES
  0
TABLE
  2
VPORT
 70
     2
  0
VPORT
  2
*ACTIVE
 70
     0
 10
0.0
 20
0.0
 11
1.0
 21
1.0
 12
160.1493530
 22
17.4994507
 13
0.0
 23
0.0
 14
1.0
 24
1.0
 15
0.0
 25
0.0
 16
0.0
 26
0.0
 36
1.0
 17
0.0
 27
0.0
 37
0.0
 40
574.7368774
 41
1.2782004
 42
50.0
 43
0.0
 44
0.0
 50
0.0
 51
0.0
 71
     0
 72
   100
 73
     1
 74
     1
 75
     1
 76
     0
 77
     0
 78
     0
  0
ENDTAB
  0
TABLE
  2
LTYPE
 70
     5
  0
LTYPE
  2
CONTINUOUS
 70
    64
  3
________________________
 72
    65
 73
     0
 40
0.0
  0
LTYPE
  2
HIDDEN
 70
    64
  3
_ _ _ _ _ _ _ _ _ _ _ _
 72
    65
 73
     2
 40
0.375
 49
0.25
 49
-0.125
  0
LTYPE
  2
DASHED
 70
    64
  3
__ __ __ __ __ __ __ __
 72
    65
 73
     2
 40
0.75
 49
0.5
 49
-0.25
  0
LTYPE
  2
CENTER
 70
    64
  3
____ _ ____ _ ____ _ ___
 72
    65
 73
     4
 40
2.0
 49
1.25
 49
-0.25
 49
0.25
 49
-0.25
  0
LTYPE
  2
PHANTOM
 70
    64
  3
_____ _ _ _____ _ _ ____
 72
    65
 73
     6
 40
2.5
 49
1.25
 49
-0.25
 49
0.25
 49
-0.25
 49
0.25
 49
-0.25
  0
ENDTAB
  0
TABLE
  2
LAYER
 70
     5
  0
LAYER
  2
0
 70
 64
 62
  7
  6
CONTINUOUS
  0
LAYER
  2
WORKLAYER
 70
 64
 62
  7
  6
CONTINUOUS
  0
LAYER
  2
SNOTE
 70
 64
 62
  7
  6
CONTINUOUS
  0
LAYER
  2
SSYMB
 70
 64
 62
  7
  6
CONTINUOUS
  0
ENDTAB
  0
TABLE
  2
STYLE
 70
     3
  0
STYLE
  2
STANDARD
 70
    64
 40
0.0
 41
1.0
 50
0.0
 71
     0
 42
4.0
  3
txt
  4

  0
STYLE
  2
KANJI
 70
    64
 40
0.0
 41
1.0
 50
0.0
 71
     0
 42
2.0
  3
TXT
  4
BIGFONT
  0
STYLE
  2
TATEGAKI
 70
    68
 40
0.0
 41
1.0
 50
0.0
 71
     0
 42
4.0
  3
MONOTXT
  4
BIGFONT
  0
ENDTAB
  0
TABLE
  2
VIEW
 70
     0
  0
ENDTAB
  0
TABLE
  2
UCS
 70
     0
  0
ENDTAB
  0
TABLE
  2
DWGMGR
 70
     0
  0
ENDTAB
  0
ENDSEC
  0
SECTION
  2
BLOCKS
  0
ENDSEC
  0
SECTION
  2
ENTITIES
  0
LINE
  8
WORKLAYER
  6
CONTINUOUS
 62
     4
 10
-105.0000000
 20
-229.0000000
 30
0.0
 11
-105.0000000
 21
-250.0000000
 31
0.0
  0
LINE
  8
WORKLAYER
  6
CONTINUOUS
 62
     4
 10
-105.0000000
 20
-250.0000000
 30
0.0
 11
105.0000000
 21
-250.0000000
 31
0.0
  0
LINE
  8
WORKLAYER
  6
CONTINUOUS
 62
     4
 10
105.0000000
 20
-229.0000000
 30
0.0
 11
105.0000000
 21
-250.0000000
 31
0.0
  0
LINE
  8
WORKLAYER
  6
CONTINUOUS
 62
     4
 10
-2.8000000
 20
-84.5385971
 30
0.0
 11
2.8000000
 21
-84.5385971
 31
0.0
  0
LINE
  8
WORKLAYER
  6
CONTINUOUS
 62
     4
 10
-2.8000000
 20
-81.5385971
 30
0.0
 11
-2.8000000
 21
-84.5385971
 31
0.0
  0
ARC
  8
WORKLAYER
  6
CONTINUOUS
 62
     4
 10
17.7999992
 20
-81.5385971
 30
0.0
 40
20.6000004
 50
133.2680054
 51
180.0000000
  0
LINE
  8
WORKLAYER
  6
CONTINUOUS
 62
     4
 10
-111.5210037
 20
-98.0000000
 30
0.0
 11
114.0000000
 21
-98.0000000
 31
0.0
  0
LINE
  8
WORKLAYER
  6
CENTER
 62
     2
 10
402.5408936
 20
304.8678894
 30
0.0
 11
402.5408936
 21
-269.8689880
 31
0.0
  0
CIRCLE
  8
WORKLAYER
  6
CONTINUOUS
 62
     4
 10
402.5408936
 20
0.0000000
 30
0.0
 40
105.0000000
  0
CIRCLE
  8
WORKLAYER
  6
CONTINUOUS
 62
     4
 10
402.5408936
 20
0.0000000
 30
0.0
 40
50.0000000
  0
LINE
  8
WORKLAYER
  6
CONTINUOUS
 62
     4
 10
516.5410156
 20
-115.0000000
 30
0.0
 11
516.5410156
 21
-101.0000000
 31
0.0
  0
LINE
  8
WORKLAYER
  6
CONTINUOUS
 62
     4
 10
329.5408936
 20
-120.0000000
 30
0.0
 11
329.5408936
 21
-118.0000000
 31
0.0
  0
LINE
  8
WORKLAYER
  6
CONTINUOUS
 62
     4
 10
475.5408936
 20
-120.0000000
 30
0.0
 11
475.5408936
 21
-118.0000000
 31
0.0
  0
LINE
  8
WORKLAYER
  6
CONTINUOUS
 62
     4
 10
297.5408936
 20
-250.0000000
 30
0.0
 11
507.5408936
 21
-250.0000000
 31
0.0
  0
LINE
  8
WORKLAYER
  6
CONTINUOUS
 62
     4
 10
297.5408936
 20
-229.0000000
 30
0.0
 11
297.5408936
 21
-250.0000000
 31
0.0
  0
LINE
  8
WORKLAYER
  6
CONTINUOUS
 62
     4
 10
507.5408936
 20
-229.0000000
 30
0.0
 11
507.5408936
 21
-250.0000000
 31
0.0
  0
LINE
  8
WORKLAYER
  6
CONTINUOUS
 62
     4
 10
304.5408936
 20
-37.6961594
 30
0.0
 11
304.5408936
 21
-90.9832687
 31
0.0
  0
LINE
  8
WORKLAYER
  6
CONTINUOUS
 62
     4
 10
500.5408936
 20
-37.6961594
 30
0.0
 11
500.5408936
 21
-90.9832687
 31
0.0
  0
ARC
  8
WORKLAYER
  6
CONTINUOUS
 62
     4
 10
513.5410156
 20
-100.5173035
 30
0.0
 40
3.0000000
 50
0.0000000
 51
80.0000000
  0
LINE
  8
WORKLAYER
  6
CENTER
 62
     2
 10
278.2304077
 20
0.0000000
 30
0.0
 11
527.4638062
 21
0.0000000
 31
0.0
  0
TEXT
  8
SNOTE
 62
     5
 10
-126.2721024
 20
-4.5000000
 30
0.0
 40
9.0000000
  1
Ａ
 50
0.0000000
 41
1.0000000
 51
0.0000000
  7
KANJI
 72
5
 11
-117.2721024
 21
-4.5000000
 31
0.0
  0
CIRCLE
  8
WORKLAYER
  6
CENTER
 62
     2
 10
402.5408936
 20
0.0000000
 30
0.0
 40
87.5000000
  0
CIRCLE
  8
WORKLAYER
  6
CONTINUOUS
 62
     4
 10
436.0256958
 20
80.8394623
 30
0.0
 40
9.5000000
  0
CIRCLE
  8
WORKLAYER
  6
CONTINUOUS
 62
     4
 10
483.3804016
 20
33.4847984
 30
0.0
 40
9.5000000
  0
LINE
  8
WORKLAYER
  6
CENTER
 62
     2
 10
467.7591858
 20
27.0142708
 30
0.0
 11
496.9961853
 21
39.1246414
 31
0.0
  0
LINE
  8
WORKLAYER
  6
CENTER
 62
     2
 10
429.3698120
 20
64.7705002
 30
0.0
 11
441.5314941
 21
94.1315613
 31
0.0
  0
LINE
  8
WORKLAYER
  6
CENTER
 62
     2
 10
467.7591858
 20
-27.0142708
 30
0.0
 11
496.9961853
 21
-39.1246414
 31
0.0
  0
LINE
  8
WORKLAYER
  6
CENTER
 62
     2
 10
429.3698120
 20
-64.7705002
 30
0.0
 11
441.5314941
 21
-94.1315613
 31
0.0
  0
CIRCLE
  8
WORKLAYER
  6
CONTINUOUS
 62
     4
 10
436.0256958
 20
-80.8394623
 30
0.0
 40
9.5000000
  0
CIRCLE
  8
WORKLAYER
  6
CONTINUOUS
 62
     4
 10
483.3804016
 20
-33.4847984
 30
0.0
 40
9.5000000
  0
LINE
  8
WORKLAYER
  6
CENTER
 62
     2
 10
337.3226929
 20
27.0142708
 30
0.0
 11
308.0856934
 21
39.1246414
 31
0.0
  0
LINE
  8
WORKLAYER
  6
CENTER
 62
     2
 10
375.7120972
 20
64.7705002
 30
0.0
 11
363.5504150
 21
94.1315613
 31
0.0
  0
CIRCLE
  8
WORKLAYER
  6
CONTINUOUS
 62
     4
 10
369.0560913
 20
80.8394623
 30
0.0
 40
9.5000000
  0
CIRCLE
  8
WORKLAYER
  6
CONTINUOUS
 62
     4
 10
321.7015076
 20
33.4847984
 30
0.0
 40
9.5000000
  0
LINE
  8
WORKLAYER
  6
CENTER
 62
     2
 10
337.3226929
 20
-27.0142708
 30
0.0
 11
308.0856934
 21
-39.1246414
 31
0.0
  0
LINE
  8
WORKLAYER
  6
CENTER
 62
     2
 10
375.7120972
 20
-64.7705002
 30
0.0
 11
363.5504150
 21
-94.1315613
 31
0.0
  0
CIRCLE
  8
WORKLAYER
  6
CONTINUOUS
 62
     4
 10
369.0560913
 20
-80.8394623
 30
0.0
 40
9.5000000
  0
CIRCLE
  8
WORKLAYER
  6
CONTINUOUS
 62
     4
 10
321.7015076
 20
-33.4847984
 30
0.0
 40
9.5000000
  0
TEXT
  8
SNOTE
 62
     5
 10
105.2936035
 20
-4.5000000
 30
0.0
 40
9.0000000
  1
ＡＢ
 50
0.0000000
 41
1.0000000
 51
0.0000000
  7
KANJI
 72
5
 11
125.0936035
 21
-4.5000000
 31
0.0
  0
LINE
  8
WORKLAYER
  6
CONTINUOUS
 62
     4
 10
362.5408936
 20
97.0824432
 30
0.0
 11
362.5408936
 21
115.6392975
 31
0.0
  0
LINE
  8
WORKLAYER
  6
CONTINUOUS
 62
     4
 10
442.5408936
 20
97.0824432
 30
0.0
 11
442.5408936
 21
115.6392975
 31
0.0
  0
LINE
  8
WORKLAYER
  6
CENTER
 62
     2
 10
313.8485107
 20
-105.8526001
 30
0.0
 11
313.8485107
 21
-170.7747040
 31
0.0
  0
LINE
  8
WORKLAYER
  6
CENTER
 62
     2
 10
365.8033142
 20
-105.8526001
 30
0.0
 11
365.8033142
 21
-170.7747040
 31
0.0
  0
LINE
  8
WORKLAYER
  6
CENTER
 62
     2
 10
439.2785034
 20
-105.8526001
 30
0.0
 11
439.2785034
 21
-170.7747040
 31
0.0
  0
LINE
  8
WORKLAYER
  6
CENTER
 62
     2
 10
491.2333984
 20
-105.8526001
 30
0.0
 11
491.2333984
 21
-170.7747040
 31
0.0
  0
LINE
  8
WORKLAYER
  6
CENTER
 62
     2
 10
-36.7376099
 20
-105.8526001
 30
0.0
 11
-36.7376099
 21
-170.7747040
 31
0.0
  0
LINE
  8
WORKLAYER
  6
CENTER
 62
     2
 10
-88.6924362
 20
-105.8526001
 30
0.0
 11
-88.6924362
 21
-170.7747040
 31
0.0
  0
LINE
  8
WORKLAYER
  6
CENTER
 62
     2
 10
36.7376099
 20
-105.8526001
 30
0.0
 11
36.7376099
 21
-170.7747040
 31
0.0
  0
LINE
  8
WORKLAYER
  6
CENTER
 62
     2
 10
88.6924362
 20
-105.8526001
 30
0.0
 11
88.6924362
 21
-170.7747040
 31
0.0
  0
LINE
  8
WORKLAYER
  6
CONTINUOUS
 62
     4
 10
-25.0000000
 20
138.0000000
 30
0.0
 11
25.0000000
 21
138.0000000
 31
0.0
  0
LINE
  8
WORKLAYER
  6
CONTINUOUS
 62
     4
 10
377.5408936
 20
138.0000000
 30
0.0
 11
427.5408936
 21
138.0000000
 31
0.0
  0
ARC
  8
WORKLAYER
  6
CONTINUOUS
 62
     4
 10
17.7999992
 20
-81.5385971
 30
0.0
 40
15.0000000
 50
90.0000000
 51
180.0000000
  0
LINE
  8
WORKLAYER
  6
CONTINUOUS
 62
     4
 10
2.8000000
 20
-81.5385971
 30
0.0
 11
2.8000000
 21
-84.5385971
 31
0.0
  0
ARC
  8
WORKLAYER
  6
CONTINUOUS
 62
     4
 10
147.0000000
 20
70.0000000
 30
0.0
 40
5.0000000
 50
270.0000000
 51
0.0000000
  0
ARC
  8
WORKLAYER
  6
CONTINUOUS
 62
     4
 10
70.6628113
 20
70.0000000
 30
0.0
 40
5.0000000
 50
207.4864044
 51
270.0000000
  0
LINE
  8
WORKLAYER
  6
CONTINUOUS
 62
     4
 10
70.6628113
 20
65.0000000
 30
0.0
 11
147.0000000
 21
65.0000000
 31
0.0
  0
ARC
  8
WORKLAYER
  6
CONTINUOUS
 62
     4
 10
-147.0000000
 20
-70.0000000
 30
0.0
 40
5.0000000
 50
90.0000000
 51
180.0000000
  0
LINE
  8
WORKLAYER
  6
CONTINUOUS
 62
     4
 10
-147.0000000
 20
-65.0000000
 30
0.0
 11
-83.0000229
 21
-65.0000000
 31
0.0
  0
ARC
  8
WORKLAYER
  6
CONTINUOUS
 62
     4
 10
-83.0000229
 20
-70.0000000
 30
0.0
 40
5.0000000
 50
0.0000000
 51
90.0000000
  0
ARC
  8
WORKLAYER
  6
CONTINUOUS
 62
     4
 10
505.5408936
 20
-90.9832687
 30
0.0
 40
5.0000000
 50
180.0000000
 51
260.0000000
  0
LINE
  8
WORKLAYER
  6
CONTINUOUS
 62
     4
 10
504.6726990
 20
-95.9073029
 30
0.0
 11
514.0618896
 21
-97.5628815
 31
0.0
  0
ARC
  8
WORKLAYER
  6
CONTINUOUS
 62
     4
 10
-69.0333481
 20
-221.0000000
 30
0.0
 40
5.0000000
 50
270.0000000
 51
347.7840881
  0
ARC
  8
WORKLAYER
  6
CONTINUOUS
 62
     4
 10
-70.7144165
 20
-205.1347961
 30
0.0
 40
10.0000000
 50
347.7840881
 51
2.3698709
  0
LINE
  8
WORKLAYER
  6
CONTINUOUS
 62
     4
 10
-60.9408417
 20
-207.2507935
 30
0.0
 11
-64.1465607
 21
-222.0579987
 31
0.0
  0
ARC
  8
WORKLAYER
  6
CONTINUOUS
 62
     4
 10
69.0333481
 20
-221.0000000
 30
0.0
 40
5.0000000
 50
192.2158966
 51
270.0000000
  0
LINE
  8
WORKLAYER
  6
CONTINUOUS
 62
     4
 10
60.9408417
 20
-207.2507935
 30
0.0
 11
64.1465607
 21
-222.0579987
 31
0.0
  0
ARC
  8
WORKLAYER
  6
CONTINUOUS
 62
     4
 10
70.7144165
 20
-205.1347961
 30
0.0
 40
10.0000000
 50
177.6300964
 51
192.2158966
  0
ARC
  8
WORKLAYER
  6
CONTINUOUS
 62
     4
 10
-102.0000000
 20
-229.0000000
 30
0.0
 40
3.0000000
 50
90.0000000
 51
180.0000000
  0
ARC
  8
WORKLAYER
  6
CONTINUOUS
 62
     4
 10
102.0000000
 20
-229.0000000
 30
0.0
 40
3.0000000
 50
0.0000000
 51
90.0000000
  0
LINE
  8
WORKLAYER
  6
CONTINUOUS
 62
     4
 10
-102.0000000
 20
-226.0000000
 30
0.0
 11
102.0000000
 21
-226.0000000
 31
0.0
  0
LINE
  8
WORKLAYER
  6
CONTINUOUS
 62
     4
 10
440.2370911
 20
-98.0000000
 30
0.0
 11
516.5410156
 21
-98.0000000
 31
0.0
  0
LINE
  8
WORKLAYER
  6
CONTINUOUS
 62
     4
 10
291.0199890
 20
-98.0000000
 30
0.0
 11
364.8447876
 21
-98.0000000
 31
0.0
  0
LINE
  8
WORKLAYER
  6
CONTINUOUS
 62
     4
 10
402.5408936
 20
-118.0000000
 30
0.0
 11
513.5410156
 21
-118.0000000
 31
0.0
  0
ARC
  8
WORKLAYER
  6
CONTINUOUS
 62
     4
 10
513.5410156
 20
-115.0000000
 30
0.0
 40
3.0000000
 50
270.0000000
 51
0.0000000
  0
LINE
  8
WORKLAYER
  6
CONTINUOUS
 62
     4
 10
372.8033142
 20
-120.0000000
 30
0.0
 11
432.2785034
 21
-120.0000000
 31
0.0
  0
LINE
  8
WORKLAYER
  6
CONTINUOUS
 62
     4
 10
446.2785034
 20
-120.0000000
 30
0.0
 11
475.5408936
 21
-120.0000000
 31
0.0
  0
LINE
  8
WORKLAYER
  6
CONTINUOUS
 62
     4
 10
329.5408936
 20
-120.0000000
 30
0.0
 11
358.8033142
 21
-120.0000000
 31
0.0
  0
ARC
  8
WORKLAYER
  6
CONTINUOUS
 62
     4
 10
291.5408936
 20
-115.0000000
 30
0.0
 40
3.0000000
 50
180.0000000
 51
270.0000000
  0
LINE
  8
WORKLAYER
  6
CONTINUOUS
 62
     4
 10
402.5408936
 20
-118.0000000
 30
0.0
 11
291.5408936
 21
-118.0000000
 31
0.0
  0
ARC
  8
WORKLAYER
  6
CONTINUOUS
 62
     4
 10
299.5408936
 20
-90.9832687
 30
0.0
 40
5.0000000
 50
280.0000000
 51
0.0000000
  0
LINE
  8
WORKLAYER
  6
CONTINUOUS
 62
     4
 10
300.4092102
 20
-95.9073029
 30
0.0
 11
291.0199890
 21
-97.5628815
 31
0.0
  0
LINE
  8
WORKLAYER
  6
CONTINUOUS
 62
     4
 10
288.5408936
 20
-115.0000000
 30
0.0
 11
288.5408936
 21
-100.5173035
 31
0.0
  0
ARC
  8
WORKLAYER
  6
CONTINUOUS
 62
     4
 10
291.5408936
 20
-100.5173035
 30
0.0
 40
3.0000000
 50
100.0000000
 51
180.0000000
  0
ARC
  8
WORKLAYER
  6
CONTINUOUS
 62
     4
 10
377.5408936
 20
133.0000000
 30
0.0
 40
5.0000000
 50
0.0000000
 51
90.0000000
  0
LINE
  8
WORKLAYER
  6
CONTINUOUS
 62
     4
 10
382.5408936
 20
103.0775986
 30
0.0
 11
382.5408936
 21
133.0000000
 31
0.0
  0
ARC
  8
WORKLAYER
  6
CONTINUOUS
 62
     4
 10
377.5408936
 20
143.0000000
 30
0.0
 40
5.0000000
 50
180.0000000
 51
270.0000000
  0
LINE
  8
WORKLAYER
  6
CONTINUOUS
 62
     4
 10
377.5408936
 20
138.0000000
 30
0.0
 11
378.7408142
 21
138.0000000
 31
0.0
  0
ARC
  8
WORKLAYER
  6
CONTINUOUS
 62
     4
 10
427.5408936
 20
143.0000000
 30
0.0
 40
5.0000000
 50
270.0000000
 51
0.0000000
  0
LINE
  8
WORKLAYER
  6
CONTINUOUS
 62
     4
 10
427.5408936
 20
138.0000000
 30
0.0
 11
426.3409119
 21
138.0000000
 31
0.0
  0
LINE
  8
WORKLAYER
  6
CONTINUOUS
 62
     4
 10
422.5408936
 20
103.0775986
 30
0.0
 11
422.5408936
 21
133.0000000
 31
0.0
  0
ARC
  8
WORKLAYER
  6
CONTINUOUS
 62
     4
 10
427.5408936
 20
133.0000000
 30
0.0
 40
5.0000000
 50
90.0000000
 51
180.0000000
  0
ARC
  8
WORKLAYER
  6
CONTINUOUS
 62
     4
 10
333.5075989
 20
-221.0000000
 30
0.0
 40
5.0000000
 50
270.0000000
 51
347.7840881
  0
ARC
  8
WORKLAYER
  6
CONTINUOUS
 62
     4
 10
331.8265076
 20
-205.1347961
 30
0.0
 40
10.0000000
 50
347.7840881
 51
2.3698709
  0
LINE
  8
WORKLAYER
  6
CONTINUOUS
 62
     4
 10
341.6000977
 20
-207.2507935
 30
0.0
 11
338.3944092
 21
-222.0579987
 31
0.0
  0
ARC
  8
WORKLAYER
  6
CONTINUOUS
 62
     4
 10
471.5743103
 20
-221.0000000
 30
0.0
 40
5.0000000
 50
192.2158966
 51
270.0000000
  0
ARC
  8
WORKLAYER
  6
CONTINUOUS
 62
     4
 10
473.2553101
 20
-205.1347961
 30
0.0
 40
10.0000000
 50
177.6300964
 51
192.2158966
  0
LINE
  8
WORKLAYER
  6
CONTINUOUS
 62
     4
 10
463.4818115
 20
-207.2507935
 30
0.0
 11
466.6875000
 21
-222.0579987
 31
0.0
  0
LINE
  8
WORKLAYER
  6
CONTINUOUS
 62
     4
 10
300.5408936
 20
-226.0000000
 30
0.0
 11
504.5408936
 21
-226.0000000
 31
0.0
  0
ARC
  8
WORKLAYER
  6
CONTINUOUS
 62
     4
 10
300.5408936
 20
-229.0000000
 30
0.0
 40
3.0000000
 50
90.0000000
 51
180.0000000
  0
ARC
  8
WORKLAYER
  6
CONTINUOUS
 62
     4
 10
504.5408936
 20
-229.0000000
 30
0.0
 40
3.0000000
 50
0.0000000
 51
90.0000000
  0
ARC
  8
WORKLAYER
  6
CONTINUOUS
 62
     4
 10
-39.9999886
 20
140.3607025
 30
0.0
 40
10.0000000
 50
333.4349060
 51
0.0000000
  0
ARC
  8
WORKLAYER
  6
CONTINUOUS
 62
     4
 10
-30.0000000
 20
115.6392975
 30
0.0
 40
10.0000000
 50
153.4349060
 51
180.0000000
  0
LINE
  8
WORKLAYER
  6
CONTINUOUS
 62
     4
 10
-38.9442711
 20
120.1115036
 30
0.0
 11
-31.0557194
 21
135.8885040
 31
0.0
  0
ARC
  8
WORKLAYER
  6
CONTINUOUS
 62
     4
 10
39.9999886
 20
140.3607025
 30
0.0
 40
10.0000000
 50
180.0000000
 51
206.5650940
  0
ARC
  8
WORKLAYER
  6
CONTINUOUS
 62
     4
 10
30.0000000
 20
115.6392975
 30
0.0
 40
10.0000000
 50
0.0000000
 51
26.5650692
  0
LINE
  8
WORKLAYER
  6
CONTINUOUS
 62
     4
 10
38.9442711
 20
120.1115036
 30
0.0
 11
31.0557194
 21
135.8885040
 31
0.0
  0
LINE
  8
WORKLAYER
  6
CONTINUOUS
 62
     4
 10
-40.0000000
 20
105.0000000
 30
0.0
 11
-40.0000000
 21
115.6392975
 31
0.0
  0
ARC
  8
WORKLAYER
  6
CONTINUOUS
 62
     4
 10
-45.0000000
 20
105.0000000
 30
0.0
 40
5.0000000
 50
270.0000000
 51
0.0000000
  0
ARC
  8
WORKLAYER
  6
CONTINUOUS
 62
     4
 10
45.0000000
 20
96.5773773
 30
0.0
 40
5.0000000
 50
180.0000000
 51
240.5075989
  0
LINE
  8
WORKLAYER
  6
CONTINUOUS
 62
     4
 10
40.0000000
 20
96.5773773
 30
0.0
 11
40.0000000
 21
115.6392975
 31
0.0
  0
ARC
  8
WORKLAYER
  6
CONTINUOUS
 62
     4
 10
362.5408936
 20
140.3607025
 30
0.0
 40
10.0000000
 50
333.4349060
 51
0.0000000
  0
ARC
  8
WORKLAYER
  6
CONTINUOUS
 62
     4
 10
372.5408936
 20
115.6392975
 30
0.0
 40
10.0000000
 50
153.4349060
 51
180.0000000
  0
LINE
  8
WORKLAYER
  6
CONTINUOUS
 62
     4
 10
363.5965881
 20
120.1115036
 30
0.0
 11
371.4851990
 21
135.8885040
 31
0.0
  0
ARC
  8
WORKLAYER
  6
CONTINUOUS
 62
     4
 10
11.0000000
 20
133.0000000
 30
0.0
 40
5.0000000
 50
90.0000000
 51
180.0000000
  0
LINE
  8
WORKLAYER
  6
CONTINUOUS
 62
     4
 10
6.0000000
 20
104.9692001
 30
0.0
 11
6.0000000
 21
133.0000000
 31
0.0
  0
ARC
  8
WORKLAYER
  6
CONTINUOUS
 62
     4
 10
11.0000000
 20
104.9692001
 30
0.0
 40
5.0000000
 50
180.0000000
 51
271.7632141
  0
ARC
  8
WORKLAYER
  6
CONTINUOUS
 62
     4
 10
-11.0000000
 20
133.0000000
 30
0.0
 40
5.0000000
 50
0.0000000
 51
90.0000000
  0
ARC
  8
WORKLAYER
  6
CONTINUOUS
 62
     4
 10
-11.0000000
 20
105.0000000
 30
0.0
 40
5.0000000
 50
270.0000000
 51
0.0000000
  0
LINE
  8
WORKLAYER
  6
CONTINUOUS
 62
     4
 10
-6.0000000
 20
105.0000000
 30
0.0
 11
-6.0000000
 21
133.0000000
 31
0.0
  0
LINE
  8
WORKLAYER
  6
CONTINUOUS
 62
     4
 10
441.4851990
 20
120.1115036
 30
0.0
 11
433.5965881
 21
135.8885040
 31
0.0
  0
ARC
  8
WORKLAYER
  6
CONTINUOUS
 62
     4
 10
442.5408936
 20
140.3607025
 30
0.0
 40
10.0000000
 50
180.0000000
 51
206.5650940
  0
ARC
  8
WORKLAYER
  6
CONTINUOUS
 62
     4
 10
432.5408936
 20
115.6392975
 30
0.0
 40
10.0000000
 50
0.0000000
 51
26.5650692
  0
ARC
  8
WORKLAYER
  6
CONTINUOUS
 62
     4
 10
413.5408936
 20
133.0000000
 30
0.0
 40
5.0000000
 50
90.0000000
 51
180.0000000
  0
LINE
  8
WORKLAYER
  6
CONTINUOUS
 62
     4
 10
408.5408936
 20
133.0000000
 30
0.0
 11
408.5408936
 21
104.8283997
 31
0.0
  0
ARC
  8
WORKLAYER
  6
CONTINUOUS
 62
     4
 10
391.5408936
 20
133.0000000
 30
0.0
 40
5.0000000
 50
0.0000000
 51
90.0000000
  0
LINE
  8
WORKLAYER
  6
CONTINUOUS
 62
     4
 10
396.5408936
 20
133.0000000
 30
0.0
 11
396.5408936
 21
104.8283997
 31
0.0
  0
LINE
  8
WORKLAYER
  6
CONTINUOUS
 62
     4
 10
176.0000000
 20
-105.0000000
 30
0.0
 11
176.0000000
 21
105.0000000
 31
0.0
  0
LINE
  8
WORKLAYER
  6
CONTINUOUS
 62
     4
 10
-176.0000000
 20
-105.0000000
 30
0.0
 11
-176.0000000
 21
105.0000000
 31
0.0
  0
LINE
  8
WORKLAYER
  6
CONTINUOUS
 62
     4
 10
118.0000000
 20
-93.0000000
 30
0.0
 11
118.0000000
 21
-81.5812607
 31
0.0
  0
LINE
  8
WORKLAYER
  6
CONTINUOUS
 62
     4
 10
114.0000000
 20
-115.0000000
 30
0.0
 11
114.0000000
 21
-101.0000000
 31
0.0
  0
LINE
  8
WORKLAYER
  6
CONTINUOUS
 62
     4
 10
-73.0000229
 20
-120.0000000
 30
0.0
 11
-73.0000229
 21
-118.0000000
 31
0.0
  0
LINE
  8
WORKLAYER
  6
CONTINUOUS
 62
     4
 10
73.0000000
 20
-120.0000000
 30
0.0
 11
73.0000000
 21
-118.0000000
 31
0.0
  0
ARC
  8
WORKLAYER
  6
CONTINUOUS
 62
     4
 10
-61.6369781
 20
40.0000000
 30
0.0
 40
60.0000000
 50
90.0000000
 51
125.4785995
  0
ARC
  8
WORKLAYER
  6
CONTINUOUS
 62
     4
 10
157.0000000
 20
-50.0000000
 30
0.0
 40
110.0000000
 50
109.6233978
 51
128.1555939
  0
LINE
  8
WORKLAYER
  6
CONTINUOUS
 62
     4
 10
-96.4609375
 20
88.8598938
 30
0.0
 11
-135.2908936
 21
61.1846008
 31
0.0
  0
ARC
  8
WORKLAYER
  6
CONTINUOUS
 62
     4
 10
-149.0520020
 20
0.0000000
 30
0.0
 40
60.0000000
 50
290.1637878
 51
319.4464111
  0
LINE
  8
WORKLAYER
  6
CENTER
 62
     2
 10
0.0000000
 20
-268.7990112
 30
0.0
 11
0.0000000
 21
302.3951111
 31
0.0
  0
LINE
  8
WORKLAYER
  6
CONTINUOUS
 62
     4
 10
-78.0000229
 20
-83.2612305
 30
0.0
 11
-78.0000229
 21
-30.9050503
 31
0.0
  0
LINE
  8
WORKLAYER
  6
CONTINUOUS
 62
     4
 10
-61.6369781
 20
100.0000000
 30
0.0
 11
13.0000000
 21
100.0000000
 31
0.0
  0
LINE
  8
WORKLAYER
  6
CENTER
 62
     2
 10
-207.1651001
 20
0.0000000
 30
0.0
 11
195.1204071
 21
0.0000000
 31
0.0
  0
LINE
  8
WORKLAYER
  6
CONTINUOUS
 62
     4
 10
152.0000000
 20
-105.0000000
 30
0.0
 11
176.0000000
 21
-105.0000000
 31
0.0
  0
LINE
  8
WORKLAYER
  6
CONTINUOUS
 62
     4
 10
-176.0000000
 20
-105.0000000
 30
0.0
 11
-152.0000000
 21
-105.0000000
 31
0.0
  0
ARC
  8
WORKLAYER
  6
CONTINUOUS
 62
     4
 10
111.0000000
 20
-115.0000000
 30
0.0
 40
3.0000000
 50
270.0000000
 51
0.0000000
  0
LINE
  8
WORKLAYER
  6
CONTINUOUS
 62
     4
 10
0.0000000
 20
-118.0000000
 30
0.0
 11
111.0000000
 21
-118.0000000
 31
0.0
  0
ARC
  8
WORKLAYER
  6
CONTINUOUS
 62
     4
 10
113.0000000
 20
-93.0000000
 30
0.0
 40
5.0000000
 50
306.8699036
 51
0.0000000
  0
ARC
  8
WORKLAYER
  6
CONTINUOUS
 62
     4
 10
119.0000000
 20
-101.0000000
 30
0.0
 40
5.0000000
 50
126.8699036
 51
180.0000000
  0
LINE
  8
WORKLAYER
  6
CONTINUOUS
 62
     4
 10
-29.7376099
 20
-120.0000000
 30
0.0
 11
29.7376099
 21
-120.0000000
 31
0.0
  0
LINE
  8
WORKLAYER
  6
CONTINUOUS
 62
     4
 10
43.7376099
 20
-120.0000000
 30
0.0
 11
73.0000000
 21
-120.0000000
 31
0.0
  0
LINE
  8
WORKLAYER
  6
CONTINUOUS
 62
     4
 10
-73.0000229
 20
-120.0000000
 30
0.0
 11
-43.7376099
 21
-120.0000000
 31
0.0
  0
ARC
  8
WORKLAYER
  6
CONTINUOUS
 62
     4
 10
-111.0000000
 20
-115.0000000
 30
0.0
 40
3.0000000
 50
180.0000000
 51
270.0000000
  0
LINE
  8
WORKLAYER
  6
CONTINUOUS
 62
     4
 10
0.0000000
 20
-118.0000000
 30
0.0
 11
-111.0000000
 21
-118.0000000
 31
0.0
  0
ARC
  8
WORKLAYER
  6
CONTINUOUS
 62
     4
 10
-88.0000229
 20
-83.2612305
 30
0.0
 40
10.0000000
 50
280.0000000
 51
0.0000000
  0
LINE
  8
WORKLAYER
  6
CONTINUOUS
 62
     4
 10
-86.2635498
 20
-93.1093063
 30
0.0
 11
-111.5210037
 21
-97.5628815
 31
0.0
  0
LINE
  8
WORKLAYER
  6
CONTINUOUS
 62
     4
 10
-114.0000000
 20
-115.0000000
 30
0.0
 11
-114.0000000
 21
-100.5173035
 31
0.0
  0
ARC
  8
WORKLAYER
  6
CONTINUOUS
 62
     4
 10
-111.0000000
 20
-100.5173035
 30
0.0
 40
3.0000000
 50
100.0000000
 51
180.0000000
  0
ARC
  8
WORKLAYER
  6
CONTINUOUS
 62
     4
 10
-86.0000229
 20
-30.9050503
 30
0.0
 40
8.0000000
 50
0.0000000
 51
139.4463959
  0
LINE
  8
WORKLAYER
  6
CONTINUOUS
 62
     4
 10
-103.4641037
 20
-39.0095100
 30
0.0
 11
-92.0784073
 21
-25.7037907
 31
0.0
  0
ARC
  8
WORKLAYER
  6
CONTINUOUS
 62
     4
 10
128.0000000
 20
-81.5812607
 30
0.0
 40
10.0000000
 50
129.7917938
 51
180.0000000
  0
ARC
  8
WORKLAYER
  6
CONTINUOUS
 62
     4
 10
160.0000000
 20
-120.0000000
 30
0.0
 40
60.0000000
 50
106.3681030
 51
129.7917938
  0
ARC
  8
WORKLAYER
  6
CONTINUOUS
 62
     4
 10
143.9369049
 20
-65.3101501
 30
0.0
 40
3.0000000
 50
70.3765564
 51
106.3681030
  0
ARC
  8
WORKLAYER
  6
CONTINUOUS
 62
     4
 10
147.0000000
 20
-68.5255814
 30
0.0
 40
5.0000000
 50
0.0000000
 51
70.3765564
  0
LINE
  8
WORKLAYER
  6
CONTINUOUS
 62
     4
 10
148.6791992
 20
-63.8159790
 30
0.0
 11
144.9445038
 21
-62.4843903
 31
0.0
  0
LINE
  8
WORKLAYER
  6
CONTINUOUS
 62
     4
 10
148.6791992
 20
63.8159904
 30
0.0
 11
120.0578995
 21
53.6112099
 31
0.0
  0
ARC
  8
WORKLAYER
  6
CONTINUOUS
 62
     4
 10
147.0000000
 20
68.5255966
 30
0.0
 40
5.0000000
 50
289.6234131
 51
0.0000000
  0
LINE
  8
WORKLAYER
  6
CONTINUOUS
 62
     4
 10
152.0000000
 20
0.0000000
 30
0.0
 11
152.0000000
 21
105.0000000
 31
0.0
  0
LINE
  8
WORKLAYER
  6
CONTINUOUS
 62
     4
 10
152.0000000
 20
-105.0000000
 30
0.0
 11
152.0000000
 21
0.0000000
 31
0.0
  0
ARC
  8
WORKLAYER
  6
CONTINUOUS
 62
     4
 10
-138.1929016
 20
65.2563019
 30
0.0
 40
5.0000000
 50
249.8361969
 51
305.4786072
  0
ARC
  8
WORKLAYER
  6
CONTINUOUS
 62
     4
 10
-147.0000000
 20
68.4904022
 30
0.0
 40
5.0000000
 50
180.0000000
 51
249.8361969
  0
LINE
  8
WORKLAYER
  6
CONTINUOUS
 62
     4
 10
-148.7236023
 20
63.7967987
 30
0.0
 11
-139.9163971
 21
60.5626984
 31
0.0
  0
ARC
  8
WORKLAYER
  6
CONTINUOUS
 62
     4
 10
-147.0000000
 20
-68.4903870
 30
0.0
 40
5.0000000
 50
110.1638031
 51
180.0000000
  0
LINE
  8
WORKLAYER
  6
CONTINUOUS
 62
     4
 10
-148.7236023
 20
-63.7968407
 30
0.0
 11
-128.3697052
 21
-56.3226395
 31
0.0
  0
LINE
  8
WORKLAYER
  6
CONTINUOUS
 62
     4
 10
-152.0000000
 20
-105.0000000
 30
0.0
 11
-152.0000000
 21
0.0000000
 31
0.0
  0
LINE
  8
WORKLAYER
  6
CONTINUOUS
 62
     4
 10
-152.0000000
 20
0.0000000
 30
0.0
 11
-152.0000000
 21
105.0000000
 31
0.0
  0
ARC
  8
WORKLAYER
  6
CONTINUOUS
 62
     4
 10
-25.0000000
 20
105.0000000
 30
0.0
 40
5.0000000
 50
270.0000000
 51
0.0000000
  0
ARC
  8
WORKLAYER
  6
CONTINUOUS
 62
     4
 10
-25.0000000
 20
133.0000000
 30
0.0
 40
5.0000000
 50
0.0000000
 51
90.0000000
  0
LINE
  8
WORKLAYER
  6
CONTINUOUS
 62
     4
 10
-20.0000000
 20
105.0000000
 30
0.0
 11
-20.0000000
 21
133.0000000
 31
0.0
  0
ARC
  8
WORKLAYER
  6
CONTINUOUS
 62
     4
 10
-25.0000000
 20
143.0000000
 30
0.0
 40
5.0000000
 50
180.0000000
 51
270.0000000
  0
LINE
  8
WORKLAYER
  6
CONTINUOUS
 62
     4
 10
-25.0000000
 20
138.0000000
 30
0.0
 11
-23.8000908
 21
138.0000000
 31
0.0
  0
LINE
  8
WORKLAYER
  6
CONTINUOUS
 62
     4
 10
25.0000000
 20
138.0000000
 30
0.0
 11
23.7999992
 21
138.0000000
 31
0.0
  0
ARC
  8
WORKLAYER
  6
CONTINUOUS
 62
     4
 10
25.0000000
 20
143.0000000
 30
0.0
 40
5.0000000
 50
270.0000000
 51
0.0000000
  0
ARC
  8
WORKLAYER
  6
CONTINUOUS
 62
     4
 10
82.8639984
 20
44.3603096
 30
0.0
 40
10.0000000
 50
183.5713043
 51
308.1556091
  0
ARC
  8
WORKLAYER
  6
CONTINUOUS
 62
     4
 10
13.0000000
 20
40.0000000
 30
0.0
 40
60.0000000
 50
3.5712540
 51
91.7632217
  0
ARC
  8
WORKLAYER
  6
CONTINUOUS
 62
     4
 10
25.0000000
 20
133.0000000
 30
0.0
 40
5.0000000
 50
90.0000000
 51
180.0000000
  0
ARC
  8
WORKLAYER
  6
CONTINUOUS
 62
     4
 10
30.0000000
 20
107.9042969
 30
0.0
 40
10.0000000
 50
180.0000000
 51
255.9447937
  0
LINE
  8
WORKLAYER
  6
CONTINUOUS
 62
     4
 10
20.0000000
 20
107.9042969
 30
0.0
 11
20.0000000
 21
133.0000000
 31
0.0
  0
LINE
  8
WORKLAYER
  6
CONTINUOUS
 62
     4
 10
152.0000000
 20
105.0000000
 30
0.0
 11
176.0000000
 21
105.0000000
 31
0.0
  0
LINE
  8
WORKLAYER
  6
CONTINUOUS
 62
     4
 10
-176.0000000
 20
105.0000000
 30
0.0
 11
-152.0000000
 21
105.0000000
 31
0.0
  0
LINE
  8
WORKLAYER
  6
CONTINUOUS
 62
     4
 10
-5.0000000
 20
264.6914978
 30
0.0
 11
-5.0000000
 21
211.5000000
 31
0.0
  0
LINE
  8
WORKLAYER
  6
CONTINUOUS
 62
     2
 10
-4.0000000
 20
260.7640991
 30
0.0
 11
-5.0000000
 21
259.0321045
 31
0.0
  0
LINE
  8
WORKLAYER
  6
CONTINUOUS
 62
     4
 10
5.0000000
 20
211.5000000
 30
0.0
 11
5.0000000
 21
264.6914978
 31
0.0
  0
LINE
  8
WORKLAYER
  6
CONTINUOUS
 62
     2
 10
4.0000000
 20
260.7640991
 30
0.0
 11
5.0000000
 21
259.0321045
 31
0.0
  0
LINE
  8
WORKLAYER
  6
CONTINUOUS
 62
     2
 10
4.0000000
 20
260.7640991
 30
0.0
 11
-4.0000000
 21
260.7640991
 31
0.0
  0
LINE
  8
WORKLAYER
  6
CONTINUOUS
 62
     2
 10
-4.0000000
 20
264.6914978
 30
0.0
 11
-4.0000000
 21
260.7640991
 31
0.0
  0
LINE
  8
WORKLAYER
  6
CONTINUOUS
 62
     2
 10
4.0000000
 20
260.7640991
 30
0.0
 11
4.0000000
 21
264.6914978
 31
0.0
  0
LINE
  8
WORKLAYER
  6
CONTINUOUS
 62
     4
 10
-71.0000229
 20
-121.0000000
 30
0.0
 11
-63.2500191
 21
-121.0000000
 31
0.0
  0
LINE
  8
WORKLAYER
  6
CONTINUOUS
 62
     4
 10
63.2500000
 20
-121.0000000
 30
0.0
 11
71.0000000
 21
-121.0000000
 31
0.0
  0
LINE
  8
WORKLAYER
  6
CONTINUOUS
 62
     4
 10
71.0000000
 20
-121.0000000
 30
0.0
 11
71.0000000
 21
-120.0000000
 31
0.0
  0
LINE
  8
WORKLAYER
  6
CONTINUOUS
 62
     4
 10
71.0000000
 20
-120.0000000
 30
0.0
 11
63.2500000
 21
-120.0000000
 31
0.0
  0
LINE
  8
WORKLAYER
  6
CONTINUOUS
 62
     4
 10
-63.2500191
 20
-120.0000000
 30
0.0
 11
-71.0000229
 21
-120.0000000
 31
0.0
  0
LINE
  8
WORKLAYER
  6
CONTINUOUS
 62
     4
 10
-71.0000229
 20
-120.0000000
 30
0.0
 11
-71.0000229
 21
-121.0000000
 31
0.0
  0
ARC
  8
WORKLAYER
  6
CONTINUOUS
 62
     4
 10
112.0000000
 20
-125.0000000
 30
0.0
 40
2.0000000
 50
0.0000000
 51
90.0000000
  0
LINE
  8
WORKLAYER
  6
CONTINUOUS
 62
     4
 10
-73.0000229
 20
-121.0000000
 30
0.0
 11
-43.7376099
 21
-121.0000000
 31
0.0
  0
LINE
  8
WORKLAYER
  6
CONTINUOUS
 62
     4
 10
-29.7376099
 20
-121.0000000
 30
0.0
 11
0.0000000
 21
-121.0000000
 31
0.0
  0
LINE
  8
WORKLAYER
  6
CONTINUOUS
 62
     4
 10
-112.0000000
 20
-123.0000000
 30
0.0
 11
0.0000000
 21
-123.0000000
 31
0.0
  0
ARC
  8
WORKLAYER
  6
CONTINUOUS
 62
     4
 10
-112.0000000
 20
-125.0000000
 30
0.0
 40
2.0000000
 50
90.0000000
 51
180.0000000
  0
LINE
  8
WORKLAYER
  6
CONTINUOUS
 62
     4
 10
-112.0000000
 20
-147.0000000
 30
0.0
 11
0.0000000
 21
-147.0000000
 31
0.0
  0
ARC
  8
WORKLAYER
  6
CONTINUOUS
 62
     4
 10
-73.4300766
 20
-152.0000000
 30
0.0
 40
5.0000000
 50
21.0955696
 51
90.0000000
  0
ARC
  8
WORKLAYER
  6
CONTINUOUS
 62
     4
 10
-75.0000229
 20
-121.0000000
 30
0.0
 40
2.0000000
 50
270.0000000
 51
0.0000000
  0
LINE
  8
WORKLAYER
  6
CONTINUOUS
 62
     4
 10
-114.0000000
 20
-125.0000000
 30
0.0
 11
-114.0000000
 21
-145.0000000
 31
0.0
  0
ARC
  8
WORKLAYER
  6
CONTINUOUS
 62
     4
 10
-112.0000000
 20
-145.0000000
 30
0.0
 40
2.0000000
 50
180.0000000
 51
270.0000000
  0
LINE
  8
WORKLAYER
  6
CONTINUOUS
 62
     4
 10
-62.2840881
 20
-167.0000000
 30
0.0
 11
-60.7229691
 21
-204.7212982
 31
0.0
  0
LINE
  8
WORKLAYER
  6
CONTINUOUS
 62
     4
 10
68.7649994
 20
-150.2003937
 30
0.0
 11
62.2839088
 21
-167.0000000
 31
0.0
  0
LINE
  8
WORKLAYER
  6
CONTINUOUS
 62
     4
 10
73.0000000
 20
-121.0000000
 30
0.0
 11
43.7376099
 21
-121.0000000
 31
0.0
  0
LINE
  8
WORKLAYER
  6
CONTINUOUS
 62
     4
 10
29.7376099
 20
-121.0000000
 30
0.0
 11
0.0000000
 21
-121.0000000
 31
0.0
  0
LINE
  8
WORKLAYER
  6
CONTINUOUS
 62
     4
 10
112.0000000
 20
-123.0000000
 30
0.0
 11
0.0000000
 21
-123.0000000
 31
0.0
  0
LINE
  8
WORKLAYER
  6
CONTINUOUS
 62
     4
 10
-68.7650528
 20
-150.2003937
 30
0.0
 11
-62.2840881
 21
-167.0000000
 31
0.0
  0
LINE
  8
WORKLAYER
  6
CONTINUOUS
 62
     4
 10
112.0000000
 20
-147.0000000
 30
0.0
 11
0.0000000
 21
-147.0000000
 31
0.0
  0
ARC
  8
WORKLAYER
  6
CONTINUOUS
 62
     4
 10
73.4300079
 20
-152.0000000
 30
0.0
 40
5.0000000
 50
90.0000000
 51
158.9044037
  0
ARC
  8
WORKLAYER
  6
CONTINUOUS
 62
     4
 10
75.0000000
 20
-121.0000000
 30
0.0
 40
2.0000000
 50
180.0000000
 51
270.0000000
  0
LINE
  8
WORKLAYER
  6
CONTINUOUS
 62
     4
 10
114.0000000
 20
-125.0000000
 30
0.0
 11
114.0000000
 21
-145.0000000
 31
0.0
  0
ARC
  8
WORKLAYER
  6
CONTINUOUS
 62
     4
 10
112.0000000
 20
-145.0000000
 30
0.0
 40
2.0000000
 50
270.0000000
 51
0.0000000
  0
LINE
  8
WORKLAYER
  6
CONTINUOUS
 62
     4
 10
62.2839088
 20
-167.0000000
 30
0.0
 11
60.6700516
 21
-206.0000000
 31
0.0
  0
LINE
  8
WORKLAYER
  6
CONTINUOUS
 62
     4
 10
0.0000000
 20
211.5000000
 30
0.0
 11
11.5000000
 21
211.5000000
 31
0.0
  0
LINE
  8
WORKLAYER
  6
CONTINUOUS
 62
     4
 10
-12.0000000
 20
206.5000000
 30
0.0
 11
0.0000000
 21
206.5000000
 31
0.0
  0
LINE
  8
WORKLAYER
  6
CONTINUOUS
 62
     4
 10
0.0000000
 20
206.5000000
 30
0.0
 11
12.0000000
 21
206.5000000
 31
0.0
  0
LINE
  8
WORKLAYER
  6
CONTINUOUS
 62
     4
 10
-12.0000000
 20
206.5000000
 30
0.0
 11
-13.0000000
 21
205.5000000
 31
0.0
  0
LINE
  8
WORKLAYER
  6
CONTINUOUS
 62
     4
 10
-13.0000000
 20
205.5000000
 30
0.0
 11
-13.0000000
 21
202.0000000
 31
0.0
  0
LINE
  8
WORKLAYER
  6
CONTINUOUS
 62
     4
 10
13.0000000
 20
205.5000000
 30
0.0
 11
13.0000000
 21
202.0000000
 31
0.0
  0
LINE
  8
WORKLAYER
  6
CONTINUOUS
 62
     4
 10
13.0000000
 20
205.5000000
 30
0.0
 11
12.0000000
 21
206.5000000
 31
0.0
  0
LINE
  8
WORKLAYER
  6
CONTINUOUS
 62
     4
 10
-11.5000000
 20
211.5000000
 30
0.0
 11
0.0000000
 21
211.5000000
 31
0.0
  0
LINE
  8
WORKLAYER
  6
CONTINUOUS
 62
     2
 10
-12.1879997
 20
206.5000000
 30
0.0
 11
-12.1879997
 21
202.0000000
 31
0.0
  0
LINE
  8
WORKLAYER
  6
CONTINUOUS
 62
     2
 10
12.1879997
 20
206.5000000
 30
0.0
 11
12.1879997
 21
202.0000000
 31
0.0
  0
LINE
  8
WORKLAYER
  6
CONTINUOUS
 62
     4
 10
11.5000000
 20
211.5000000
 30
0.0
 11
11.5000000
 21
206.5000000
 31
0.0
  0
LINE
  8
WORKLAYER
  6
CONTINUOUS
 62
     4
 10
-11.5000000
 20
211.5000000
 30
0.0
 11
-11.5000000
 21
206.5000000
 31
0.0
  0
LINE
  8
WORKLAYER
  6
CONTINUOUS
 62
     4
 10
0.0000000
 20
200.0000000
 30
0.0
 11
17.0000000
 21
200.0000000
 31
0.0
  0
LINE
  8
WORKLAYER
  6
CONTINUOUS
 62
     4
 10
17.0000000
 20
200.0000000
 30
0.0
 11
17.0000000
 21
202.0000000
 31
0.0
  0
LINE
  8
WORKLAYER
  6
CONTINUOUS
 62
     4
 10
17.0000000
 20
202.0000000
 30
0.0
 11
0.0000000
 21
202.0000000
 31
0.0
  0
LINE
  8
WORKLAYER
  6
CONTINUOUS
 62
     4
 10
0.0000000
 20
202.0000000
 30
0.0
 11
-17.0000000
 21
202.0000000
 31
0.0
  0
LINE
  8
WORKLAYER
  6
CONTINUOUS
 62
     4
 10
-17.0000000
 20
202.0000000
 30
0.0
 11
-17.0000000
 21
200.0000000
 31
0.0
  0
LINE
  8
WORKLAYER
  6
CONTINUOUS
 62
     4
 10
-17.0000000
 20
200.0000000
 30
0.0
 11
0.0000000
 21
200.0000000
 31
0.0
  0
LINE
  8
WORKLAYER
  6
CONTINUOUS
 62
     4
 10
-22.8000908
 20
200.0000000
 30
0.0
 11
-12.1879997
 21
200.0000000
 31
0.0
  0
LINE
  8
WORKLAYER
  6
CONTINUOUS
 62
     4
 10
-22.8000908
 20
200.0000000
 30
0.0
 11
-23.8000908
 21
199.0000000
 31
0.0
  0
LINE
  8
WORKLAYER
  6
CONTINUOUS
 62
     4
 10
30.0000000
 20
168.0000000
 30
0.0
 11
0.0000000
 21
168.0000000
 31
0.0
  0
LINE
  8
WORKLAYER
  6
CONTINUOUS
 62
     4
 10
23.7999992
 20
199.0000000
 30
0.0
 11
23.7999992
 21
168.0000000
 31
0.0
  0
LINE
  8
WORKLAYER
  6
CONTINUOUS
 62
     4
 10
-29.9999905
 20
168.0000000
 30
0.0
 11
0.0000000
 21
168.0000000
 31
0.0
  0
LINE
  8
WORKLAYER
  6
CONTINUOUS
 62
     4
 10
30.0000000
 20
168.0000000
 30
0.0
 11
30.0000000
 21
140.3607025
 31
0.0
  0
LINE
  8
WORKLAYER
  6
CONTINUOUS
 62
     4
 10
22.7999992
 20
200.0000000
 30
0.0
 11
12.1879997
 21
200.0000000
 31
0.0
  0
LINE
  8
WORKLAYER
  6
CONTINUOUS
 62
     4
 10
22.7999992
 20
200.0000000
 30
0.0
 11
23.7999992
 21
199.0000000
 31
0.0
  0
LINE
  8
WORKLAYER
  6
CONTINUOUS
 62
     4
 10
-23.8000908
 20
199.0000000
 30
0.0
 11
-23.8000908
 21
168.0000000
 31
0.0
  0
LINE
  8
WORKLAYER
  6
CONTINUOUS
 62
     4
 10
-29.9999905
 20
168.0000000
 30
0.0
 11
-29.9999905
 21
140.3607025
 31
0.0
  0
LINE
  8
WORKLAYER
  6
CONTINUOUS
 62
     4
 10
9.8000031
 20
291.2316895
 30
0.0
 11
4.3500209
 21
294.3782959
 31
0.0
  0
LINE
  8
WORKLAYER
  6
CONTINUOUS
 62
     4
 10
3.5500031
 20
300.6783142
 30
0.0
 11
-3.5500031
 21
300.6783142
 31
0.0
  0
LINE
  8
WORKLAYER
  6
CONTINUOUS
 62
     4
 10
-9.8000031
 20
291.2316895
 30
0.0
 11
-9.8000031
 21
270.6781921
 31
0.0
  0
ARC
  8
WORKLAYER
  6
CONTINUOUS
 62
     4
 10
0.0000150
 20
285.0770874
 30
0.0
 40
16.0000000
 50
102.8191986
 51
115.9445038
  0
LINE
  8
WORKLAYER
  6
CONTINUOUS
 62
     4
 10
-9.8000031
 20
291.2316895
 30
0.0
 11
-4.3499908
 21
294.3782959
 31
0.0
  0
ARC
  8
WORKLAYER
  6
CONTINUOUS
 62
     4
 10
0.0000150
 20
312.9794922
 30
0.0
 40
16.0000000
 50
244.0554962
 51
254.2241058
  0
LINE
  8
WORKLAYER
  6
CONTINUOUS
 62
     4
 10
-6.9999852
 20
299.4645081
 30
0.0
 11
-6.9999852
 21
298.5920105
 31
0.0
  0
LINE
  8
WORKLAYER
  6
CONTINUOUS
 62
     4
 10
-4.3499908
 20
297.5822144
 30
0.0
 11
-4.3499908
 21
294.3782959
 31
0.0
  0
ARC
  8
WORKLAYER
  6
CONTINUOUS
 62
     4
 10
0.0000150
 20
285.0770874
 30
0.0
 40
16.0000000
 50
64.0555191
 51
77.1808167
  0
LINE
  8
WORKLAYER
  6
CONTINUOUS
 62
     4
 10
-9.8000031
 20
270.6781921
 30
0.0
 11
9.8000031
 21
270.6781921
 31
0.0
  0
ARC
  8
WORKLAYER
  6
CONTINUOUS
 62
     4
 10
0.0000150
 20
312.9794922
 30
0.0
 40
16.0000000
 50
285.7759094
 51
295.9444885
  0
LINE
  8
WORKLAYER
  6
CONTINUOUS
 62
     4
 10
7.0000148
 20
299.4645081
 30
0.0
 11
7.0000148
 21
298.5920105
 31
0.0
  0
LINE
  8
WORKLAYER
  6
CONTINUOUS
 62
     4
 10
4.3500209
 20
297.5822144
 30
0.0
 11
4.3500209
 21
294.3782959
 31
0.0
  0
LINE
  8
WORKLAYER
  6
CONTINUOUS
 62
     4
 10
9.8000031
 20
291.2316895
 30
0.0
 11
9.8000031
 21
270.6781921
 31
0.0
  0
LINE
  8
WORKLAYER
  6
CONTINUOUS
 62
     4
 10
-4.3499908
 20
294.3782959
 30
0.0
 11
4.3500209
 21
294.3782959
 31
0.0
  0
LINE
  8
WORKLAYER
  6
CONTINUOUS
 62
     4
 10
-4.3499908
 20
297.5822144
 30
0.0
 11
4.3500209
 21
297.5822144
 31
0.0
  0
LINE
  8
WORKLAYER
  6
CONTINUOUS
 62
     3
 10
-6.9999852
 20
299.4645081
 30
0.0
 11
7.0000148
 21
299.4645081
 31
0.0
  0
LINE
  8
WORKLAYER
  6
CONTINUOUS
 62
     3
 10
7.0000148
 20
298.5920105
 30
0.0
 11
-6.9999852
 21
298.5920105
 31
0.0
  0
ARC
  8
WORKLAYER
  6
CONTINUOUS
 62
     4
 10
0.0000150
 20
281.9227905
 30
0.0
 40
10.5197802
 50
62.2386894
 51
117.7612991
  0
LINE
  8
WORKLAYER
  6
CONTINUOUS
 62
     4
 10
-4.8999791
 20
291.2316895
 30
0.0
 11
-4.8999791
 21
270.6781921
 31
0.0
  0
LINE
  8
WORKLAYER
  6
CONTINUOUS
 62
     4
 10
4.9000092
 20
291.2316895
 30
0.0
 11
4.9000092
 21
270.6781921
 31
0.0
  0
ARC
  8
WORKLAYER
  6
CONTINUOUS
 62
     4
 10
-7.3499908
 20
286.9881897
 30
0.0
 40
4.9000049
 50
60.0000000
 51
120.0000000
  0
ARC
  8
WORKLAYER
  6
CONTINUOUS
 62
     4
 10
7.3500209
 20
286.9881897
 30
0.0
 40
4.9000049
 50
60.0000000
 51
120.0000000
  0
ARC
  8
SSYMB
  6
CONTINUOUS
 62
     4
 10
-5.9931259
 20
-107.6664963
 30
0.0
 40
10.2455101
 50
0.0000000
 51
16.2983608
  0
ARC
  8
SSYMB
  6
CONTINUOUS
 62
     4
 10
-0.0695420
 20
-105.8799973
 30
0.0
 40
3.8677950
 50
126.5609970
 51
149.5883942
  0
ARC
  8
SSYMB
  6
CONTINUOUS
 62
     4
 10
2.0721509
 20
-107.1159973
 30
0.0
 40
6.3404799
 50
149.7525940
 51
166.5511932
  0
ARC
  8
SSYMB
  6
CONTINUOUS
 62
     4
 10
4.2799759
 20
-107.6695023
 30
0.0
 40
8.6166162
 50
166.3869934
 51
180.0000000
  0
ARC
  8
SSYMB
  6
CONTINUOUS
 62
     4
 10
4.2799759
 20
-107.6695023
 30
0.0
 40
8.6166162
 50
180.0000000
 51
193.6130066
  0
ARC
  8
SSYMB
  6
CONTINUOUS
 62
     4
 10
2.0721509
 20
-108.2228012
 30
0.0
 40
6.3404799
 50
193.4488068
 51
210.2474060
  0
ARC
  8
SSYMB
  6
CONTINUOUS
 62
     4
 10
-0.0695420
 20
-109.4589005
 30
0.0
 40
3.8677919
 50
210.4116058
 51
233.4389954
  0
ARC
  8
SSYMB
  6
CONTINUOUS
 62
     4
 10
-1.1565480
 20
-110.9317017
 30
0.0
 40
2.0372560
 50
233.3208008
 51
270.0002136
  0
ARC
  8
SSYMB
  6
CONTINUOUS
 62
     4
 10
-1.1565480
 20
-110.9317017
 30
0.0
 40
2.0372579
 50
269.9997864
 51
306.6791992
  0
ARC
  8
SSYMB
  6
CONTINUOUS
 62
     4
 10
-2.2435529
 20
-109.4589005
 30
0.0
 40
3.8677931
 50
306.5610046
 51
329.5884094
  0
ARC
  8
SSYMB
  6
CONTINUOUS
 62
     4
 10
-4.3851242
 20
-108.2228012
 30
0.0
 40
6.3404822
 50
329.7525024
 51
346.5512085
  0
ARC
  8
SSYMB
  6
CONTINUOUS
 62
     4
 10
-6.5932541
 20
-107.6695023
 30
0.0
 40
8.6166162
 50
346.3869934
 51
0.0000000
  0
ARC
  8
SSYMB
  6
CONTINUOUS
 62
     4
 10
-6.5932541
 20
-107.6695023
 30
0.0
 40
8.6166162
 50
0.0000045
 51
13.6130104
  0
ARC
  8
SSYMB
  6
CONTINUOUS
 62
     4
 10
-4.3851242
 20
-107.1159973
 30
0.0
 40
6.3404822
 50
13.4487801
 51
30.2474308
  0
ARC
  8
SSYMB
  6
CONTINUOUS
 62
     4
 10
-2.2532279
 20
-105.8889008
 30
0.0
 40
3.8805931
 50
30.4500809
 51
53.4005089
  0
ARC
  8
SSYMB
  6
CONTINUOUS
 62
     4
 10
-1.1565480
 20
-104.4073029
 30
0.0
 40
2.0372560
 50
53.3207703
 51
90.0002365
  0
ARC
  8
SSYMB
  6
CONTINUOUS
 62
     4
 10
-1.1499259
 20
-104.2083969
 30
0.0
 40
4.0554438
 50
90.0925827
 51
120.7987976
  0
ARC
  8
SSYMB
  6
CONTINUOUS
 62
     4
 10
-0.1922531
 20
-105.7537003
 30
0.0
 40
5.8734021
 50
121.1056976
 51
144.6260986
  0
ARC
  8
SSYMB
  6
CONTINUOUS
 62
     4
 10
1.6862561
 20
-107.0615005
 30
0.0
 40
8.1621485
 50
144.7734985
 51
163.8491058
  0
ARC
  8
SSYMB
  6
CONTINUOUS
 62
     4
 10
3.6800611
 20
-107.6664963
 30
0.0
 40
10.2455101
 50
163.7015991
 51
180.0000000
  0
ARC
  8
SSYMB
  6
CONTINUOUS
 62
     4
 10
3.6798470
 20
-107.6664963
 30
0.0
 40
10.2454700
 50
180.0000000
 51
196.2984009
  0
ARC
  8
SSYMB
  6
CONTINUOUS
 62
     4
 10
1.6862561
 20
-108.2713013
 30
0.0
 40
8.1621780
 50
196.1508026
 51
215.2263031
  0
ARC
  8
SSYMB
  6
CONTINUOUS
 62
     4
 10
-0.1922531
 20
-109.5792007
 30
0.0
 40
5.8734021
 50
215.3739014
 51
238.8943024
  0
ARC
  8
SSYMB
  6
CONTINUOUS
 62
     4
 10
-1.1565480
 20
-111.1481018
 30
0.0
 40
4.0317340
 50
239.1087036
 51
269.9999084
  0
ARC
  8
SSYMB
  6
CONTINUOUS
 62
     4
 10
-1.1565480
 20
-111.1481018
 30
0.0
 40
4.0317359
 50
270.0000916
 51
300.8912964
  0
ARC
  8
SSYMB
  6
CONTINUOUS
 62
     4
 10
-2.1210260
 20
-109.5792007
 30
0.0
 40
5.8734050
 50
301.1057129
 51
324.6260071
  0
ARC
  8
SSYMB
  6
CONTINUOUS
 62
     4
 10
-3.9993520
 20
-108.2713013
 30
0.0
 40
8.1621494
 50
324.7734985
 51
343.8490906
  0
ARC
  8
SSYMB
  6
CONTINUOUS
 62
     4
 10
-5.9931259
 20
-107.6664963
 30
0.0
 40
10.2455101
 50
343.7015991
 51
0.0000000
  0
ARC
  8
SSYMB
  6
CONTINUOUS
 62
     4
 10
-1.1510550
 20
-104.4237976
 30
0.0
 40
2.0539441
 50
90.1540298
 51
126.5250015
  0
ARC
  8
SSYMB
  6
CONTINUOUS
 62
     4
 10
-3.9993520
 20
-107.0615005
 30
0.0
 40
8.1621485
 50
16.1509209
 51
35.2264786
  0
ARC
  8
SSYMB
  6
CONTINUOUS
 62
     4
 10
-2.1349411
 20
-105.7688980
 30
0.0
 40
5.8936749
 50
35.4149895
 51
58.8532600
  0
ARC
  8
SSYMB
  6
CONTINUOUS
 62
     4
 10
-1.1565480
 20
-104.1847000
 30
0.0
 40
4.0317340
 50
59.1087112
 51
89.9999466
  0
LINE
  8
SSYMB
  6
CONTINUOUS
 62
     4
 10
13.9756498
 20
-107.8870010
 30
0.0
 11
11.7181396
 21
-110.1445007
 31
0.0
  0
LINE
  8
SSYMB
  6
CONTINUOUS
 62
     4
 10
18.5131607
 20
-100.1664963
 30
0.0
 11
21.6959591
 21
-100.1664963
 31
0.0
  0
LINE
  8
SSYMB
  6
CONTINUOUS
 62
     4
 10
21.6959591
 20
-100.1664963
 30
0.0
 11
15.5911598
 21
-106.2714996
 31
0.0
  0
LINE
  8
SSYMB
  6
CONTINUOUS
 62
     4
 10
15.5911598
 20
-106.2714996
 30
0.0
 11
21.8191605
 21
-115.1664963
 31
0.0
  0
LINE
  8
SSYMB
  6
CONTINUOUS
 62
     4
 10
21.8191605
 20
-115.1664963
 30
0.0
 11
19.0725403
 21
-115.1664963
 31
0.0
  0
LINE
  8
SSYMB
  6
CONTINUOUS
 62
     4
 10
19.0725403
 20
-115.1664963
 30
0.0
 11
13.9756498
 21
-107.8870010
 31
0.0
  0
LINE
  8
SSYMB
  6
CONTINUOUS
 62
     4
 10
11.7181396
 20
-106.9613037
 30
0.0
 11
18.5131607
 21
-100.1664963
 31
0.0
  0
LINE
  8
SSYMB
  6
CONTINUOUS
 62
     4
 10
11.7181396
 20
-110.1445007
 30
0.0
 11
11.7181396
 21
-115.1664963
 31
0.0
  0
LINE
  8
SSYMB
  6
CONTINUOUS
 62
     4
 10
11.7181396
 20
-115.1664963
 30
0.0
 11
9.4681444
 21
-115.1664963
 31
0.0
  0
LINE
  8
SSYMB
  6
CONTINUOUS
 62
     4
 10
9.4681444
 20
-115.1664963
 30
0.0
 11
9.4681444
 21
-100.1664963
 31
0.0
  0
LINE
  8
SSYMB
  6
CONTINUOUS
 62
     4
 10
9.4681444
 20
-100.1664963
 30
0.0
 11
11.7181396
 21
-100.1664963
 31
0.0
  0
LINE
  8
SSYMB
  6
CONTINUOUS
 62
     4
 10
11.7181396
 20
-100.1664963
 30
0.0
 11
11.7181396
 21
-106.9613037
 31
0.0
  0
LINE
  8
SSYMB
  6
CONTINUOUS
 62
     4
 10
-13.6465397
 20
-100.1664963
 30
0.0
 11
-11.7807598
 21
-100.1664963
 31
0.0
  0
LINE
  8
SSYMB
  6
CONTINUOUS
 62
     4
 10
-11.7807598
 20
-100.1664963
 30
0.0
 11
-11.7807598
 21
-115.1664963
 31
0.0
  0
LINE
  8
SSYMB
  6
CONTINUOUS
 62
     4
 10
-11.7807598
 20
-115.1664963
 30
0.0
 11
-14.0307598
 21
-115.1664963
 31
0.0
  0
LINE
  8
SSYMB
  6
CONTINUOUS
 62
     4
 10
-14.0307598
 20
-115.1664963
 30
0.0
 11
-14.0307598
 21
-104.6664963
 31
0.0
  0
LINE
  8
SSYMB
  6
CONTINUOUS
 62
     4
 10
-14.0307598
 20
-104.6664963
 30
0.0
 11
-17.1807499
 21
-104.6664963
 31
0.0
  0
LINE
  8
SSYMB
  6
CONTINUOUS
 62
     4
 10
-17.1807499
 20
-104.6664963
 30
0.0
 11
-17.1807499
 21
-103.7004013
 31
0.0
  0
ARC
  8
SSYMB
  6
CONTINUOUS
 62
     4
 10
-17.1807499
 20
-100.1664963
 30
0.0
 40
3.5339999
 50
270.0000000
 51
0.0000000
  0
LINE
  8
0
  6
CONTINUOUS
 62
     4
 10
-8.4930420
 20
264.6914978
 30
0.0
 11
8.4929199
 21
264.6914978
 31
0.0
  0
LINE
  8
0
  6
CONTINUOUS
 62
     4
 10
-8.4930420
 20
270.6783142
 30
0.0
 11
8.4929199
 21
270.6783142
 31
0.0
  0
LINE
  8
0
  6
CONTINUOUS
 62
     4
 10
9.8070068
 20
269.9195862
 30
0.0
 11
9.8070068
 21
265.4501953
 31
0.0
  0
LINE
  8
0
  6
CONTINUOUS
 62
     4
 10
-9.8079834
 20
269.9195862
 30
0.0
 11
-9.8079834
 21
265.4501953
 31
0.0
  0
LINE
  8
0
  6
CONTINUOUS
 62
     4
 10
8.4929199
 20
270.6783142
 30
0.0
 11
9.8070068
 21
269.9195862
 31
0.0
  0
LINE
  8
0
  6
CONTINUOUS
 62
     4
 10
-8.4940186
 20
270.6783142
 30
0.0
 11
-9.8079834
 21
269.9195862
 31
0.0
  0
ARC
  8
0
  6
CONTINUOUS
 62
     4
 10
0.0000000
 20
255.9673004
 30
0.0
 40
14.7108898
 50
70.5288086
 51
109.4711990
  0
LINE
  8
0
  6
CONTINUOUS
 62
     4
 10
-4.9040532
 20
269.8369141
 30
0.0
 11
-4.9040532
 21
265.5331116
 31
0.0
  0
LINE
  8
0
  6
CONTINUOUS
 62
     4
 10
4.9029541
 20
269.8369141
 30
0.0
 11
4.9029541
 21
265.5329895
 31
0.0
  0
ARC
  8
0
  6
CONTINUOUS
 62
     4
 10
-8.4930420
 20
262.5994873
 30
0.0
 40
8.0787697
 50
63.6189919
 51
90.0000000
  0
ARC
  8
0
  6
CONTINUOUS
 62
     4
 10
8.4929199
 20
262.5994873
 30
0.0
 40
8.0787697
 50
90.0000000
 51
116.3809967
  0
LINE
  8
0
  6
CONTINUOUS
 62
     4
 10
8.4929199
 20
264.6914978
 30
0.0
 11
9.8070068
 21
265.4501953
 31
0.0
  0
LINE
  8
0
  6
CONTINUOUS
 62
     4
 10
-8.4930420
 20
270.6783142
 30
0.0
 11
8.4929199
 21
270.6783142
 31
0.0
  0
LINE
  8
0
  6
CONTINUOUS
 62
     4
 10
-8.4940186
 20
264.6914978
 30
0.0
 11
-9.8079834
 21
265.4501953
 31
0.0
  0
ARC
  8
0
  6
CONTINUOUS
 62
     4
 10
0.0000000
 20
279.4024963
 30
0.0
 40
14.7108898
 50
250.5287933
 51
289.4711914
  0
ARC
  8
0
  6
CONTINUOUS
 62
     4
 10
-8.4930420
 20
272.7702942
 30
0.0
 40
8.0787697
 50
270.0000000
 51
296.3810120
  0
ARC
  8
0
  6
CONTINUOUS
 62
     4
 10
8.4929199
 20
272.7702942
 30
0.0
 40
8.0787697
 50
243.6190033
 51
270.0000000
  0
LINE
  8
WORKLAYER
  6
CONTINUOUS
 62
     4
 10
28.0000000
 20
-58.8386002
 30
0.0
 11
35.0000000
 21
-63.7386017
 31
0.0
  0
LINE
  8
WORKLAYER
  6
CONTINUOUS
 62
     4
 10
-25.0000000
 20
-60.9385986
 30
0.0
 11
-25.0000000
 21
-66.5385971
 31
0.0
  0
LINE
  8
WORKLAYER
  6
CONTINUOUS
 62
     4
 10
-25.0000000
 20
-66.5385971
 30
0.0
 11
3.6805100
 21
-66.5385971
 31
0.0
  0
LINE
  8
WORKLAYER
  6
CONTINUOUS
 62
     4
 10
17.7999992
 20
-66.5385971
 30
0.0
 11
28.0000000
 21
-66.5385971
 31
0.0
  0
LINE
  8
WORKLAYER
  6
CONTINUOUS
 62
     4
 10
35.0000000
 20
-63.7386017
 30
0.0
 11
28.0000000
 21
-68.6386032
 31
0.0
  0
LINE
  8
WORKLAYER
  6
CONTINUOUS
 62
     4
 10
28.0000000
 20
-60.9385986
 30
0.0
 11
-25.0000000
 21
-60.9385986
 31
0.0
  0
LINE
  8
WORKLAYER
  6
CONTINUOUS
 62
     4
 10
28.0000000
 20
-58.8386002
 30
0.0
 11
28.0000000
 21
-60.9385986
 31
0.0
  0
LINE
  8
WORKLAYER
  6
CONTINUOUS
 62
     4
 10
28.0000000
 20
-66.5385971
 30
0.0
 11
28.0000000
 21
-68.6386032
 31
0.0
  0
LINE
  8
WORKLAYER
  6
CONTINUOUS
 62
     4
 10
-20.4436798
 20
65.7560806
 30
0.0
 11
-6.2632599
 21
65.7560806
 31
0.0
  0
LINE
  8
WORKLAYER
  6
CONTINUOUS
 62
     4
 10
-6.2632599
 20
65.7560806
 30
0.0
 11
-6.2632599
 21
50.0000000
 31
0.0
  0
ARC
  8
WORKLAYER
  6
CONTINUOUS
 62
     4
 10
0.0393214
 20
55.5144997
 30
0.0
 40
5.5146399
 50
270.0000000
 51
0.0000000
  0
LINE
  8
WORKLAYER
  6
CONTINUOUS
 62
     4
 10
-20.4436798
 20
65.7560806
 30
0.0
 11
-6.2632599
 21
50.0000000
 31
0.0
  0
LINE
  8
WORKLAYER
  6
CONTINUOUS
 62
     4
 10
5.5539389
 20
65.7560806
 30
0.0
 11
5.5539389
 21
55.5144997
 31
0.0
  0
LINE
  8
WORKLAYER
  6
CONTINUOUS
 62
     4
 10
0.0393214
 20
50.0000000
 30
0.0
 11
-5.0814681
 21
50.0000000
 31
0.0
  0
LINE
  8
WORKLAYER
  6
CONTINUOUS
 62
     4
 10
-16.8986702
 20
34.2436905
 30
0.0
 11
-5.0814681
 21
50.0000000
 31
0.0
  0
LINE
  8
WORKLAYER
  6
CONTINUOUS
 62
     4
 10
-16.8986702
 20
34.2436905
 30
0.0
 11
-3.1118629
 21
34.2436905
 31
0.0
  0
LINE
  8
WORKLAYER
  6
CONTINUOUS
 62
     4
 10
20.1282501
 20
65.7560806
 30
0.0
 11
5.5539389
 21
65.7560806
 31
0.0
  0
LINE
  8
WORKLAYER
  6
CONTINUOUS
 62
     4
 10
20.1282501
 20
65.7560806
 30
0.0
 11
-3.1118629
 21
34.2436905
 31
0.0
  0
LINE
  8
WORKLAYER
  6
CONTINUOUS
 62
     4
 10
-1.6985370
 20
-23.8633499
 30
0.0
 11
-12.1871204
 21
-38.2996902
 31
0.0
  0
LINE
  8
WORKLAYER
  6
CONTINUOUS
 62
     4
 10
-3.3077290
 20
-15.1272802
 30
0.0
 11
-19.3997402
 21
-37.2760086
 31
0.0
  0
LINE
  8
WORKLAYER
  6
CONTINUOUS
 62
     4
 10
-3.3077290
 20
-15.1272802
 30
0.0
 11
4.7382612
 21
-15.1272802
 31
0.0
  0
LINE
  8
WORKLAYER
  6
CONTINUOUS
 62
     4
 10
-19.3997402
 20
-37.2760086
 30
0.0
 11
-19.3997402
 21
-44.7364693
 31
0.0
  0
LINE
  8
WORKLAYER
  6
CONTINUOUS
 62
     4
 10
8.6002636
 20
-38.2996902
 30
0.0
 11
8.6002636
 21
-44.7364693
 31
0.0
  0
LINE
  8
WORKLAYER
  6
CONTINUOUS
 62
     4
 10
-1.6985370
 20
-53.7479706
 30
0.0
 11
4.7382612
 21
-53.7479706
 31
0.0
  0
LINE
  8
WORKLAYER
  6
CONTINUOUS
 62
     4
 10
-1.6985370
 20
-38.2996902
 30
0.0
 11
-12.1871204
 21
-38.2996902
 31
0.0
  0
LINE
  8
WORKLAYER
  6
CONTINUOUS
 62
     4
 10
8.6002636
 20
-38.2996902
 30
0.0
 11
4.7382612
 21
-38.2996902
 31
0.0
  0
LINE
  8
WORKLAYER
  6
CONTINUOUS
 62
     4
 10
-1.6985370
 20
-44.7364693
 30
0.0
 11
-19.3997402
 21
-44.7364693
 31
0.0
  0
LINE
  8
WORKLAYER
  6
CONTINUOUS
 62
     4
 10
8.6002636
 20
-44.7364693
 30
0.0
 11
4.7382612
 21
-44.7364693
 31
0.0
  0
LINE
  8
WORKLAYER
  6
CONTINUOUS
 62
     4
 10
-1.6985370
 20
-44.7364693
 30
0.0
 11
-1.6985370
 21
-53.7479706
 31
0.0
  0
LINE
  8
WORKLAYER
  6
CONTINUOUS
 62
     4
 10
-1.6985370
 20
-23.8633499
 30
0.0
 11
-1.6985370
 21
-38.2996902
 31
0.0
  0
LINE
  8
WORKLAYER
  6
CONTINUOUS
 62
     4
 10
4.7382612
 20
-15.1272802
 30
0.0
 11
4.7382612
 21
-38.2996902
 31
0.0
  0
LINE
  8
WORKLAYER
  6
CONTINUOUS
 62
     4
 10
4.7382612
 20
-44.7364693
 30
0.0
 11
4.7382612
 21
-53.7479706
 31
0.0
  0
LINE
  8
WORKLAYER
  6
CONTINUOUS
 62
     4
 10
397.5408936
 20
265.6783142
 30
0.0
 11
397.5408936
 21
211.5000000
 31
0.0
  0
LINE
  8
WORKLAYER
  6
CONTINUOUS
 62
     2
 10
398.5408936
 20
260.7640991
 30
0.0
 11
397.5408936
 21
259.0321045
 31
0.0
  0
LINE
  8
WORKLAYER
  6
CONTINUOUS
 62
     2
 10
406.5408936
 20
260.7640991
 30
0.0
 11
407.5408936
 21
259.0321045
 31
0.0
  0
LINE
  8
WORKLAYER
  6
CONTINUOUS
 62
     2
 10
406.5408936
 20
260.7640991
 30
0.0
 11
398.5408936
 21
260.7640991
 31
0.0
  0
LINE
  8
WORKLAYER
  6
CONTINUOUS
 62
     4
 10
407.5408936
 20
211.5000000
 30
0.0
 11
407.5408936
 21
265.6783142
 31
0.0
  0
LINE
  8
WORKLAYER
  6
CONTINUOUS
 62
     2
 10
398.5408936
 20
265.6783142
 30
0.0
 11
398.5408936
 21
260.7640991
 31
0.0
  0
LINE
  8
WORKLAYER
  6
CONTINUOUS
 62
     2
 10
406.5408936
 20
260.7640991
 30
0.0
 11
406.5408936
 21
265.6783142
 31
0.0
  0
ARC
  8
WORKLAYER
  6
CONTINUOUS
 62
     4
 10
327.5408936
 20
-121.0000000
 30
0.0
 40
2.0000000
 50
270.0000000
 51
0.0000000
  0
LINE
  8
WORKLAYER
  6
CONTINUOUS
 62
     4
 10
329.5408936
 20
-121.0000000
 30
0.0
 11
358.8033142
 21
-121.0000000
 31
0.0
  0
LINE
  8
WORKLAYER
  6
CONTINUOUS
 62
     4
 10
372.8033142
 20
-121.0000000
 30
0.0
 11
402.5408936
 21
-121.0000000
 31
0.0
  0
LINE
  8
WORKLAYER
  6
CONTINUOUS
 62
     4
 10
290.5408936
 20
-123.0000000
 30
0.0
 11
402.5408936
 21
-123.0000000
 31
0.0
  0
ARC
  8
WORKLAYER
  6
CONTINUOUS
 62
     4
 10
290.5408936
 20
-125.0000000
 30
0.0
 40
2.0000000
 50
90.0000000
 51
180.0000000
  0
LINE
  8
WORKLAYER
  6
CONTINUOUS
 62
     4
 10
290.5408936
 20
-147.0000000
 30
0.0
 11
402.5408936
 21
-147.0000000
 31
0.0
  0
ARC
  8
WORKLAYER
  6
CONTINUOUS
 62
     4
 10
329.1108093
 20
-152.0000000
 30
0.0
 40
5.0000000
 50
21.0955696
 51
90.0000000
  0
LINE
  8
WORKLAYER
  6
CONTINUOUS
 62
     4
 10
333.7759094
 20
-150.2003937
 30
0.0
 11
340.2568054
 21
-167.0000000
 31
0.0
  0
LINE
  8
WORKLAYER
  6
CONTINUOUS
 62
     4
 10
288.5408936
 20
-125.0000000
 30
0.0
 11
288.5408936
 21
-145.0000000
 31
0.0
  0
ARC
  8
WORKLAYER
  6
CONTINUOUS
 62
     4
 10
290.5408936
 20
-145.0000000
 30
0.0
 40
2.0000000
 50
180.0000000
 51
270.0000000
  0
LINE
  8
WORKLAYER
  6
CONTINUOUS
 62
     4
 10
340.2568054
 20
-167.0000000
 30
0.0
 11
341.8179932
 21
-204.7212982
 31
0.0
  0
LINE
  8
WORKLAYER
  6
CONTINUOUS
 62
     4
 10
471.3059082
 20
-150.2003937
 30
0.0
 11
464.8247986
 21
-167.0000000
 31
0.0
  0
LINE
  8
WORKLAYER
  6
CONTINUOUS
 62
     4
 10
475.5408936
 20
-121.0000000
 30
0.0
 11
446.2785034
 21
-121.0000000
 31
0.0
  0
LINE
  8
WORKLAYER
  6
CONTINUOUS
 62
     4
 10
432.2785034
 20
-121.0000000
 30
0.0
 11
402.5408936
 21
-121.0000000
 31
0.0
  0
LINE
  8
WORKLAYER
  6
CONTINUOUS
 62
     4
 10
514.5410156
 20
-123.0000000
 30
0.0
 11
402.5408936
 21
-123.0000000
 31
0.0
  0
ARC
  8
WORKLAYER
  6
CONTINUOUS
 62
     4
 10
514.5410156
 20
-125.0000000
 30
0.0
 40
2.0000000
 50
0.0000000
 51
90.0000000
  0
LINE
  8
WORKLAYER
  6
CONTINUOUS
 62
     4
 10
514.5410156
 20
-147.0000000
 30
0.0
 11
402.5408936
 21
-147.0000000
 31
0.0
  0
ARC
  8
WORKLAYER
  6
CONTINUOUS
 62
     4
 10
475.9708862
 20
-152.0000000
 30
0.0
 40
5.0000000
 50
90.0000000
 51
158.9044037
  0
ARC
  8
WORKLAYER
  6
CONTINUOUS
 62
     4
 10
477.5408936
 20
-121.0000000
 30
0.0
 40
2.0000000
 50
180.0000000
 51
270.0000000
  0
LINE
  8
WORKLAYER
  6
CONTINUOUS
 62
     4
 10
516.5410156
 20
-125.0000000
 30
0.0
 11
516.5410156
 21
-145.0000000
 31
0.0
  0
ARC
  8
WORKLAYER
  6
CONTINUOUS
 62
     4
 10
514.5410156
 20
-145.0000000
 30
0.0
 40
2.0000000
 50
270.0000000
 51
0.0000000
  0
LINE
  8
WORKLAYER
  6
CONTINUOUS
 62
     4
 10
464.8247986
 20
-167.0000000
 30
0.0
 11
463.2109985
 21
-206.0000000
 31
0.0
  0
LINE
  8
WORKLAYER
  6
CONTINUOUS
 62
     4
 10
331.5408936
 20
-121.0000000
 30
0.0
 11
339.2908936
 21
-121.0000000
 31
0.0
  0
LINE
  8
WORKLAYER
  6
CONTINUOUS
 62
     4
 10
465.7908936
 20
-121.0000000
 30
0.0
 11
473.5408936
 21
-121.0000000
 31
0.0
  0
LINE
  8
WORKLAYER
  6
CONTINUOUS
 62
     4
 10
473.5408936
 20
-121.0000000
 30
0.0
 11
473.5408936
 21
-120.0000000
 31
0.0
  0
LINE
  8
WORKLAYER
  6
CONTINUOUS
 62
     4
 10
473.5408936
 20
-120.0000000
 30
0.0
 11
465.7908936
 21
-120.0000000
 31
0.0
  0
LINE
  8
WORKLAYER
  6
CONTINUOUS
 62
     4
 10
339.2908936
 20
-120.0000000
 30
0.0
 11
331.5408936
 21
-120.0000000
 31
0.0
  0
LINE
  8
WORKLAYER
  6
CONTINUOUS
 62
     4
 10
331.5408936
 20
-120.0000000
 30
0.0
 11
331.5408936
 21
-121.0000000
 31
0.0
  0
LINE
  8
WORKLAYER
  6
CONTINUOUS
 62
     4
 10
402.5408936
 20
202.0000000
 30
0.0
 11
385.5408936
 21
202.0000000
 31
0.0
  0
LINE
  8
WORKLAYER
  6
CONTINUOUS
 62
     4
 10
402.5408936
 20
200.0000000
 30
0.0
 11
419.5408936
 21
200.0000000
 31
0.0
  0
LINE
  8
WORKLAYER
  6
CONTINUOUS
 62
     4
 10
419.5408936
 20
200.0000000
 30
0.0
 11
419.5408936
 21
202.0000000
 31
0.0
  0
LINE
  8
WORKLAYER
  6
CONTINUOUS
 62
     4
 10
419.5408936
 20
202.0000000
 30
0.0
 11
402.5408936
 21
202.0000000
 31
0.0
  0
LINE
  8
WORKLAYER
  6
CONTINUOUS
 62
     4
 10
385.5408936
 20
200.0000000
 30
0.0
 11
402.5408936
 21
200.0000000
 31
0.0
  0
LINE
  8
WORKLAYER
  6
CONTINUOUS
 62
     4
 10
385.5408936
 20
202.0000000
 30
0.0
 11
385.5408936
 21
200.0000000
 31
0.0
  0
LINE
  8
WORKLAYER
  6
CONTINUOUS
 62
     4
 10
415.5408936
 20
205.5000000
 30
0.0
 11
415.5408936
 21
202.0000000
 31
0.0
  0
LINE
  8
WORKLAYER
  6
CONTINUOUS
 62
     4
 10
402.5408936
 20
211.5000000
 30
0.0
 11
414.0408936
 21
211.5000000
 31
0.0
  0
LINE
  8
WORKLAYER
  6
CONTINUOUS
 62
     4
 10
390.5408936
 20
206.5000000
 30
0.0
 11
402.5408936
 21
206.5000000
 31
0.0
  0
LINE
  8
WORKLAYER
  6
CONTINUOUS
 62
     4
 10
402.5408936
 20
206.5000000
 30
0.0
 11
414.5408936
 21
206.5000000
 31
0.0
  0
LINE
  8
WORKLAYER
  6
CONTINUOUS
 62
     4
 10
390.5408936
 20
206.5000000
 30
0.0
 11
389.5408936
 21
205.5000000
 31
0.0
  0
LINE
  8
WORKLAYER
  6
CONTINUOUS
 62
     4
 10
389.5408936
 20
205.5000000
 30
0.0
 11
389.5408936
 21
202.0000000
 31
0.0
  0
LINE
  8
WORKLAYER
  6
CONTINUOUS
 62
     4
 10
391.0408936
 20
211.5000000
 30
0.0
 11
402.5408936
 21
211.5000000
 31
0.0
  0
LINE
  8
WORKLAYER
  6
CONTINUOUS
 62
     4
 10
415.5408936
 20
205.5000000
 30
0.0
 11
414.5408936
 21
206.5000000
 31
0.0
  0
LINE
  8
WORKLAYER
  6
CONTINUOUS
 62
     2
 10
390.3529053
 20
206.5000000
 30
0.0
 11
390.3529053
 21
202.0000000
 31
0.0
  0
LINE
  8
WORKLAYER
  6
CONTINUOUS
 62
     2
 10
414.7289124
 20
206.5000000
 30
0.0
 11
414.7289124
 21
202.0000000
 31
0.0
  0
LINE
  8
WORKLAYER
  6
CONTINUOUS
 62
     4
 10
414.0408936
 20
211.5000000
 30
0.0
 11
414.0408936
 21
206.5000000
 31
0.0
  0
LINE
  8
WORKLAYER
  6
CONTINUOUS
 62
     4
 10
391.0408936
 20
211.5000000
 30
0.0
 11
391.0408936
 21
206.5000000
 31
0.0
  0
LINE
  8
WORKLAYER
  6
CONTINUOUS
 62
     4
 10
379.7408142
 20
200.0000000
 30
0.0
 11
390.3529053
 21
200.0000000
 31
0.0
  0
LINE
  8
WORKLAYER
  6
CONTINUOUS
 62
     4
 10
379.7408142
 20
200.0000000
 30
0.0
 11
378.7408142
 21
199.0000000
 31
0.0
  0
LINE
  8
WORKLAYER
  6
CONTINUOUS
 62
     4
 10
432.5408936
 20
168.0000000
 30
0.0
 11
402.5408936
 21
168.0000000
 31
0.0
  0
LINE
  8
WORKLAYER
  6
CONTINUOUS
 62
     4
 10
426.3409119
 20
199.0000000
 30
0.0
 11
426.3409119
 21
168.0000000
 31
0.0
  0
LINE
  8
WORKLAYER
  6
CONTINUOUS
 62
     4
 10
372.5408936
 20
168.0000000
 30
0.0
 11
402.5408936
 21
168.0000000
 31
0.0
  0
LINE
  8
WORKLAYER
  6
CONTINUOUS
 62
     4
 10
432.5408936
 20
168.0000000
 30
0.0
 11
432.5408936
 21
140.3607025
 31
0.0
  0
LINE
  8
WORKLAYER
  6
CONTINUOUS
 62
     4
 10
425.3409119
 20
200.0000000
 30
0.0
 11
414.7289124
 21
200.0000000
 31
0.0
  0
LINE
  8
WORKLAYER
  6
CONTINUOUS
 62
     4
 10
425.3409119
 20
200.0000000
 30
0.0
 11
426.3409119
 21
199.0000000
 31
0.0
  0
LINE
  8
WORKLAYER
  6
CONTINUOUS
 62
     4
 10
378.7408142
 20
199.0000000
 30
0.0
 11
378.7408142
 21
168.0000000
 31
0.0
  0
LINE
  8
WORKLAYER
  6
CONTINUOUS
 62
     4
 10
372.5408936
 20
168.0000000
 30
0.0
 11
372.5408936
 21
140.3607025
 31
0.0
  0
LINE
  8
WORKLAYER
  6
CONTINUOUS
 62
     4
 10
394.8381958
 20
270.6783142
 30
0.0
 11
410.2435913
 21
270.6783142
 31
0.0
  0
LINE
  8
WORKLAYER
  6
CONTINUOUS
 62
     4
 10
406.0909119
 20
300.6783142
 30
0.0
 11
398.9909058
 21
300.6783142
 31
0.0
  0
ARC
  8
WORKLAYER
  6
CONTINUOUS
 62
     4
 10
402.5408936
 20
285.0770874
 30
0.0
 40
16.0000000
 50
102.8191986
 51
115.9445038
  0
LINE
  8
WORKLAYER
  6
CONTINUOUS
 62
     4
 10
394.8381958
 20
292.4425964
 30
0.0
 11
398.1908875
 21
294.3782959
 31
0.0
  0
ARC
  8
WORKLAYER
  6
CONTINUOUS
 62
     4
 10
402.5408936
 20
312.9794922
 30
0.0
 40
16.0000000
 50
244.0554962
 51
254.2241058
  0
LINE
  8
WORKLAYER
  6
CONTINUOUS
 62
     4
 10
395.5408936
 20
299.4645081
 30
0.0
 11
395.5408936
 21
298.5920105
 31
0.0
  0
LINE
  8
WORKLAYER
  6
CONTINUOUS
 62
     4
 10
398.1908875
 20
297.5822144
 30
0.0
 11
398.1908875
 21
294.3782959
 31
0.0
  0
ARC
  8
WORKLAYER
  6
CONTINUOUS
 62
     4
 10
402.5408936
 20
285.0770874
 30
0.0
 40
16.0000000
 50
64.0555191
 51
77.1808167
  0
LINE
  8
WORKLAYER
  6
CONTINUOUS
 62
     4
 10
410.2435913
 20
292.4425964
 30
0.0
 11
406.8908997
 21
294.3782959
 31
0.0
  0
ARC
  8
WORKLAYER
  6
CONTINUOUS
 62
     4
 10
402.5408936
 20
312.9794922
 30
0.0
 40
16.0000000
 50
285.7759094
 51
295.9444885
  0
LINE
  8
WORKLAYER
  6
CONTINUOUS
 62
     4
 10
409.5408936
 20
299.4645081
 30
0.0
 11
409.5408936
 21
298.5920105
 31
0.0
  0
LINE
  8
WORKLAYER
  6
CONTINUOUS
 62
     4
 10
406.8908997
 20
297.5822144
 30
0.0
 11
406.8908997
 21
294.3782959
 31
0.0
  0
LINE
  8
WORKLAYER
  6
CONTINUOUS
 62
     4
 10
398.1908875
 20
294.3782959
 30
0.0
 11
406.8908997
 21
294.3782959
 31
0.0
  0
LINE
  8
WORKLAYER
  6
CONTINUOUS
 62
     4
 10
398.1908875
 20
297.5822144
 30
0.0
 11
406.8908997
 21
297.5822144
 31
0.0
  0
LINE
  8
WORKLAYER
  6
CONTINUOUS
 62
     3
 10
395.5408936
 20
299.4645081
 30
0.0
 11
409.5408936
 21
299.4645081
 31
0.0
  0
LINE
  8
WORKLAYER
  6
CONTINUOUS
 62
     3
 10
409.5408936
 20
298.5920105
 30
0.0
 11
395.5408936
 21
298.5920105
 31
0.0
  0
LINE
  8
WORKLAYER
  6
CONTINUOUS
 62
     4
 10
394.8381958
 20
292.4425964
 30
0.0
 11
394.8381958
 21
270.6783142
 31
0.0
  0
LINE
  8
WORKLAYER
  6
CONTINUOUS
 62
     4
 10
410.2435913
 20
292.4425964
 30
0.0
 11
410.2435913
 21
270.6783142
 31
0.0
  0
ARC
  8
WORKLAYER
  6
CONTINUOUS
 62
     4
 10
398.6895142
 20
285.7717896
 30
0.0
 40
7.7027302
 50
60.0000000
 51
120.0000000
  0
ARC
  8
WORKLAYER
  6
CONTINUOUS
 62
     4
 10
406.3923035
 20
285.7717896
 30
0.0
 40
7.7027302
 50
59.9997292
 51
120.0000000
  0
LINE
  8
WORKLAYER
  6
CONTINUOUS
 62
     4
 10
402.5408936
 20
292.4425049
 30
0.0
 11
402.5408936
 21
270.6783142
 31
0.0
  0
LINE
  8
WORKLAYER
  6
CONTINUOUS
 62
     4
 10
396.0408936
 20
270.6783142
 30
0.0
 11
395.0408936
 21
270.1008911
 31
0.0
  0
LINE
  8
WORKLAYER
  6
CONTINUOUS
 62
     4
 10
410.0408936
 20
266.2556152
 30
0.0
 11
410.0408936
 21
270.1008911
 31
0.0
  0
LINE
  8
WORKLAYER
  6
CONTINUOUS
 62
     4
 10
409.0408936
 20
270.6783142
 30
0.0
 11
396.0408936
 21
270.6783142
 31
0.0
  0
LINE
  8
WORKLAYER
  6
CONTINUOUS
 62
     4
 10
395.0408936
 20
270.1008911
 30
0.0
 11
395.0408936
 21
266.2556152
 31
0.0
  0
LINE
  8
WORKLAYER
  6
CONTINUOUS
 62
     4
 10
396.0408936
 20
265.6783142
 30
0.0
 11
395.0408936
 21
266.2556152
 31
0.0
  0
LINE
  8
WORKLAYER
  6
CONTINUOUS
 62
     4
 10
396.0408936
 20
265.6783142
 30
0.0
 11
409.0408936
 21
265.6783142
 31
0.0
  0
LINE
  8
WORKLAYER
  6
CONTINUOUS
 62
     4
 10
409.0408936
 20
265.6783142
 30
0.0
 11
410.0408936
 21
266.2556152
 31
0.0
  0
LINE
  8
WORKLAYER
  6
CONTINUOUS
 62
     4
 10
409.0408936
 20
270.6783142
 30
0.0
 11
410.0408936
 21
270.1008911
 31
0.0
  0
LINE
  8
0
  6
CONTINUOUS
 62
     4
 10
326.5502014
 20
-155.0175018
 30
0.0
 11
326.5502014
 21
-147.0000000
 31
0.0
  0
LINE
  8
0
  6
CONTINUOUS
 62
     4
 10
306.8485107
 20
-123.0000000
 30
0.0
 11
306.8485107
 21
-118.0000000
 31
0.0
  0
LINE
  8
0
  6
CONTINUOUS
 62
     4
 10
320.8485107
 20
-123.0000000
 30
0.0
 11
320.8485107
 21
-118.0000000
 31
0.0
  0
LINE
  8
0
  6
CONTINUOUS
 62
     4
 10
326.5502014
 20
-147.0000000
 30
0.0
 11
301.1467896
 21
-147.0000000
 31
0.0
  0
LINE
  8
0
  6
CONTINUOUS
 62
     4
 10
324.8485107
 20
-156.0000000
 30
0.0
 11
302.8485107
 21
-156.0000000
 31
0.0
  0
LINE
  8
0
  6
CONTINUOUS
 62
     4
 10
301.1467896
 20
-155.0175018
 30
0.0
 11
301.1467896
 21
-147.0000000
 31
0.0
  0
LINE
  8
0
  6
CONTINUOUS
 62
     4
 10
302.8485107
 20
-156.0000000
 30
0.0
 11
301.1467896
 21
-155.0175018
 31
0.0
  0
LINE
  8
0
  6
CONTINUOUS
 62
     4
 10
324.8485107
 20
-156.0000000
 30
0.0
 11
326.5502014
 21
-155.0175018
 31
0.0
  0
ARC
  8
0
  6
CONTINUOUS
 62
     4
 10
313.8485107
 20
-136.9474030
 30
0.0
 40
19.0525608
 50
250.5287933
 51
289.4711914
  0
LINE
  8
0
  6
CONTINUOUS
 62
     4
 10
320.1993103
 20
-154.9102936
 30
0.0
 11
320.1993103
 21
-147.0000000
 31
0.0
  0
LINE
  8
0
  6
CONTINUOUS
 62
     4
 10
307.4977112
 20
-154.9102936
 30
0.0
 11
307.4977112
 21
-147.0000000
 31
0.0
  0
ARC
  8
0
  6
CONTINUOUS
 62
     4
 10
324.8485107
 20
-145.5368958
 30
0.0
 40
10.4630899
 50
243.6190033
 51
270.0000000
  0
ARC
  8
0
  6
CONTINUOUS
 62
     4
 10
302.8485107
 20
-145.5368958
 30
0.0
 40
10.4630899
 50
270.0000000
 51
296.3810120
  0
LINE
  8
0
  6
CONTINUOUS
 62
     4
 10
358.8033142
 20
-123.0000000
 30
0.0
 11
358.8033142
 21
-118.0000000
 31
0.0
  0
LINE
  8
0
  6
CONTINUOUS
 62
     4
 10
372.8033142
 20
-123.0000000
 30
0.0
 11
372.8033142
 21
-118.0000000
 31
0.0
  0
LINE
  8
0
  6
CONTINUOUS
 62
     4
 10
354.8033142
 20
-156.0000000
 30
0.0
 11
353.1015930
 21
-155.0175018
 31
0.0
  0
LINE
  8
0
  6
CONTINUOUS
 62
     4
 10
378.5050049
 20
-147.0000000
 30
0.0
 11
353.1015930
 21
-147.0000000
 31
0.0
  0
LINE
  8
0
  6
CONTINUOUS
 62
     4
 10
376.8033142
 20
-156.0000000
 30
0.0
 11
354.8033142
 21
-156.0000000
 31
0.0
  0
LINE
  8
0
  6
CONTINUOUS
 62
     4
 10
353.1015930
 20
-155.0175018
 30
0.0
 11
353.1015930
 21
-147.0000000
 31
0.0
  0
LINE
  8
0
  6
CONTINUOUS
 62
     4
 10
378.5050049
 20
-155.0175018
 30
0.0
 11
378.5050049
 21
-147.0000000
 31
0.0
  0
LINE
  8
0
  6
CONTINUOUS
 62
     4
 10
376.8033142
 20
-156.0000000
 30
0.0
 11
378.5050049
 21
-155.0175018
 31
0.0
  0
ARC
  8
0
  6
CONTINUOUS
 62
     4
 10
365.8033142
 20
-136.9474030
 30
0.0
 40
19.0525608
 50
250.5287933
 51
289.4711914
  0
LINE
  8
0
  6
CONTINUOUS
 62
     4
 10
372.1542053
 20
-154.9102936
 30
0.0
 11
372.1542053
 21
-147.0000000
 31
0.0
  0
LINE
  8
0
  6
CONTINUOUS
 62
     4
 10
359.4525146
 20
-154.9102936
 30
0.0
 11
359.4525146
 21
-147.0000000
 31
0.0
  0
ARC
  8
0
  6
CONTINUOUS
 62
     4
 10
376.8033142
 20
-145.5368958
 30
0.0
 40
10.4630899
 50
243.6190033
 51
270.0000000
  0
ARC
  8
0
  6
CONTINUOUS
 62
     4
 10
354.8033142
 20
-145.5368958
 30
0.0
 40
10.4630899
 50
270.0000000
 51
296.3810120
  0
LINE
  8
0
  6
CONTINUOUS
 62
     4
 10
428.2785950
 20
-156.0000000
 30
0.0
 11
450.2785034
 21
-156.0000000
 31
0.0
  0
LINE
  8
0
  6
CONTINUOUS
 62
     4
 10
446.2785034
 20
-123.0000000
 30
0.0
 11
446.2785034
 21
-118.0000000
 31
0.0
  0
LINE
  8
0
  6
CONTINUOUS
 62
     4
 10
432.2785034
 20
-123.0000000
 30
0.0
 11
432.2785034
 21
-118.0000000
 31
0.0
  0
LINE
  8
0
  6
CONTINUOUS
 62
     4
 10
426.5768127
 20
-147.0000000
 30
0.0
 11
451.9802856
 21
-147.0000000
 31
0.0
  0
LINE
  8
0
  6
CONTINUOUS
 62
     4
 10
450.2785034
 20
-156.0000000
 30
0.0
 11
451.9802856
 21
-155.0175018
 31
0.0
  0
LINE
  8
0
  6
CONTINUOUS
 62
     4
 10
451.9802856
 20
-155.0175018
 30
0.0
 11
451.9802856
 21
-147.0000000
 31
0.0
  0
LINE
  8
0
  6
CONTINUOUS
 62
     4
 10
426.5768127
 20
-155.0175018
 30
0.0
 11
426.5768127
 21
-147.0000000
 31
0.0
  0
LINE
  8
0
  6
CONTINUOUS
 62
     4
 10
428.2785034
 20
-156.0000000
 30
0.0
 11
426.5768127
 21
-155.0175018
 31
0.0
  0
ARC
  8
0
  6
CONTINUOUS
 62
     4
 10
439.2785034
 20
-136.9474030
 30
0.0
 40
19.0525608
 50
250.5287933
 51
289.4711914
  0
LINE
  8
0
  6
CONTINUOUS
 62
     4
 10
432.9277039
 20
-154.9102936
 30
0.0
 11
432.9277039
 21
-147.0000000
 31
0.0
  0
LINE
  8
0
  6
CONTINUOUS
 62
     4
 10
445.6293945
 20
-154.9102936
 30
0.0
 11
445.6293945
 21
-147.0000000
 31
0.0
  0
ARC
  8
0
  6
CONTINUOUS
 62
     4
 10
428.2785950
 20
-145.5368958
 30
0.0
 40
10.4630899
 50
270.0000000
 51
296.3810120
  0
ARC
  8
0
  6
CONTINUOUS
 62
     4
 10
450.2785034
 20
-145.5368958
 30
0.0
 40
10.4630899
 50
243.6190033
 51
270.0000000
  0
LINE
  8
0
  6
CONTINUOUS
 62
     4
 10
498.2333984
 20
-123.0000000
 30
0.0
 11
498.2333984
 21
-118.0000000
 31
0.0
  0
LINE
  8
0
  6
CONTINUOUS
 62
     4
 10
484.2333984
 20
-123.0000000
 30
0.0
 11
484.2333984
 21
-118.0000000
 31
0.0
  0
LINE
  8
0
  6
CONTINUOUS
 62
     4
 10
502.2333984
 20
-156.0000000
 30
0.0
 11
503.9350891
 21
-155.0175018
 31
0.0
  0
LINE
  8
0
  6
CONTINUOUS
 62
     4
 10
478.5317078
 20
-147.0000000
 30
0.0
 11
503.9350891
 21
-147.0000000
 31
0.0
  0
LINE
  8
0
  6
CONTINUOUS
 62
     4
 10
480.2333984
 20
-156.0000000
 30
0.0
 11
502.2333984
 21
-156.0000000
 31
0.0
  0
LINE
  8
0
  6
CONTINUOUS
 62
     4
 10
503.9350891
 20
-155.0175018
 30
0.0
 11
503.9350891
 21
-147.0000000
 31
0.0
  0
LINE
  8
0
  6
CONTINUOUS
 62
     4
 10
478.5317078
 20
-155.0175018
 30
0.0
 11
478.5317078
 21
-147.0000000
 31
0.0
  0
LINE
  8
0
  6
CONTINUOUS
 62
     4
 10
480.2333984
 20
-156.0000000
 30
0.0
 11
478.5317078
 21
-155.0175018
 31
0.0
  0
ARC
  8
0
  6
CONTINUOUS
 62
     4
 10
491.2333984
 20
-136.9474030
 30
0.0
 40
19.0525608
 50
250.5287933
 51
289.4711914
  0
LINE
  8
0
  6
CONTINUOUS
 62
     4
 10
484.8825073
 20
-154.9102936
 30
0.0
 11
484.8825073
 21
-147.0000000
 31
0.0
  0
LINE
  8
0
  6
CONTINUOUS
 62
     4
 10
497.5841980
 20
-154.9102936
 30
0.0
 11
497.5841980
 21
-147.0000000
 31
0.0
  0
ARC
  8
0
  6
CONTINUOUS
 62
     4
 10
480.2333984
 20
-145.5368958
 30
0.0
 40
10.4630899
 50
270.0000000
 51
296.3810120
  0
ARC
  8
0
  6
CONTINUOUS
 62
     4
 10
502.2333984
 20
-145.5368958
 30
0.0
 40
10.4630899
 50
243.6190033
 51
270.0000000
  0
LINE
  8
0
  6
CONTINUOUS
 62
     4
 10
-24.0359097
 20
-155.0175018
 30
0.0
 11
-24.0359097
 21
-147.0000000
 31
0.0
  0
LINE
  8
0
  6
CONTINUOUS
 62
     4
 10
-43.7376099
 20
-123.0000000
 30
0.0
 11
-43.7376099
 21
-118.0000000
 31
0.0
  0
LINE
  8
0
  6
CONTINUOUS
 62
     4
 10
-29.7376099
 20
-123.0000000
 30
0.0
 11
-29.7376099
 21
-118.0000000
 31
0.0
  0
LINE
  8
0
  6
CONTINUOUS
 62
     4
 10
-24.0359097
 20
-147.0000000
 30
0.0
 11
-49.4393082
 21
-147.0000000
 31
0.0
  0
LINE
  8
0
  6
CONTINUOUS
 62
     4
 10
-25.7376308
 20
-156.0000000
 30
0.0
 11
-47.7376099
 21
-156.0000000
 31
0.0
  0
LINE
  8
0
  6
CONTINUOUS
 62
     4
 10
-49.4393082
 20
-155.0175018
 30
0.0
 11
-49.4393082
 21
-147.0000000
 31
0.0
  0
LINE
  8
0
  6
CONTINUOUS
 62
     4
 10
-47.7376099
 20
-156.0000000
 30
0.0
 11
-49.4393082
 21
-155.0175018
 31
0.0
  0
LINE
  8
0
  6
CONTINUOUS
 62
     4
 10
-25.7376099
 20
-156.0000000
 30
0.0
 11
-24.0359097
 21
-155.0175018
 31
0.0
  0
ARC
  8
0
  6
CONTINUOUS
 62
     4
 10
-36.7376099
 20
-136.9474030
 30
0.0
 40
19.0525608
 50
250.5287933
 51
289.4711914
  0
LINE
  8
0
  6
CONTINUOUS
 62
     4
 10
-30.3867702
 20
-154.9102936
 30
0.0
 11
-30.3867702
 21
-147.0000000
 31
0.0
  0
LINE
  8
0
  6
CONTINUOUS
 62
     4
 10
-43.0884705
 20
-154.9102936
 30
0.0
 11
-43.0884705
 21
-147.0000000
 31
0.0
  0
ARC
  8
0
  6
CONTINUOUS
 62
     4
 10
-25.7376308
 20
-145.5368958
 30
0.0
 40
10.4630899
 50
243.6190033
 51
270.0000000
  0
ARC
  8
0
  6
CONTINUOUS
 62
     4
 10
-47.7376099
 20
-145.5368958
 30
0.0
 40
10.4630899
 50
270.0000000
 51
296.3810120
  0
LINE
  8
0
  6
CONTINUOUS
 62
     4
 10
25.7376099
 20
-156.0000000
 30
0.0
 11
24.0359097
 21
-155.0175018
 31
0.0
  0
LINE
  8
0
  6
CONTINUOUS
 62
     4
 10
43.7376099
 20
-123.0000000
 30
0.0
 11
43.7376099
 21
-118.0000000
 31
0.0
  0
LINE
  8
0
  6
CONTINUOUS
 62
     4
 10
29.7376099
 20
-123.0000000
 30
0.0
 11
29.7376099
 21
-118.0000000
 31
0.0
  0
LINE
  8
0
  6
CONTINUOUS
 62
     4
 10
24.0359097
 20
-147.0000000
 30
0.0
 11
49.4393082
 21
-147.0000000
 31
0.0
  0
LINE
  8
0
  6
CONTINUOUS
 62
     4
 10
25.7376308
 20
-156.0000000
 30
0.0
 11
47.7376099
 21
-156.0000000
 31
0.0
  0
LINE
  8
0
  6
CONTINUOUS
 62
     4
 10
49.4393082
 20
-155.0175018
 30
0.0
 11
49.4393082
 21
-147.0000000
 31
0.0
  0
LINE
  8
0
  6
CONTINUOUS
 62
     4
 10
24.0359097
 20
-155.0175018
 30
0.0
 11
24.0359097
 21
-147.0000000
 31
0.0
  0
LINE
  8
0
  6
CONTINUOUS
 62
     4
 10
47.7376099
 20
-156.0000000
 30
0.0
 11
49.4393082
 21
-155.0175018
 31
0.0
  0
ARC
  8
0
  6
CONTINUOUS
 62
     4
 10
36.7376099
 20
-136.9474030
 30
0.0
 40
19.0525608
 50
250.5287933
 51
289.4711914
  0
LINE
  8
0
  6
CONTINUOUS
 62
     4
 10
30.3867702
 20
-154.9102936
 30
0.0
 11
30.3867702
 21
-147.0000000
 31
0.0
  0
LINE
  8
0
  6
CONTINUOUS
 62
     4
 10
43.0884705
 20
-154.9102936
 30
0.0
 11
43.0884705
 21
-147.0000000
 31
0.0
  0
ARC
  8
0
  6
CONTINUOUS
 62
     4
 10
25.7376308
 20
-145.5368958
 30
0.0
 40
10.4630899
 50
270.0000000
 51
296.3810120
  0
ARC
  8
0
  6
CONTINUOUS
 62
     4
 10
47.7376099
 20
-145.5368958
 30
0.0
 40
10.4630899
 50
243.6190033
 51
270.0000000
  0
LINE
  8
0
  6
CONTINUOUS
 62
     4
 10
99.6924362
 20
-156.0000000
 30
0.0
 11
101.3940964
 21
-155.0175018
 31
0.0
  0
LINE
  8
0
  6
CONTINUOUS
 62
     4
 10
95.6924362
 20
-123.0000000
 30
0.0
 11
95.6924362
 21
-118.0000000
 31
0.0
  0
LINE
  8
0
  6
CONTINUOUS
 62
     4
 10
81.6924362
 20
-123.0000000
 30
0.0
 11
81.6924362
 21
-118.0000000
 31
0.0
  0
LINE
  8
0
  6
CONTINUOUS
 62
     4
 10
75.9907379
 20
-147.0000000
 30
0.0
 11
101.3940964
 21
-147.0000000
 31
0.0
  0
LINE
  8
0
  6
CONTINUOUS
 62
     4
 10
77.6924515
 20
-156.0000000
 30
0.0
 11
99.6924362
 21
-156.0000000
 31
0.0
  0
LINE
  8
0
  6
CONTINUOUS
 62
     4
 10
101.3940964
 20
-155.0175018
 30
0.0
 11
101.3940964
 21
-147.0000000
 31
0.0
  0
LINE
  8
0
  6
CONTINUOUS
 62
     4
 10
75.9907379
 20
-155.0175018
 30
0.0
 11
75.9907379
 21
-147.0000000
 31
0.0
  0
LINE
  8
0
  6
CONTINUOUS
 62
     4
 10
77.6924362
 20
-156.0000000
 30
0.0
 11
75.9907379
 21
-155.0175018
 31
0.0
  0
ARC
  8
0
  6
CONTINUOUS
 62
     4
 10
88.6924362
 20
-136.9474030
 30
0.0
 40
19.0525608
 50
250.5287933
 51
289.4711914
  0
LINE
  8
0
  6
CONTINUOUS
 62
     4
 10
82.3415909
 20
-154.9102936
 30
0.0
 11
82.3415909
 21
-147.0000000
 31
0.0
  0
LINE
  8
0
  6
CONTINUOUS
 62
     4
 10
95.0432968
 20
-154.9102936
 30
0.0
 11
95.0432968
 21
-147.0000000
 31
0.0
  0
ARC
  8
0
  6
CONTINUOUS
 62
     4
 10
77.6924515
 20
-145.5368958
 30
0.0
 40
10.4630899
 50
270.0000000
 51
296.3810120
  0
ARC
  8
0
  6
CONTINUOUS
 62
     4
 10
99.6924362
 20
-145.5368958
 30
0.0
 40
10.4630899
 50
243.6190033
 51
270.0000000
  0
LINE
  8
0
  6
CONTINUOUS
 62
     4
 10
-95.6924362
 20
-123.0000000
 30
0.0
 11
-95.6924362
 21
-118.0000000
 31
0.0
  0
LINE
  8
0
  6
CONTINUOUS
 62
     4
 10
-99.6924362
 20
-156.0000000
 30
0.0
 11
-101.3940964
 21
-155.0175018
 31
0.0
  0
LINE
  8
0
  6
CONTINUOUS
 62
     4
 10
-81.6924362
 20
-123.0000000
 30
0.0
 11
-81.6924362
 21
-118.0000000
 31
0.0
  0
LINE
  8
0
  6
CONTINUOUS
 62
     4
 10
-75.9907379
 20
-147.0000000
 30
0.0
 11
-101.3940964
 21
-147.0000000
 31
0.0
  0
LINE
  8
0
  6
CONTINUOUS
 62
     4
 10
-77.6924515
 20
-156.0000000
 30
0.0
 11
-99.6924362
 21
-156.0000000
 31
0.0
  0
LINE
  8
0
  6
CONTINUOUS
 62
     4
 10
-101.3940964
 20
-155.0175018
 30
0.0
 11
-101.3940964
 21
-147.0000000
 31
0.0
  0
LINE
  8
0
  6
CONTINUOUS
 62
     4
 10
-75.9907379
 20
-155.0175018
 30
0.0
 11
-75.9907379
 21
-147.0000000
 31
0.0
  0
LINE
  8
0
  6
CONTINUOUS
 62
     4
 10
-77.6924362
 20
-156.0000000
 30
0.0
 11
-75.9907379
 21
-155.0175018
 31
0.0
  0
ARC
  8
0
  6
CONTINUOUS
 62
     4
 10
-88.6924362
 20
-136.9474030
 30
0.0
 40
19.0525608
 50
250.5287933
 51
289.4711914
  0
LINE
  8
0
  6
CONTINUOUS
 62
     4
 10
-82.3415909
 20
-154.9102936
 30
0.0
 11
-82.3415909
 21
-147.0000000
 31
0.0
  0
LINE
  8
0
  6
CONTINUOUS
 62
     4
 10
-95.0432968
 20
-154.9102936
 30
0.0
 11
-95.0432968
 21
-147.0000000
 31
0.0
  0
ARC
  8
0
  6
CONTINUOUS
 62
     4
 10
-77.6924515
 20
-145.5368958
 30
0.0
 40
10.4630899
 50
243.6190033
 51
270.0000000
  0
ARC
  8
0
  6
CONTINUOUS
 62
     4
 10
-99.6924362
 20
-145.5368958
 30
0.0
 40
10.4630899
 50
270.0000000
 51
296.3810120
  0
ENDSEC
  0
EOF
