  0
SECTION
  2
HEADER
  9
$ACADVER 
  1
AC1006
  9
$INSBASE
 10
0.0
 20
0.0
 30
0.0
  9
$EXTMIN
 10
-113.1999512
 20
-172.9741974
  9
$EXTMAX
 10
321.6198425
 20
201.8775940
  9
$LIMMIN
 10
-113.1999512
 20
-172.9741974
  9
$LIMMAX
 10
321.6198425
 20
201.8775940
  9
$ORTHOMODE
 70
     0
  9
$REGENMODE
 70
     1
  9
$FILLMODE
 70
     1
  9
$QTEXTMODE
 70
     0
  9
$MIRRTEXT
 70
     1
  9
$DRAGMODE
 70
     2
  9
$LTSCALE
 40
1.0
  9
$OSMODE
 70
     0
  9
$ATTMODE
 70
     1
  9
$TEXTSIZE
 40
4.0
  9
$TRACEWID
 40
0.05
  9
$TEXTSTYLE
  7
STANDARD
  9
$CLAYER
  8
0
  9
$CELTYPE
  6
BYLAYER
  9
$CECOLOR
 62
   256
  9
$DIMSCALE
 40
1.0
  9
$DIMASZ
 40
0.18
  9
$DIMEXO
 40
0.0625
  9
$DIMDLI
 40
0.38
  9
$DIMRND
 40
0.0
  9
$DIMDLE
 40
0.0
  9
$DIMEXE
 40
0.18
  9
$DIMTP
 40
0.0
  9
$DIMTM
 40
0.0
  9
$DIMTXT
 40
0.18
  9
$DIMCEN
 40
0.09
  9
$DIMTSZ
 40
0.0
  9
$DIMTOL
 70
     0
  9
$DIMLIM
 70
     0
  9
$DIMTIH
 70
     1
  9
$DIMTOH
 70
     1
  9
$DIMSE1
 70
     0
  9
$DIMSE2
 70
     0
  9
$DIMTAD
 70
     0
  9
$DIMZIN
 70
     0
  9
$DIMBLK
  1

  9
$DIMASO
 70
     1
  9
$DIMSHO
 70
     0
  9
$DIMPOST
  1

  9
$DIMAPOST
  1

  9
$DIMALT
 70
     0
  9
$DIMALTD
 70
     2
  9
$DIMALTF
 40
25.4
  9
$DIMLFAC
 40
1.0
  9
$DIMTOFL
 70
     0
  9
$DIMTVP
 40
0.0
  9
$DIMTIX
 70
     0
  9
$DIMSOXD
 70
     0
  9
$DIMSAH
 70
     0
  9
$DIMBLK1
  1

  9
$DIMBLK2
  1

  9
$LUNITS
 70
     2
  9
$LUPREC
 70
     4
  9
$AXISMODE
 70
     0
  9
$AXISUNIT
 10
0.0
 20
0.0
  9
$SKETCHINC
 40
0.1
  9
$FILLETRAD
 40
0.0
  9
$AUNITS
 70
     0
  9
$AUPREC
 70
     0
  9
$MENU
  1
acad
  9
$ELEVATION
 40
0.0
  9
$THICKNESS
 40
0.0
  9
$LIMCHECK
 70
     0
  9
$BLIPMODE
 70
     1
  9
$CHAMFERA
 40
0.0
  9
$CHAMFERB
 40
0.0
  9
$SKPOLY
 70
     0
  9
$TDCREATE
 40
2448026.6008101851
  9
$TDUPDATE
 40
2448026.6181597221
  9
$TDINDWG
 40
0.0173495370
  9
$TDUSRTIMER
 40
0.0173495370
  9
$USRTIMER
 70
     1
  9
$ANGBASE
 50
0.0
  9
$ANGDIR
 70
     0
  9
$PDMODE
 70
     0
  9
$PDSIZE
 40
0.0
  9
$PLINEWID
 40
0.0
  9
$COORDS
 70
     2
  9
$SPLFRAME
 70
     0
  9
$SPLINETYPE
 70
     6
  9
$SPLINESEGS
 70
     8
  9
$ATTDIA
 70
     0
  9
$ATTREQ
 70
     1
  9
$HANDLING
 70
     0
  9
$HANDSEED
  5
0
  9
$SURFTAB1
 70
     6
  9
$SURFTAB2
 70
     6
  9
$SURFTYPE
 70
     6
  9
$SURFU
 70
     6
  9
$SURFV
 70
     6
  9
$FLATLAND
 70
     0
  9
$UCSNAME
  2

  9
$UCSORG
 10
0.0
 20
0.0
 30
0.0
  9
$UCSXDIR
 10
1.0
 20
0.0
 30
0.0
  9
$UCSYDIR
 10
0.0
 20
1.0
 30
0.0
  9
$USERI1
 70
     0
  9
$USERI2
 70
     0
  9
$USERI3
 70
     0
  9
$USERI4
 70
     0
  9
$USERI5
 70
     0
  9
$USERR1
 40
0.0
  9
$USERR2
 40
0.0
  9
$USERR3
 40
0.0
  9
$USERR4
 40
0.0
  9
$USERR5
 40
0.0
  9
$WORLDVIEW
 70
     1
  0
ENDSEC
  0
SECTION
  2
TABLES
  0
TABLE
  2
VPORT
 70
     2
  0
VPORT
  2
*ACTIVE
 70
     0
 10
0.0
 20
0.0
 11
1.0
 21
1.0
 12
27.083333
 22
15.399368
 13
0.0
 23
0.0
 14
1.0
 24
1.0
 15
0.0
 25
0.0
 16
0.0
 26
0.0
 36
1.0
 17
0.0
 27
0.0
 37
0.0
 40
30.798736
 41
1.75873
 42
50.0
 43
0.0
 44
0.0
 50
0.0
 51
0.0
 71
     0
 72
   100
 73
     1
 74
     1
 75
     1
 76
     0
 77
     0
 78
     0
  0
ENDTAB
  0
TABLE
  2
LTYPE
 70
     5
  0
LTYPE
  2
CONTINUOUS
 70
    64
  3
________________________
 72
    65
 73
     0
 40
0.0
  0
LTYPE
  2
DOT
 70
    64
  3
_ _ _ _ _ _ _ _ _ _ _ _
 72
    65
 73
     2
 40
0.375
 49
0.25
 49
-0.125
  0
LTYPE
  2
HIDDEN
 70
    64
  3
__ __ __ __ __ __ __ __
 72
    65
 73
     2
 40
0.75
 49
0.5
 49
-0.25
  0
LTYPE
  2
CENTER
 70
    64
  3
____ _ ____ _ ____ _ ___
 72
    65
 73
     4
 40
2.0
 49
1.25
 49
-0.25
 49
0.25
 49
-0.25
  0
LTYPE
  2
PHANTOM
 70
    64
  3
_____ _ _ _____ _ _ ____
 72
    65
 73
     6
 40
2.5
 49
1.25
 49
-0.25
 49
0.25
 49
-0.25
 49
0.25
 49
-0.25
  0
ENDTAB
  0
TABLE
  2
LAYER
 70
     6
  0
LAYER
  2
0
 70
    64
 62
     7
  6
CONTINUOUS
  0
LAYER
  2
WORKLAYER
 70
    64
 62
     7
  6
CONTINUOUS
  0
LAYER
  2
AREA
 70
    64
 62
     7
  6
CONTINUOUS
  0
LAYER
  2
SDIM
 70
    64
 62
     7
  6
CONTINUOUS
  0
LAYER
  2
SSYMB
 70
    64
 62
     7
  6
CONTINUOUS
  0
ENDTAB
  0
TABLE
  2
STYLE
 70
     3
  0
STYLE
  2
STANDARD
 70
    64
 40
0.0
 41
1.0
 50
0.0
 71
     0
 42
4.0
  3
txt
  4

  0
STYLE
  2
KANJI
 70
    64
 40
0.0
 41
1.0
 50
0.0
 71
     0
 42
2.0
  3
TXT
  4
BIGFONT
  0
ENDTAB
  0
TABLE
  2
VIEW
 70
     0
  0
ENDTAB
  0
TABLE
  2
UCS
 70
     0
  0
ENDTAB
  0
TABLE
  2
DWGMGR
 70
     0
  0
ENDTAB
  0
ENDSEC
  0
SECTION
  2
BLOCKS
  0
BLOCK
  8
WORKLAYER
  2
DXF1
 70
    64
 10
0.0
 20
0.0
 30
0.0
  3
DXF1
  0
LINE
  8
WORKLAYER
  6
CONTINUOUS
 62
     4
 10
-8.9999580
 20
163.3999939
 30
0.0
 11
10.6000443
 21
163.3999939
 31
0.0
 62
     4
  0
LINE
  8
WORKLAYER
  6
CONTINUOUS
 62
     4
 10
4.3500438
 20
191.3999939
 30
0.0
 11
-2.7499583
 21
191.3999939
 31
0.0
 62
     4
  0
LINE
  8
WORKLAYER
  6
CONTINUOUS
 62
     4
 10
-8.9999580
 20
181.9533997
 30
0.0
 11
-8.9999580
 21
163.3999939
 31
0.0
 62
     4
  0
ARC
  8
WORKLAYER
  6
CONTINUOUS
 62
     4
 10
0.8000488
 20
175.7987976
 30
0.0
 40
16.0000000
 50
102.8191986
 51
115.9445038
  0
LINE
  8
WORKLAYER
  6
CONTINUOUS
 62
     4
 10
-8.9999580
 20
181.9533997
 30
0.0
 11
-3.5499492
 21
185.1000061
 31
0.0
 62
     4
  0
ARC
  8
WORKLAYER
  6
CONTINUOUS
 62
     4
 10
0.8000488
 20
203.7012024
 30
0.0
 40
16.0000000
 50
244.0554962
 51
254.2241058
  0
LINE
  8
WORKLAYER
  6
CONTINUOUS
 62
     4
 10
-6.1999593
 20
190.1862030
 30
0.0
 11
-6.1999593
 21
189.3137054
 31
0.0
 62
     4
  0
LINE
  8
WORKLAYER
  6
CONTINUOUS
 62
     4
 10
-3.5499492
 20
188.3038940
 30
0.0
 11
-3.5499492
 21
185.1000061
 31
0.0
 62
     4
  0
ARC
  8
WORKLAYER
  6
CONTINUOUS
 62
     4
 10
0.8000488
 20
175.7987976
 30
0.0
 40
16.0000000
 50
64.0555191
 51
77.1808167
  0
LINE
  8
WORKLAYER
  6
CONTINUOUS
 62
     4
 10
10.6000443
 20
181.9533997
 30
0.0
 11
5.1500549
 21
185.1000061
 31
0.0
 62
     4
  0
ARC
  8
WORKLAYER
  6
CONTINUOUS
 62
     4
 10
0.8000488
 20
203.7012024
 30
0.0
 40
16.0000000
 50
285.7759094
 51
295.9444885
  0
LINE
  8
WORKLAYER
  6
CONTINUOUS
 62
     4
 10
7.8000488
 20
190.1862030
 30
0.0
 11
7.8000488
 21
189.3137054
 31
0.0
 62
     4
  0
LINE
  8
WORKLAYER
  6
CONTINUOUS
 62
     4
 10
5.1500549
 20
188.3038940
 30
0.0
 11
5.1500549
 21
185.1000061
 31
0.0
 62
     4
  0
LINE
  8
WORKLAYER
  6
CONTINUOUS
 62
     4
 10
10.6000443
 20
181.9533997
 30
0.0
 11
10.6000443
 21
163.3999939
 31
0.0
 62
     4
  0
LINE
  8
WORKLAYER
  6
CONTINUOUS
 62
     4
 10
-3.5499492
 20
185.1000061
 30
0.0
 11
5.1500549
 21
185.1000061
 31
0.0
 62
     4
  0
LINE
  8
WORKLAYER
  6
CONTINUOUS
 62
     4
 10
-3.5499492
 20
188.3038940
 30
0.0
 11
5.1500549
 21
188.3038940
 31
0.0
 62
     4
  0
LINE
  8
WORKLAYER
  6
CONTINUOUS
 62
     3
 10
-6.1999593
 20
190.1862030
 30
0.0
 11
7.8000488
 21
190.1862030
 31
0.0
 62
     3
  0
LINE
  8
WORKLAYER
  6
CONTINUOUS
 62
     3
 10
7.8000488
 20
189.3137054
 30
0.0
 11
-6.1999593
 21
189.3137054
 31
0.0
 62
     3
  0
ARC
  8
WORKLAYER
  6
CONTINUOUS
 62
     4
 10
0.8000488
 20
172.6445007
 30
0.0
 40
10.5197802
 50
62.2386894
 51
117.7612991
  0
LINE
  8
WORKLAYER
  6
CONTINUOUS
 62
     4
 10
-4.0999494
 20
181.9533997
 30
0.0
 11
-4.0999494
 21
163.3999939
 31
0.0
 62
     4
  0
LINE
  8
WORKLAYER
  6
CONTINUOUS
 62
     4
 10
5.7000427
 20
181.9533997
 30
0.0
 11
5.7000427
 21
163.3999939
 31
0.0
 62
     4
  0
ARC
  8
WORKLAYER
  6
CONTINUOUS
 62
     4
 10
-6.5499492
 20
177.7098999
 30
0.0
 40
4.9000049
 50
60.0000000
 51
120.0000000
  0
ARC
  8
WORKLAYER
  6
CONTINUOUS
 62
     4
 10
8.1500549
 20
177.7098999
 30
0.0
 40
4.9000049
 50
60.0000000
 51
120.0000000
  0
ENDBLK
  0
BLOCK
  8
WORKLAYER
  2
DXF2
 70
    64
 10
0.0
 20
0.0
 30
0.0
  3
DXF2
  0
LINE
  8
WORKLAYER
  6
CONTINUOUS
 62
     4
 10
238.9171448
 20
163.3999939
 30
0.0
 11
254.3225555
 21
163.3999939
 31
0.0
 62
     4
  0
LINE
  8
WORKLAYER
  6
CONTINUOUS
 62
     4
 10
250.1698456
 20
191.3999939
 30
0.0
 11
243.0698547
 21
191.3999939
 31
0.0
 62
     4
  0
ARC
  8
WORKLAYER
  6
CONTINUOUS
 62
     4
 10
246.6198425
 20
175.7987976
 30
0.0
 40
16.0000000
 50
102.8191986
 51
115.9445038
  0
LINE
  8
WORKLAYER
  6
CONTINUOUS
 62
     4
 10
238.9171448
 20
183.1643066
 30
0.0
 11
242.2698517
 21
185.1000061
 31
0.0
 62
     4
  0
ARC
  8
WORKLAYER
  6
CONTINUOUS
 62
     4
 10
246.6198425
 20
203.7012024
 30
0.0
 40
16.0000000
 50
244.0554962
 51
254.2241058
  0
LINE
  8
WORKLAYER
  6
CONTINUOUS
 62
     4
 10
239.6198425
 20
190.1862030
 30
0.0
 11
239.6198425
 21
189.3137054
 31
0.0
 62
     4
  0
LINE
  8
WORKLAYER
  6
CONTINUOUS
 62
     4
 10
242.2698517
 20
188.3038940
 30
0.0
 11
242.2698517
 21
185.1000061
 31
0.0
 62
     4
  0
ARC
  8
WORKLAYER
  6
CONTINUOUS
 62
     4
 10
246.6198425
 20
175.7987976
 30
0.0
 40
16.0000000
 50
64.0555191
 51
77.1808167
  0
LINE
  8
WORKLAYER
  6
CONTINUOUS
 62
     4
 10
254.3225555
 20
183.1643066
 30
0.0
 11
250.9698486
 21
185.1000061
 31
0.0
 62
     4
  0
ARC
  8
WORKLAYER
  6
CONTINUOUS
 62
     4
 10
246.6198425
 20
203.7012024
 30
0.0
 40
16.0000000
 50
285.7759094
 51
295.9444885
  0
LINE
  8
WORKLAYER
  6
CONTINUOUS
 62
     4
 10
253.6198425
 20
190.1862030
 30
0.0
 11
253.6198425
 21
189.3137054
 31
0.0
 62
     4
  0
LINE
  8
WORKLAYER
  6
CONTINUOUS
 62
     4
 10
250.9698486
 20
188.3038940
 30
0.0
 11
250.9698486
 21
185.1000061
 31
0.0
 62
     4
  0
LINE
  8
WORKLAYER
  6
CONTINUOUS
 62
     4
 10
242.2698517
 20
185.1000061
 30
0.0
 11
250.9698486
 21
185.1000061
 31
0.0
 62
     4
  0
LINE
  8
WORKLAYER
  6
CONTINUOUS
 62
     4
 10
242.2698517
 20
188.3038940
 30
0.0
 11
250.9698486
 21
188.3038940
 31
0.0
 62
     4
  0
LINE
  8
WORKLAYER
  6
CONTINUOUS
 62
     3
 10
239.6198425
 20
190.1862030
 30
0.0
 11
253.6198425
 21
190.1862030
 31
0.0
 62
     3
  0
LINE
  8
WORKLAYER
  6
CONTINUOUS
 62
     3
 10
253.6198425
 20
189.3137054
 30
0.0
 11
239.6198425
 21
189.3137054
 31
0.0
 62
     3
  0
LINE
  8
WORKLAYER
  6
CONTINUOUS
 62
     4
 10
238.9171448
 20
183.1643066
 30
0.0
 11
238.9171448
 21
163.3999939
 31
0.0
 62
     4
  0
LINE
  8
WORKLAYER
  6
CONTINUOUS
 62
     4
 10
254.3225555
 20
183.1643066
 30
0.0
 11
254.3225555
 21
163.3999939
 31
0.0
 62
     4
  0
ARC
  8
WORKLAYER
  6
CONTINUOUS
 62
     4
 10
242.7684479
 20
176.4934998
 30
0.0
 40
7.7027302
 50
60.0000000
 51
120.0000000
  0
ARC
  8
WORKLAYER
  6
CONTINUOUS
 62
     4
 10
250.4712524
 20
176.4934998
 30
0.0
 40
7.7027302
 50
59.9997292
 51
120.0000000
  0
ENDBLK
  0
BLOCK
  8
WORKLAYER
  2
DXF3
 70
    64
 10
0.0
 20
0.0
 30
0.0
  3
DXF3
  0
LINE
  8
WORKLAYER
  6
CONTINUOUS
 62
     4
 10
-16.2001514
 20
135.0000000
 30
0.0
 11
-11.3881512
 21
135.0000000
 31
0.0
 62
     4
  0
LINE
  8
WORKLAYER
  6
CONTINUOUS
 62
     4
 10
12.9878387
 20
135.0000000
 30
0.0
 11
17.7998486
 21
135.0000000
 31
0.0
 62
     4
  0
LINE
  8
WORKLAYER
  6
CONTINUOUS
 62
     4
 10
17.7998486
 20
135.0000000
 30
0.0
 11
17.7998486
 21
137.0000000
 31
0.0
 62
     4
  0
LINE
  8
WORKLAYER
  6
CONTINUOUS
 62
     4
 10
17.7998486
 20
137.0000000
 30
0.0
 11
0.8000488
 21
137.0000000
 31
0.0
 62
     4
  0
LINE
  8
WORKLAYER
  6
CONTINUOUS
 62
     4
 10
0.8000488
 20
137.0000000
 30
0.0
 11
-16.2001514
 21
137.0000000
 31
0.0
 62
     4
  0
LINE
  8
WORKLAYER
  6
CONTINUOUS
 62
     4
 10
-16.2001514
 20
137.0000000
 30
0.0
 11
-16.2001514
 21
135.0000000
 31
0.0
 62
     4
  0
LINE
  8
WORKLAYER
  6
CONTINUOUS
 62
     4
 10
-11.3881512
 20
137.0000000
 30
0.0
 11
-11.3881512
 21
135.0000000
 31
0.0
 62
     4
  0
LINE
  8
WORKLAYER
  6
CONTINUOUS
 62
     4
 10
12.9878387
 20
137.0000000
 30
0.0
 11
12.9878387
 21
135.0000000
 31
0.0
 62
     4
  0
ENDBLK
  0
BLOCK
  8
WORKLAYER
  2
DXF4
 70
    64
 10
0.0
 20
0.0
 30
0.0
  3
DXF4
  0
LINE
  8
WORKLAYER
  6
CONTINUOUS
 62
     4
 10
-10.7001514
 20
146.5000000
 30
0.0
 11
0.8000488
 21
146.5000000
 31
0.0
 62
     4
  0
LINE
  8
WORKLAYER
  6
CONTINUOUS
 62
     4
 10
0.8000488
 20
146.5000000
 30
0.0
 11
12.2998486
 21
146.5000000
 31
0.0
 62
     4
  0
LINE
  8
WORKLAYER
  6
CONTINUOUS
 62
     4
 10
-11.2001514
 20
141.5000000
 30
0.0
 11
0.8000488
 21
141.5000000
 31
0.0
 62
     4
  0
LINE
  8
WORKLAYER
  6
CONTINUOUS
 62
     4
 10
0.8000488
 20
141.5000000
 30
0.0
 11
12.7998486
 21
141.5000000
 31
0.0
 62
     4
  0
LINE
  8
WORKLAYER
  6
CONTINUOUS
 62
     4
 10
-11.2001514
 20
141.5000000
 30
0.0
 11
-12.2001514
 21
140.5000000
 31
0.0
 62
     4
  0
LINE
  8
WORKLAYER
  6
CONTINUOUS
 62
     4
 10
-12.2001514
 20
140.5000000
 30
0.0
 11
-12.2001514
 21
137.0000000
 31
0.0
 62
     4
  0
LINE
  8
WORKLAYER
  6
CONTINUOUS
 62
     4
 10
13.7998486
 20
140.5000000
 30
0.0
 11
13.7998486
 21
137.0000000
 31
0.0
 62
     4
  0
LINE
  8
WORKLAYER
  6
CONTINUOUS
 62
     4
 10
13.7998486
 20
140.5000000
 30
0.0
 11
12.7998486
 21
141.5000000
 31
0.0
 62
     4
  0
LINE
  8
WORKLAYER
  6
CONTINUOUS
 62
     2
 10
-11.3881512
 20
141.5000000
 30
0.0
 11
-11.3881512
 21
137.0000000
 31
0.0
 62
     2
  0
LINE
  8
WORKLAYER
  6
CONTINUOUS
 62
     2
 10
12.9878387
 20
141.5000000
 30
0.0
 11
12.9878387
 21
137.0000000
 31
0.0
 62
     2
  0
LINE
  8
WORKLAYER
  6
CONTINUOUS
 62
     4
 10
12.2998486
 20
146.5000000
 30
0.0
 11
12.2998486
 21
141.5000000
 31
0.0
 62
     4
  0
LINE
  8
WORKLAYER
  6
CONTINUOUS
 62
     4
 10
-10.7001514
 20
146.5000000
 30
0.0
 11
-10.7001514
 21
141.5000000
 31
0.0
 62
     4
  0
ENDBLK
  0
BLOCK
  8
AREA
  2
DXF10
 70
    64
 10
0.0
 20
0.0
 30
0.0
  3
DXF10
  0
LINE
  8
AREA
  6
CONTINUOUS
 62
     4
 10
216.6197510
 20
69.4238892
 30
0.0
 11
216.6197510
 21
63.2454987
 31
0.0
 62
     4
  0
ARC
  8
AREA
  6
CONTINUOUS
 62
     4
 10
221.6197510
 20
69.4238892
 30
0.0
 40
5.0000000
 50
145.0079956
 51
180.0000000
  0
ENDBLK
  0
BLOCK
  8
AREA
  2
DXF12
 70
    64
 10
0.0
 20
0.0
 30
0.0
  3
DXF12
  0
ARC
  8
AREA
  6
CONTINUOUS
 62
     4
 10
222.6197510
 20
76.0000000
 30
0.0
 40
5.0000000
 50
0.0000000
 51
64.6231079
  0
ARC
  8
AREA
  6
CONTINUOUS
 62
     4
 10
225.6198425
 20
82.3245926
 30
0.0
 40
2.0000000
 50
188.9766998
 51
244.6228943
  0
ARC
  8
AREA
  6
CONTINUOUS
 62
     4
 10
225.6198425
 20
82.3245926
 30
0.0
 40
2.0000000
 50
180.0000000
 51
188.9766998
  0
ARC
  8
AREA
  6
CONTINUOUS
 62
     4
 10
221.6687469
 20
81.7003937
 30
0.0
 40
2.0000000
 50
325.0079956
 51
8.9767151
  0
ENDBLK
  0
BLOCK
  8
AREA
  2
DXF17
 70
    64
 10
0.0
 20
0.0
 30
0.0
  3
DXF17
  0
LINE
  8
AREA
  6
CONTINUOUS
 62
     4
 10
229.2197418
 20
134.0000000
 30
0.0
 11
229.2197418
 21
116.5000000
 31
0.0
 62
     4
  0
LINE
  8
AREA
  6
CONTINUOUS
 62
     4
 10
229.2197418
 20
134.0000000
 30
0.0
 11
230.2197418
 21
135.0000000
 31
0.0
 62
     4
  0
ENDBLK
  0
BLOCK
  8
WORKLAYER
  2
DXF30
 70
    64
 10
0.0
 20
0.0
 30
0.0
  3
DXF30
  0
LINE
  8
WORKLAYER
  6
CONTINUOUS
 62
     4
 10
316.6198425
 20
-160.0000000
 30
0.0
 11
316.6198425
 21
-142.0000000
 31
0.0
 62
     4
  0
LINE
  8
WORKLAYER
  6
CONTINUOUS
 62
     4
 10
314.6198425
 20
-140.0000000
 30
0.0
 11
246.6198425
 21
-140.0000000
 31
0.0
 62
     4
  0
LINE
  8
WORKLAYER
  6
CONTINUOUS
 62
     4
 10
246.6198425
 20
-140.0000000
 30
0.0
 11
178.6198425
 21
-140.0000000
 31
0.0
 62
     4
  0
LINE
  8
WORKLAYER
  6
CONTINUOUS
 62
     4
 10
176.6198425
 20
-142.0000000
 30
0.0
 11
176.6198425
 21
-160.0000000
 31
0.0
 62
     4
  0
LINE
  8
WORKLAYER
  6
CONTINUOUS
 62
     4
 10
176.6198425
 20
-160.0000000
 30
0.0
 11
316.6198425
 21
-160.0000000
 31
0.0
 62
     4
  0
ARC
  8
WORKLAYER
  6
CONTINUOUS
 62
     4
 10
280.8479614
 20
-135.0000000
 30
0.0
 40
5.0000000
 50
189.5626068
 51
270.0000000
  0
ARC
  8
WORKLAYER
  6
CONTINUOUS
 62
     4
 10
212.3917542
 20
-135.0000000
 30
0.0
 40
5.0000000
 50
270.0000000
 51
350.4372864
  0
ARC
  8
WORKLAYER
  6
CONTINUOUS
 62
     4
 10
314.6198425
 20
-142.0000000
 30
0.0
 40
2.0000000
 50
0.0000000
 51
90.0000000
  0
ARC
  8
WORKLAYER
  6
CONTINUOUS
 62
     4
 10
178.6198425
 20
-142.0000000
 30
0.0
 40
2.0000000
 50
90.0000000
 51
180.0000000
  0
ENDBLK
  0
BLOCK
  8
0
  2
DXF31
 70
    64
 10
0.0
 20
0.0
 30
0.0
  3
DXF31
  0
LINE
  8
0
  6
CONTINUOUS
 62
     4
 10
273.8894348
 20
-89.5000000
 30
0.0
 11
272.4197388
 21
-88.6514969
 31
0.0
 62
     4
  0
LINE
  8
0
  6
CONTINUOUS
 62
     4
 10
294.3590393
 20
-81.5000000
 30
0.0
 11
272.4197388
 21
-81.5000000
 31
0.0
 62
     4
  0
LINE
  8
0
  6
CONTINUOUS
 62
     4
 10
292.8893433
 20
-89.5000000
 30
0.0
 11
273.8894348
 21
-89.5000000
 31
0.0
 62
     4
  0
LINE
  8
0
  6
CONTINUOUS
 62
     4
 10
272.4197388
 20
-88.6514969
 30
0.0
 11
272.4197388
 21
-81.5000000
 31
0.0
 62
     4
  0
LINE
  8
0
  6
CONTINUOUS
 62
     4
 10
294.3590393
 20
-88.6514969
 30
0.0
 11
294.3590393
 21
-81.5000000
 31
0.0
 62
     4
  0
LINE
  8
0
  6
CONTINUOUS
 62
     4
 10
292.8894348
 20
-89.5000000
 30
0.0
 11
294.3590393
 21
-88.6514969
 31
0.0
 62
     4
  0
ARC
  8
0
  6
CONTINUOUS
 62
     4
 10
283.3894348
 20
-73.0455170
 30
0.0
 40
16.4544792
 50
250.5287933
 51
289.4711914
  0
LINE
  8
0
  6
CONTINUOUS
 62
     4
 10
288.8742371
 20
-88.5589523
 30
0.0
 11
288.8742371
 21
-81.5000000
 31
0.0
 62
     4
  0
LINE
  8
0
  6
CONTINUOUS
 62
     4
 10
277.9045410
 20
-88.5589523
 30
0.0
 11
277.9045410
 21
-81.5000000
 31
0.0
 62
     4
  0
ARC
  8
0
  6
CONTINUOUS
 62
     4
 10
292.8893433
 20
-80.4636993
 30
0.0
 40
9.0363007
 50
243.6190033
 51
270.0000000
  0
ARC
  8
0
  6
CONTINUOUS
 62
     4
 10
273.8894348
 20
-80.4636993
 30
0.0
 40
9.0363007
 50
270.0000000
 51
296.3810120
  0
ENDBLK
  0
BLOCK
  8
0
  2
DXF32
 70
    64
 10
0.0
 20
0.0
 30
0.0
  3
DXF32
  0
LINE
  8
0
  6
CONTINUOUS
 62
     4
 10
219.3502502
 20
-89.5000000
 30
0.0
 11
220.8199463
 21
-88.6514969
 31
0.0
 62
     4
  0
LINE
  8
0
  6
CONTINUOUS
 62
     4
 10
198.8806458
 20
-81.5000000
 30
0.0
 11
220.8199463
 21
-81.5000000
 31
0.0
 62
     4
  0
LINE
  8
0
  6
CONTINUOUS
 62
     4
 10
200.3503418
 20
-89.5000000
 30
0.0
 11
219.3502502
 21
-89.5000000
 31
0.0
 62
     4
  0
LINE
  8
0
  6
CONTINUOUS
 62
     4
 10
220.8199463
 20
-88.6514969
 30
0.0
 11
220.8199463
 21
-81.5000000
 31
0.0
 62
     4
  0
LINE
  8
0
  6
CONTINUOUS
 62
     4
 10
198.8806458
 20
-88.6514969
 30
0.0
 11
198.8806458
 21
-81.5000000
 31
0.0
 62
     4
  0
LINE
  8
0
  6
CONTINUOUS
 62
     4
 10
200.3502502
 20
-89.5000000
 30
0.0
 11
198.8806458
 21
-88.6514969
 31
0.0
 62
     4
  0
ARC
  8
0
  6
CONTINUOUS
 62
     4
 10
209.8502502
 20
-73.0455170
 30
0.0
 40
16.4544792
 50
250.5287933
 51
289.4711914
  0
LINE
  8
0
  6
CONTINUOUS
 62
     4
 10
204.3654480
 20
-88.5589523
 30
0.0
 11
204.3654480
 21
-81.5000000
 31
0.0
 62
     4
  0
LINE
  8
0
  6
CONTINUOUS
 62
     4
 10
215.3351440
 20
-88.5589523
 30
0.0
 11
215.3351440
 21
-81.5000000
 31
0.0
 62
     4
  0
ARC
  8
0
  6
CONTINUOUS
 62
     4
 10
200.3503418
 20
-80.4636993
 30
0.0
 40
9.0363007
 50
270.0000000
 51
296.3810120
  0
ARC
  8
0
  6
CONTINUOUS
 62
     4
 10
219.3502502
 20
-80.4636993
 30
0.0
 40
9.0363007
 50
243.6190033
 51
270.0000000
  0
ENDBLK
  0
BLOCK
  8
WORKLAYER
  2
DXF33
 70
    64
 10
0.0
 20
0.0
 30
0.0
  3
DXF33
  0
LINE
  8
WORKLAYER
  6
CONTINUOUS
 62
     4
 10
207.6833496
 20
-58.5000000
 30
0.0
 11
208.1783447
 21
-58.5000000
 31
0.0
 62
     4
  0
LINE
  8
WORKLAYER
  6
CONTINUOUS
 62
     4
 10
285.0613403
 20
-58.5000000
 30
0.0
 11
285.5562439
 21
-58.5000000
 31
0.0
 62
     4
  0
ENDBLK
  0
BLOCK
  8
WORKLAYER
  2
DXF34
 70
    64
 10
0.0
 20
0.0
 30
0.0
  3
DXF34
  0
LINE
  8
WORKLAYER
  6
CONTINUOUS
 62
     4
 10
295.6198425
 20
-79.5000000
 30
0.0
 11
295.6198425
 21
-64.5000000
 31
0.0
 62
     4
  0
LINE
  8
WORKLAYER
  6
CONTINUOUS
 62
     4
 10
293.6198425
 20
-62.5000000
 30
0.0
 11
278.1436462
 21
-62.5000000
 31
0.0
 62
     4
  0
LINE
  8
WORKLAYER
  6
CONTINUOUS
 62
     4
 10
215.0960541
 20
-62.5000000
 30
0.0
 11
199.6198425
 21
-62.5000000
 31
0.0
 62
     4
  0
LINE
  8
WORKLAYER
  6
CONTINUOUS
 62
     4
 10
197.6198425
 20
-64.5000000
 30
0.0
 11
197.6198425
 21
-79.5000000
 31
0.0
 62
     4
  0
LINE
  8
WORKLAYER
  6
CONTINUOUS
 62
     4
 10
199.6198425
 20
-81.5000000
 30
0.0
 11
246.6198425
 21
-81.5000000
 31
0.0
 62
     4
  0
LINE
  8
WORKLAYER
  6
CONTINUOUS
 62
     4
 10
246.6198425
 20
-81.5000000
 30
0.0
 11
293.6198425
 21
-81.5000000
 31
0.0
 62
     4
  0
ARC
  8
WORKLAYER
  6
CONTINUOUS
 62
     4
 10
210.6522522
 20
-86.5000000
 30
0.0
 40
5.0000000
 50
13.1339102
 51
90.0000000
  0
ARC
  8
WORKLAYER
  6
CONTINUOUS
 62
     4
 10
199.6198425
 20
-79.5000000
 30
0.0
 40
2.0000000
 50
180.0000000
 51
270.0000000
  0
ARC
  8
WORKLAYER
  6
CONTINUOUS
 62
     4
 10
199.6198425
 20
-64.5000000
 30
0.0
 40
2.0000000
 50
90.0000000
 51
180.0000000
  0
ARC
  8
WORKLAYER
  6
CONTINUOUS
 62
     4
 10
293.6198425
 20
-79.5000000
 30
0.0
 40
2.0000000
 50
270.0000000
 51
0.0000000
  0
ARC
  8
WORKLAYER
  6
CONTINUOUS
 62
     4
 10
293.6198425
 20
-64.5000000
 30
0.0
 40
2.0000000
 50
0.0000000
 51
90.0000000
  0
ENDBLK
  0
BLOCK
  8
WORKLAYER
  2
DXF35
 70
    64
 10
0.0
 20
0.0
 30
0.0
  3
DXF35
  0
LINE
  8
WORKLAYER
  6
CONTINUOUS
 62
     4
 10
295.6198425
 20
-49.9900017
 30
0.0
 11
295.6198425
 21
-56.5000000
 31
0.0
 62
     4
  0
LINE
  8
WORKLAYER
  6
CONTINUOUS
 62
     4
 10
293.6198425
 20
-58.5000000
 30
0.0
 11
285.5562439
 21
-58.5000000
 31
0.0
 62
     4
  0
LINE
  8
WORKLAYER
  6
CONTINUOUS
 62
     4
 10
207.6833496
 20
-58.5000000
 30
0.0
 11
199.6198425
 21
-58.5000000
 31
0.0
 62
     4
  0
LINE
  8
WORKLAYER
  6
CONTINUOUS
 62
     4
 10
197.6198425
 20
-56.5000000
 30
0.0
 11
197.6198425
 21
-49.9900017
 31
0.0
 62
     4
  0
ARC
  8
WORKLAYER
  6
CONTINUOUS
 62
     4
 10
199.6198425
 20
-56.5000000
 30
0.0
 40
2.0000000
 50
180.0000000
 51
270.0000000
  0
ARC
  8
WORKLAYER
  6
CONTINUOUS
 62
     4
 10
293.6198425
 20
-56.5000000
 30
0.0
 40
2.0000000
 50
270.0000000
 51
0.0000000
  0
ENDBLK
  0
BLOCK
  8
WORKLAYER
  2
DXF37
 70
    64
 10
0.0
 20
0.0
 30
0.0
  3
DXF37
  0
LINE
  8
WORKLAYER
  6
CONTINUOUS
 62
     4
 10
295.6198425
 20
-79.5000000
 30
0.0
 11
295.6198425
 21
-64.5000000
 31
0.0
 62
     4
  0
LINE
  8
WORKLAYER
  6
CONTINUOUS
 62
     4
 10
293.6198425
 20
-62.5000000
 30
0.0
 11
277.3894348
 21
-62.5000000
 31
0.0
 62
     4
  0
LINE
  8
WORKLAYER
  6
CONTINUOUS
 62
     4
 10
215.0960541
 20
-62.5000000
 30
0.0
 11
199.6198425
 21
-62.5000000
 31
0.0
 62
     4
  0
LINE
  8
WORKLAYER
  6
CONTINUOUS
 62
     4
 10
197.6198425
 20
-64.5000000
 30
0.0
 11
197.6198425
 21
-79.5000000
 31
0.0
 62
     4
  0
LINE
  8
WORKLAYER
  6
CONTINUOUS
 62
     4
 10
199.6198425
 20
-81.5000000
 30
0.0
 11
246.6198425
 21
-81.5000000
 31
0.0
 62
     4
  0
LINE
  8
WORKLAYER
  6
CONTINUOUS
 62
     4
 10
246.6198425
 20
-81.5000000
 30
0.0
 11
293.6198425
 21
-81.5000000
 31
0.0
 62
     4
  0
ARC
  8
WORKLAYER
  6
CONTINUOUS
 62
     4
 10
199.6198425
 20
-79.5000000
 30
0.0
 40
2.0000000
 50
180.0000000
 51
270.0000000
  0
ARC
  8
WORKLAYER
  6
CONTINUOUS
 62
     4
 10
199.6198425
 20
-64.5000000
 30
0.0
 40
2.0000000
 50
90.0000000
 51
180.0000000
  0
ARC
  8
WORKLAYER
  6
CONTINUOUS
 62
     4
 10
293.6198425
 20
-79.5000000
 30
0.0
 40
2.0000000
 50
270.0000000
 51
0.0000000
  0
ARC
  8
WORKLAYER
  6
CONTINUOUS
 62
     4
 10
293.6198425
 20
-64.5000000
 30
0.0
 40
2.0000000
 50
0.0000000
 51
90.0000000
  0
ENDBLK
  0
BLOCK
  8
WORKLAYER
  2
DXF39
 70
    64
 10
0.0
 20
0.0
 30
0.0
  3
DXF39
  0
LINE
  8
WORKLAYER
  6
CONTINUOUS
 62
     4
 10
235.1198425
 20
146.5000000
 30
0.0
 11
246.6200562
 21
146.5000000
 31
0.0
 62
     4
  0
LINE
  8
WORKLAYER
  6
CONTINUOUS
 62
     4
 10
246.6200562
 20
146.5000000
 30
0.0
 11
258.1198425
 21
146.5000000
 31
0.0
 62
     4
  0
LINE
  8
WORKLAYER
  6
CONTINUOUS
 62
     4
 10
234.6198425
 20
141.5000000
 30
0.0
 11
246.6200562
 21
141.5000000
 31
0.0
 62
     4
  0
LINE
  8
WORKLAYER
  6
CONTINUOUS
 62
     4
 10
246.6200562
 20
141.5000000
 30
0.0
 11
258.6198425
 21
141.5000000
 31
0.0
 62
     4
  0
LINE
  8
WORKLAYER
  6
CONTINUOUS
 62
     4
 10
234.6198425
 20
141.5000000
 30
0.0
 11
233.6198425
 21
140.5000000
 31
0.0
 62
     4
  0
LINE
  8
WORKLAYER
  6
CONTINUOUS
 62
     4
 10
233.6198425
 20
140.5000000
 30
0.0
 11
233.6198425
 21
137.0000000
 31
0.0
 62
     4
  0
LINE
  8
WORKLAYER
  6
CONTINUOUS
 62
     4
 10
259.6198425
 20
140.5000000
 30
0.0
 11
259.6198425
 21
137.0000000
 31
0.0
 62
     4
  0
LINE
  8
WORKLAYER
  6
CONTINUOUS
 62
     4
 10
259.6198425
 20
140.5000000
 30
0.0
 11
258.6198425
 21
141.5000000
 31
0.0
 62
     4
  0
LINE
  8
WORKLAYER
  6
CONTINUOUS
 62
     2
 10
234.4318542
 20
141.5000000
 30
0.0
 11
234.4318542
 21
137.0000000
 31
0.0
 62
     2
  0
LINE
  8
WORKLAYER
  6
CONTINUOUS
 62
     2
 10
258.8078613
 20
141.5000000
 30
0.0
 11
258.8078613
 21
137.0000000
 31
0.0
 62
     2
  0
LINE
  8
WORKLAYER
  6
CONTINUOUS
 62
     4
 10
258.1198425
 20
146.5000000
 30
0.0
 11
258.1198425
 21
141.5000000
 31
0.0
 62
     4
  0
LINE
  8
WORKLAYER
  6
CONTINUOUS
 62
     4
 10
235.1198425
 20
146.5000000
 30
0.0
 11
235.1198425
 21
141.5000000
 31
0.0
 62
     4
  0
ENDBLK
  0
BLOCK
  8
WORKLAYER
  2
DXF40
 70
    64
 10
0.0
 20
0.0
 30
0.0
  3
DXF40
  0
LINE
  8
WORKLAYER
  6
CONTINUOUS
 62
     4
 10
229.6198425
 20
135.0000000
 30
0.0
 11
234.4318542
 21
135.0000000
 31
0.0
 62
     4
  0
LINE
  8
WORKLAYER
  6
CONTINUOUS
 62
     4
 10
258.8078613
 20
135.0000000
 30
0.0
 11
263.6198425
 21
135.0000000
 31
0.0
 62
     4
  0
LINE
  8
WORKLAYER
  6
CONTINUOUS
 62
     4
 10
263.6198425
 20
135.0000000
 30
0.0
 11
263.6198425
 21
137.0000000
 31
0.0
 62
     4
  0
LINE
  8
WORKLAYER
  6
CONTINUOUS
 62
     4
 10
263.6198425
 20
137.0000000
 30
0.0
 11
246.6200562
 21
137.0000000
 31
0.0
 62
     4
  0
LINE
  8
WORKLAYER
  6
CONTINUOUS
 62
     4
 10
246.6200562
 20
137.0000000
 30
0.0
 11
229.6198425
 21
137.0000000
 31
0.0
 62
     4
  0
LINE
  8
WORKLAYER
  6
CONTINUOUS
 62
     4
 10
229.6198425
 20
137.0000000
 30
0.0
 11
229.6198425
 21
135.0000000
 31
0.0
 62
     4
  0
LINE
  8
WORKLAYER
  6
CONTINUOUS
 62
     4
 10
234.4318542
 20
137.0000000
 30
0.0
 11
234.4318542
 21
135.0000000
 31
0.0
 62
     4
  0
LINE
  8
WORKLAYER
  6
CONTINUOUS
 62
     4
 10
258.8078613
 20
137.0000000
 30
0.0
 11
258.8078613
 21
135.0000000
 31
0.0
 62
     4
  0
ENDBLK
  0
BLOCK
  8
WORKLAYER
  2
DXF41
 70
    64
 10
0.0
 20
0.0
 30
0.0
  3
DXF41
  0
LINE
  8
WORKLAYER
  6
CONTINUOUS
 62
     4
 10
250.6198425
 20
146.5000000
 30
0.0
 11
250.6198425
 21
163.3999939
 31
0.0
 62
     4
  0
LINE
  8
WORKLAYER
  6
CONTINUOUS
 62
     4
 10
242.6198425
 20
163.3999939
 30
0.0
 11
242.6198425
 21
146.5000000
 31
0.0
 62
     4
  0
LINE
  8
WORKLAYER
  6
CONTINUOUS
 62
     2
 10
243.6198425
 20
154.8244019
 30
0.0
 11
242.6198425
 21
153.0923004
 31
0.0
 62
     2
  0
LINE
  8
WORKLAYER
  6
CONTINUOUS
 62
     2
 10
249.6198425
 20
154.8244019
 30
0.0
 11
250.6198425
 21
153.0923004
 31
0.0
 62
     2
  0
LINE
  8
WORKLAYER
  6
CONTINUOUS
 62
     2
 10
250.6198425
 20
154.8244019
 30
0.0
 11
242.6198425
 21
154.8244019
 31
0.0
 62
     2
  0
LINE
  8
WORKLAYER
  6
CONTINUOUS
 62
     2
 10
243.6198425
 20
163.3999939
 30
0.0
 11
243.6198425
 21
154.8244019
 31
0.0
 62
     2
  0
LINE
  8
WORKLAYER
  6
CONTINUOUS
 62
     2
 10
249.6198425
 20
154.8244019
 30
0.0
 11
249.6198425
 21
163.3999939
 31
0.0
 62
     2
  0
ENDBLK
  0
BLOCK
  8
WORKLAYER
  2
DXF42
 70
    64
 10
0.0
 20
0.0
 30
0.0
  3
DXF42
  0
LINE
  8
WORKLAYER
  6
CONTINUOUS
 62
     4
 10
4.7998486
 20
146.5000000
 30
0.0
 11
4.7998486
 21
163.3999939
 31
0.0
 62
     4
  0
LINE
  8
WORKLAYER
  6
CONTINUOUS
 62
     4
 10
-3.2001510
 20
163.3999939
 30
0.0
 11
-3.2001510
 21
146.5000000
 31
0.0
 62
     4
  0
LINE
  8
WORKLAYER
  6
CONTINUOUS
 62
     2
 10
-2.2001512
 20
154.8244019
 30
0.0
 11
-3.2001510
 21
153.0923004
 31
0.0
 62
     2
  0
LINE
  8
WORKLAYER
  6
CONTINUOUS
 62
     2
 10
3.7998488
 20
154.8244019
 30
0.0
 11
4.7998486
 21
153.0923004
 31
0.0
 62
     2
  0
LINE
  8
WORKLAYER
  6
CONTINUOUS
 62
     2
 10
4.7998486
 20
154.8244019
 30
0.0
 11
-3.2001510
 21
154.8244019
 31
0.0
 62
     2
  0
LINE
  8
WORKLAYER
  6
CONTINUOUS
 62
     2
 10
-2.2001512
 20
163.3999939
 30
0.0
 11
-2.2001512
 21
154.8244019
 31
0.0
 62
     2
  0
LINE
  8
WORKLAYER
  6
CONTINUOUS
 62
     2
 10
3.7998488
 20
154.8244019
 30
0.0
 11
3.7998488
 21
163.3999939
 31
0.0
 62
     2
  0
ENDBLK
  0
BLOCK
  8
AREA
  2
DXF56
 70
    64
 10
0.0
 20
0.0
 30
0.0
  3
DXF56
  0
LINE
  8
AREA
  6
CONTINUOUS
 62
     4
 10
-21.2539120
 20
81.0000000
 30
0.0
 11
-7.1999512
 21
81.0000000
 31
0.0
 62
     4
  0
LINE
  8
AREA
  6
CONTINUOUS
 62
     4
 10
-7.1999512
 20
81.0000000
 30
0.0
 11
0.7999878
 21
81.0000000
 31
0.0
 62
     4
  0
ENDBLK
  0
BLOCK
  8
AREA
  2
DXF58
 70
    64
 10
0.0
 20
0.0
 30
0.0
  3
DXF58
  0
LINE
  8
AREA
  6
CONTINUOUS
 62
     4
 10
-18.2000103
 20
76.0000000
 30
0.0
 11
-18.2000103
 21
67.3721008
 31
0.0
 62
     4
  0
LINE
  8
AREA
  6
CONTINUOUS
 62
     4
 10
-18.2000103
 20
67.3721008
 30
0.0
 11
-18.2000103
 21
62.0000000
 31
0.0
 62
     4
  0
ARC
  8
AREA
  6
CONTINUOUS
 62
     4
 10
-23.2000103
 20
62.0000000
 30
0.0
 40
5.0000000
 50
270.0000000
 51
360.0000000
  0
ENDBLK
  0
BLOCK
  8
AREA
  2
DXF59
 70
    64
 10
0.0
 20
0.0
 30
0.0
  3
DXF59
  0
LINE
  8
AREA
  6
CONTINUOUS
 62
     4
 10
-29.2000103
 20
69.4239197
 30
0.0
 11
-29.2000103
 21
63.2455101
 31
0.0
 62
     4
  0
LINE
  8
AREA
  6
CONTINUOUS
 62
     4
 10
-29.2000103
 20
63.2455101
 30
0.0
 11
-29.2000103
 21
60.0000000
 31
0.0
 62
     4
  0
ARC
  8
AREA
  6
CONTINUOUS
 62
     4
 10
-24.2000103
 20
69.4239197
 30
0.0
 40
5.0000000
 50
505.0079956
 51
180.0000000
  0
ARC
  8
AREA
  6
CONTINUOUS
 62
     4
 10
-32.2000122
 20
60.0000000
 30
0.0
 40
3.0000000
 50
270.0000000
 51
360.0000000
  0
ENDBLK
  0
BLOCK
  8
AREA
  2
DXF61
 70
    64
 10
0.0
 20
0.0
 30
0.0
  3
DXF61
  0
ARC
  8
AREA
  6
CONTINUOUS
 62
     4
 10
-23.2000103
 20
76.0000000
 30
0.0
 40
5.0000000
 50
360.0000000
 51
424.6231079
  0
ARC
  8
AREA
  6
CONTINUOUS
 62
     4
 10
-20.2000103
 20
82.3246231
 30
0.0
 40
2.0000000
 50
188.9766998
 51
244.6228943
  0
ARC
  8
AREA
  6
CONTINUOUS
 62
     4
 10
-20.2000103
 20
82.3246231
 30
0.0
 40
2.0000000
 50
180.0000000
 51
188.9766998
  0
ARC
  8
AREA
  6
CONTINUOUS
 62
     4
 10
-24.1512413
 20
81.7004089
 30
0.0
 40
2.0000000
 50
325.0079956
 51
368.9767151
  0
ENDBLK
  0
BLOCK
  8
AREA
  2
DXF66
 70
    64
 10
0.0
 20
0.0
 30
0.0
  3
DXF66
  0
LINE
  8
AREA
  6
CONTINUOUS
 62
     4
 10
-16.6001606
 20
134.0000000
 30
0.0
 11
-16.6001606
 21
116.5000000
 31
0.0
 62
     4
  0
LINE
  8
AREA
  6
CONTINUOUS
 62
     4
 10
-16.6001606
 20
134.0000000
 30
0.0
 11
-15.6001606
 21
135.0000000
 31
0.0
 62
     4
  0
ENDBLK
  0
BLOCK
  8
AREA
  2
DXF70
 70
    64
 10
0.0
 20
0.0
 30
0.0
  3
DXF70
  0
LINE
  8
AREA
  6
CONTINUOUS
 62
     4
 10
22.8539391
 20
81.0000000
 30
0.0
 11
8.8000488
 21
81.0000000
 31
0.0
 62
     4
  0
LINE
  8
AREA
  6
CONTINUOUS
 62
     4
 10
8.8000488
 20
81.0000000
 30
0.0
 11
0.8000488
 21
81.0000000
 31
0.0
 62
     4
  0
ENDBLK
  0
BLOCK
  8
AREA
  2
DXF72
 70
    64
 10
0.0
 20
0.0
 30
0.0
  3
DXF72
  0
LINE
  8
AREA
  6
CONTINUOUS
 62
     4
 10
19.8000488
 20
76.0000000
 30
0.0
 11
19.8000488
 21
67.3721008
 31
0.0
 62
     4
  0
LINE
  8
AREA
  6
CONTINUOUS
 62
     4
 10
19.8000488
 20
67.3721008
 30
0.0
 11
19.8000488
 21
57.7127991
 31
0.0
 62
     4
  0
ARC
  8
AREA
  6
CONTINUOUS
 62
     4
 10
24.8000488
 20
57.7127991
 30
0.0
 40
5.0000000
 50
180.0000000
 51
239.9998932
  0
ENDBLK
  0
BLOCK
  8
AREA
  2
DXF73
 70
    64
 10
0.0
 20
0.0
 30
0.0
  3
DXF73
  0
LINE
  8
AREA
  6
CONTINUOUS
 62
     4
 10
30.8000488
 20
69.4239197
 30
0.0
 11
30.8000488
 21
63.2455101
 31
0.0
 62
     4
  0
LINE
  8
AREA
  6
CONTINUOUS
 62
     4
 10
30.8000488
 20
63.2455101
 30
0.0
 11
30.8000488
 21
46.5830994
 31
0.0
 62
     4
  0
ARC
  8
AREA
  6
CONTINUOUS
 62
     4
 10
25.8000488
 20
69.4239197
 30
0.0
 40
5.0000000
 50
360.0000000
 51
394.9920044
  0
ARC
  8
AREA
  6
CONTINUOUS
 62
     4
 10
33.8000488
 20
46.5830994
 30
0.0
 40
3.0000000
 50
180.0000000
 51
213.5572052
  0
ENDBLK
  0
BLOCK
  8
AREA
  2
DXF75
 70
    64
 10
0.0
 20
0.0
 30
0.0
  3
DXF75
  0
ARC
  8
AREA
  6
CONTINUOUS
 62
     4
 10
24.8000488
 20
76.0000000
 30
0.0
 40
5.0000000
 50
475.3768921
 51
180.0000000
  0
ARC
  8
AREA
  6
CONTINUOUS
 62
     4
 10
21.8000488
 20
82.3246231
 30
0.0
 40
2.0000000
 50
295.3771057
 51
351.0232849
  0
ARC
  8
AREA
  6
CONTINUOUS
 62
     4
 10
21.8000488
 20
82.3246231
 30
0.0
 40
2.0000000
 50
351.0232849
 51
360.0000000
  0
ARC
  8
AREA
  6
CONTINUOUS
 62
     4
 10
25.7510986
 20
81.7004089
 30
0.0
 40
2.0000000
 50
531.0233154
 51
214.9920044
  0
ENDBLK
  0
BLOCK
  8
AREA
  2
DXF80
 70
    64
 10
0.0
 20
0.0
 30
0.0
  3
DXF80
  0
LINE
  8
AREA
  6
CONTINUOUS
 62
     4
 10
18.1999493
 20
134.0000000
 30
0.0
 11
18.1999493
 21
116.5000000
 31
0.0
 62
     4
  0
LINE
  8
AREA
  6
CONTINUOUS
 62
     4
 10
18.1999493
 20
134.0000000
 30
0.0
 11
17.1999493
 21
135.0000000
 31
0.0
 62
     4
  0
ENDBLK
  0
BLOCK
  8
WORKLAYER
  2
DXF82
 70
    64
 10
0.0
 20
0.0
 30
0.0
  3
DXF82
  0
LINE
  8
WORKLAYER
  6
CONTINUOUS
 62
     4
 10
-2.1999512
 20
49.9250183
 30
0.0
 11
-2.1999512
 21
76.0000000
 31
0.0
 62
     4
  0
ARC
  8
WORKLAYER
  6
CONTINUOUS
 62
     4
 10
-7.1999512
 20
49.9250183
 30
0.0
 40
5.0000000
 50
270.0000000
 51
360.0000000
  0
ARC
  8
WORKLAYER
  6
CONTINUOUS
 62
     4
 10
-7.1999512
 20
76.0000000
 30
0.0
 40
5.0000000
 50
360.0000000
 51
450.0000000
  0
ENDBLK
  0
BLOCK
  8
WORKLAYER
  2
DXF83
 70
    64
 10
0.0
 20
0.0
 30
0.0
  3
DXF83
  0
LINE
  8
WORKLAYER
  6
CONTINUOUS
 62
     4
 10
3.8000488
 20
49.9250183
 30
0.0
 11
3.8000488
 21
76.0000000
 31
0.0
 62
     4
  0
ARC
  8
WORKLAYER
  6
CONTINUOUS
 62
     4
 10
8.8000488
 20
49.9250183
 30
0.0
 40
5.0000000
 50
180.0000000
 51
270.0000000
  0
ARC
  8
WORKLAYER
  6
CONTINUOUS
 62
     4
 10
8.8000488
 20
76.0000000
 30
0.0
 40
5.0000000
 50
450.0000000
 51
180.0000000
  0
ENDBLK
  0
BLOCK
  8
WORKLAYER
  2
DXF84
 70
    64
 10
0.0
 20
0.0
 30
0.0
  3
DXF84
  0
LINE
  8
WORKLAYER
  6
CONTINUOUS
 62
     4
 10
-17.1999512
 20
-23.0000000
 30
0.0
 11
17.5500488
 21
-23.0000000
 31
0.0
 62
     4
  0
LINE
  8
WORKLAYER
  6
CONTINUOUS
 62
     4
 10
17.5500488
 20
-23.0000000
 30
0.0
 11
21.8000488
 21
-23.0000000
 31
0.0
 62
     4
  0
ARC
  8
WORKLAYER
  6
CONTINUOUS
 62
     4
 10
17.5500488
 20
-41.5000000
 30
0.0
 40
18.5000000
 50
485.8247070
 51
180.0000000
  0
ENDBLK
  0
BLOCK
  8
WORKLAYER
  2
DXF85
 70
    64
 10
0.0
 20
0.0
 30
0.0
  3
DXF85
  0
LINE
  8
WORKLAYER
  6
CONTINUOUS
 62
     4
 10
-17.1999512
 20
-26.5000000
 30
0.0
 11
6.7217407
 21
-26.5000000
 31
0.0
 62
     4
  0
LINE
  8
WORKLAYER
  6
CONTINUOUS
 62
     4
 10
17.5500488
 20
-26.5000000
 30
0.0
 11
21.8000488
 21
-26.5000000
 31
0.0
 62
     4
  0
ARC
  8
WORKLAYER
  6
CONTINUOUS
 62
     4
 10
17.5500488
 20
-41.5000000
 30
0.0
 40
15.0000000
 50
450.0000000
 51
180.0000000
  0
ENDBLK
  0
BLOCK
  8
WORKLAYER
  2
DXF89
 70
    64
 10
0.0
 20
0.0
 30
0.0
  3
DXF89
  0
LINE
  8
WORKLAYER
  6
CONTINUOUS
 62
     4
 10
21.8000488
 20
-27.5000000
 30
0.0
 11
21.8000488
 21
-26.5000000
 31
0.0
 62
     4
  0
LINE
  8
WORKLAYER
  6
CONTINUOUS
 62
     4
 10
21.8000488
 20
-23.0000000
 30
0.0
 11
21.8000488
 21
-22.0000000
 31
0.0
 62
     4
  0
ENDBLK
  0
BLOCK
  8
SSYMB
  2
DXF92
 70
    64
 10
0.0
 20
0.0
 30
0.0
  3
DXF92
  0
LINE
  8
SSYMB
  6
CONTINUOUS
 62
     4
 10
-2.4879153
 20
0.0000000
 30
0.0
 11
0.0000000
 21
0.0000000
 31
0.0
 62
     4
  0
LINE
  8
SSYMB
  6
CONTINUOUS
 62
     4
 10
0.0000000
 20
0.0000000
 30
0.0
 11
0.0000000
 21
-20.0000000
 31
0.0
 62
     4
  0
LINE
  8
SSYMB
  6
CONTINUOUS
 62
     4
 10
0.0000000
 20
-20.0000000
 30
0.0
 11
-3.0000002
 21
-20.0000000
 31
0.0
 62
     4
  0
LINE
  8
SSYMB
  6
CONTINUOUS
 62
     4
 10
-3.0000002
 20
-20.0000000
 30
0.0
 11
-3.0000002
 21
-6.0000000
 31
0.0
 62
     4
  0
LINE
  8
SSYMB
  6
CONTINUOUS
 62
     4
 10
-3.0000002
 20
-6.0000000
 30
0.0
 11
-7.1999512
 21
-6.0000000
 31
0.0
 62
     4
  0
LINE
  8
SSYMB
  6
CONTINUOUS
 62
     4
 10
-7.1999512
 20
-6.0000000
 30
0.0
 11
-7.1999512
 21
-4.7119899
 31
0.0
 62
     4
  0
ARC
  8
SSYMB
  6
CONTINUOUS
 62
     4
 10
-7.1999512
 20
0.0000000
 30
0.0
 40
4.7119999
 50
270.0000000
 51
360.0000000
  0
ENDBLK
  0
BLOCK
  8
AREA
  2
DXF97
 70
    64
 10
0.0
 20
0.0
 30
0.0
  3
DXF97
  0
LINE
  8
AREA
  6
CONTINUOUS
 62
     4
 10
-64.6189575
 20
4.1100011
 30
0.0
 11
-63.6189575
 21
7.1100011
 31
0.0
 62
     4
  0
LINE
  8
AREA
  6
CONTINUOUS
 62
     4
 10
-63.1189613
 20
8.6100006
 30
0.0
 11
-61.1999512
 21
14.3666096
 31
0.0
 62
     4
  0
ENDBLK
  0
BLOCK
  8
AREA
  2
DXF101
 70
    64
 10
0.0
 20
0.0
 30
0.0
  3
DXF101
  0
LINE
  8
AREA
  6
CONTINUOUS
 62
     4
 10
-57.7812500
 20
4.1100011
 30
0.0
 11
-58.7812500
 21
7.1100011
 31
0.0
 62
     4
  0
LINE
  8
AREA
  6
CONTINUOUS
 62
     4
 10
-59.2812500
 20
8.6100006
 30
0.0
 11
-61.1999512
 21
14.3666096
 31
0.0
 62
     4
  0
ENDBLK
  0
BLOCK
  8
WORKLAYER
  2
DXF104
 70
    64
 10
0.0
 20
0.0
 30
0.0
  3
DXF104
  0
LINE
  8
WORKLAYER
  6
CONTINUOUS
 62
     4
 10
69.8000488
 20
-16.6122894
 30
0.0
 11
69.8000488
 21
-14.3622904
 31
0.0
 62
     4
  0
ARC
  8
WORKLAYER
  6
CONTINUOUS
 62
     4
 10
66.8000488
 20
-14.3622904
 30
0.0
 40
3.0000000
 50
360.0000000
 51
408.5903931
  0
ARC
  8
WORKLAYER
  6
CONTINUOUS
 62
     4
 10
66.8000488
 20
-16.6122894
 30
0.0
 40
3.0000000
 50
270.0000000
 51
360.0000000
  0
ENDBLK
  0
BLOCK
  8
AREA
  2
DXF110
 70
    64
 10
0.0
 20
0.0
 30
0.0
  3
DXF110
  0
LINE
  8
AREA
  6
CONTINUOUS
 62
     4
 10
54.5500488
 20
-9.5808868
 30
0.0
 11
52.7983971
 21
-15.1122904
 31
0.0
 62
     4
  0
LINE
  8
AREA
  6
CONTINUOUS
 62
     4
 10
52.3232384
 20
-16.6122894
 30
0.0
 11
51.3733482
 21
-19.6122894
 31
0.0
 62
     4
  0
ENDBLK
  0
BLOCK
  8
AREA
  2
DXF115
 70
    64
 10
0.0
 20
0.0
 30
0.0
  3
DXF115
  0
LINE
  8
AREA
  6
CONTINUOUS
 62
     4
 10
54.5500488
 20
-9.5808868
 30
0.0
 11
56.3014488
 21
-15.1122904
 31
0.0
 62
     4
  0
LINE
  8
AREA
  6
CONTINUOUS
 62
     4
 10
56.7765503
 20
-16.6122894
 30
0.0
 11
57.7266884
 21
-19.6122894
 31
0.0
 62
     4
  0
ENDBLK
  0
BLOCK
  8
WORKLAYER
  2
DXF119
 70
    64
 10
0.0
 20
0.0
 30
0.0
  3
DXF119
  0
LINE
  8
WORKLAYER
  6
CONTINUOUS
 62
     4
 10
68.3000488
 20
-16.6122894
 30
0.0
 11
68.3000488
 21
-14.3622904
 31
0.0
 62
     4
  0
ARC
  8
WORKLAYER
  6
CONTINUOUS
 62
     4
 10
66.8000488
 20
-14.3622904
 30
0.0
 40
1.5000000
 50
360.0000000
 51
450.0000000
  0
ARC
  8
WORKLAYER
  6
CONTINUOUS
 62
     4
 10
66.8000488
 20
-16.6122894
 30
0.0
 40
1.5000000
 50
270.0000000
 51
360.0000000
  0
ENDBLK
  0
BLOCK
  8
WORKLAYER
  2
DXF124
 70
    64
 10
0.0
 20
0.0
 30
0.0
  3
DXF124
  0
LINE
  8
WORKLAYER
  6
CONTINUOUS
 62
     4
 10
68.3000488
 20
-7.6122890
 30
0.0
 11
68.3000488
 21
-9.8622894
 31
0.0
 62
     4
  0
ARC
  8
WORKLAYER
  6
CONTINUOUS
 62
     4
 10
66.8000488
 20
-9.8622894
 30
0.0
 40
1.5000000
 50
270.0000000
 51
360.0000000
  0
ARC
  8
WORKLAYER
  6
CONTINUOUS
 62
     4
 10
66.8000488
 20
-7.6122890
 30
0.0
 40
1.5000000
 50
360.0000000
 51
450.0000000
  0
ENDBLK
  0
BLOCK
  8
WORKLAYER
  2
DXF125
 70
    64
 10
0.0
 20
0.0
 30
0.0
  3
DXF125
  0
LINE
  8
WORKLAYER
  6
CONTINUOUS
 62
     4
 10
69.8000488
 20
-7.6122890
 30
0.0
 11
69.8000488
 21
-9.8622894
 31
0.0
 62
     4
  0
ARC
  8
WORKLAYER
  6
CONTINUOUS
 62
     4
 10
66.8000488
 20
-9.8622894
 30
0.0
 40
3.0000000
 50
311.4096069
 51
360.0000000
  0
ARC
  8
WORKLAYER
  6
CONTINUOUS
 62
     4
 10
66.8000488
 20
-7.6122890
 30
0.0
 40
3.0000000
 50
360.0000000
 51
450.0000000
  0
ENDBLK
  0
BLOCK
  8
WORKLAYER
  2
DXF127
 70
    64
 10
0.0
 20
0.0
 30
0.0
  3
DXF127
  0
LINE
  8
WORKLAYER
  6
CONTINUOUS
 62
     4
 10
-110.1999512
 20
70.0000916
 30
0.0
 11
-92.1999512
 21
70.0000916
 31
0.0
 62
     4
  0
LINE
  8
WORKLAYER
  6
CONTINUOUS
 62
     4
 10
-90.1999512
 20
68.0000000
 30
0.0
 11
-90.1999512
 21
34.5578003
 31
0.0
 62
     4
  0
LINE
  8
WORKLAYER
  6
CONTINUOUS
 62
     4
 10
-90.1999512
 20
-32.0000000
 30
0.0
 11
-90.1999512
 21
-68.0000000
 31
0.0
 62
     4
  0
LINE
  8
WORKLAYER
  6
CONTINUOUS
 62
     4
 10
-92.1999512
 20
-70.0000000
 30
0.0
 11
-110.1999512
 21
-70.0000000
 31
0.0
 62
     4
  0
LINE
  8
WORKLAYER
  6
CONTINUOUS
 62
     4
 10
-110.1999512
 20
-70.0000000
 30
0.0
 11
-110.1999512
 21
70.0000916
 31
0.0
 62
     4
  0
ARC
  8
WORKLAYER
  6
CONTINUOUS
 62
     4
 10
-92.1999512
 20
-68.0000000
 30
0.0
 40
2.0000000
 50
270.0000000
 51
360.0000000
  0
ARC
  8
WORKLAYER
  6
CONTINUOUS
 62
     4
 10
-92.1999512
 20
68.0000000
 30
0.0
 40
2.0000000
 50
360.0000000
 51
450.0000000
  0
ENDBLK
  0
BLOCK
  8
WORKLAYER
  2
DXF128
 70
    64
 10
0.0
 20
0.0
 30
0.0
  3
DXF128
  0
LINE
  8
WORKLAYER
  6
CONTINUOUS
 62
     4
 10
93.8000488
 20
70.0000916
 30
0.0
 11
111.8000488
 21
70.0000916
 31
0.0
 62
     4
  0
LINE
  8
WORKLAYER
  6
CONTINUOUS
 62
     4
 10
111.8000488
 20
70.0000916
 30
0.0
 11
111.8000488
 21
-70.0000000
 31
0.0
 62
     4
  0
LINE
  8
WORKLAYER
  6
CONTINUOUS
 62
     4
 10
111.8000488
 20
-70.0000000
 30
0.0
 11
93.8000488
 21
-70.0000000
 31
0.0
 62
     4
  0
LINE
  8
WORKLAYER
  6
CONTINUOUS
 62
     4
 10
91.8000488
 20
-68.0000000
 30
0.0
 11
91.8000488
 21
-35.5652885
 31
0.0
 62
     4
  0
LINE
  8
WORKLAYER
  6
CONTINUOUS
 62
     4
 10
91.8000488
 20
33.2056999
 30
0.0
 11
91.8000488
 21
68.0000000
 31
0.0
 62
     4
  0
ARC
  8
WORKLAYER
  6
CONTINUOUS
 62
     4
 10
93.8000488
 20
-68.0000000
 30
0.0
 40
2.0000000
 50
180.0000000
 51
270.0000000
  0
ARC
  8
WORKLAYER
  6
CONTINUOUS
 62
     4
 10
93.8000488
 20
68.0000000
 30
0.0
 40
2.0000000
 50
450.0000000
 51
180.0000000
  0
ENDBLK
  0
BLOCK
  8
WORKLAYER
  2
DXF130
 70
    64
 10
0.0
 20
0.0
 30
0.0
  3
DXF130
  0
LINE
  8
WORKLAYER
  6
CONTINUOUS
 62
     4
 10
49.8000488
 20
-51.5559998
 30
0.0
 11
49.8000488
 21
-56.5000000
 31
0.0
 62
     4
  0
LINE
  8
WORKLAYER
  6
CONTINUOUS
 62
     4
 10
47.8000488
 20
-58.5000000
 30
0.0
 11
39.7364502
 21
-58.5000000
 31
0.0
 62
     4
  0
LINE
  8
WORKLAYER
  6
CONTINUOUS
 62
     4
 10
-38.1364098
 20
-58.5000000
 30
0.0
 11
-46.1999512
 21
-58.5000000
 31
0.0
 62
     4
  0
LINE
  8
WORKLAYER
  6
CONTINUOUS
 62
     4
 10
-48.1999512
 20
-56.5000000
 30
0.0
 11
-48.1999512
 21
-43.0345917
 31
0.0
 62
     4
  0
ARC
  8
WORKLAYER
  6
CONTINUOUS
 62
     4
 10
-46.1999512
 20
-43.0345917
 30
0.0
 40
2.0000000
 50
465.0000000
 51
180.0000000
  0
ARC
  8
WORKLAYER
  6
CONTINUOUS
 62
     4
 10
-46.1999512
 20
-56.5000000
 30
0.0
 40
2.0000000
 50
180.0000000
 51
270.0000000
  0
ARC
  8
WORKLAYER
  6
CONTINUOUS
 62
     4
 10
47.8000488
 20
-56.5000000
 30
0.0
 40
2.0000000
 50
270.0000000
 51
360.0000000
  0
ARC
  8
WORKLAYER
  6
CONTINUOUS
 62
     4
 10
59.8000488
 20
-51.5559998
 30
0.0
 40
10.0000000
 50
471.4677124
 51
180.0000000
  0
ENDBLK
  0
BLOCK
  8
WORKLAYER
  2
DXF133
 70
    64
 10
0.0
 20
0.0
 30
0.0
  3
DXF133
  0
LINE
  8
WORKLAYER
  6
CONTINUOUS
 62
     4
 10
35.8000488
 20
22.4549103
 30
0.0
 11
35.8000488
 21
30.0000000
 31
0.0
 62
     4
  0
ARC
  8
WORKLAYER
  6
CONTINUOUS
 62
     4
 10
8.8000488
 20
30.0000000
 30
0.0
 40
27.0000000
 50
360.0000000
 51
450.0000000
  0
ENDBLK
  0
BLOCK
  8
WORKLAYER
  2
DXF137
 70
    64
 10
0.0
 20
0.0
 30
0.0
  3
DXF137
  0
LINE
  8
WORKLAYER
  6
CONTINUOUS
 62
     4
 10
-34.7555504
 20
57.0000000
 30
0.0
 11
-32.2000122
 21
57.0000000
 31
0.0
 62
     4
  0
LINE
  8
WORKLAYER
  6
CONTINUOUS
 62
     4
 10
-32.2000122
 20
57.0000000
 30
0.0
 11
-23.2000103
 21
57.0000000
 31
0.0
 62
     4
  0
LINE
  8
WORKLAYER
  6
CONTINUOUS
 62
     4
 10
-23.2000103
 20
57.0000000
 30
0.0
 11
-7.1999512
 21
57.0000000
 31
0.0
 62
     4
  0
LINE
  8
WORKLAYER
  6
CONTINUOUS
 62
     4
 10
-7.1999512
 20
57.0000000
 30
0.0
 11
-2.1999512
 21
57.0000000
 31
0.0
 62
     4
  0
LINE
  8
WORKLAYER
  6
CONTINUOUS
 62
     4
 10
3.8000488
 20
57.0000000
 30
0.0
 11
8.8000488
 21
57.0000000
 31
0.0
 62
     4
  0
ARC
  8
WORKLAYER
  6
CONTINUOUS
 62
     4
 10
-34.7555504
 20
30.0000000
 30
0.0
 40
27.0000000
 50
450.0000000
 51
484.0194092
  0
ENDBLK
  0
BLOCK
  8
WORKLAYER
  2
DXF142
 70
    64
 10
0.0
 20
0.0
 30
0.0
  3
DXF142
  0
LINE
  8
WORKLAYER
  6
CONTINUOUS
 62
     4
 10
-46.7176514
 20
-41.1027985
 30
0.0
 11
-45.6117516
 21
-40.8064919
 31
0.0
 62
     4
  0
ARC
  8
WORKLAYER
  6
CONTINUOUS
 62
     4
 10
-48.1999512
 20
-31.1471901
 30
0.0
 40
10.0000000
 50
285.0000000
 51
360.0000000
  0
ENDBLK
  0
BLOCK
  8
WORKLAYER
  2
DXF143
 70
    64
 10
0.0
 20
0.0
 30
0.0
  3
DXF143
  0
LINE
  8
WORKLAYER
  6
CONTINUOUS
 62
     4
 10
56.1401978
 20
-42.2497902
 30
0.0
 11
84.9701462
 21
-30.9122009
 31
0.0
 62
     4
  0
ARC
  8
WORKLAYER
  6
CONTINUOUS
 62
     4
 10
86.8000488
 20
-35.5652885
 30
0.0
 40
5.0000000
 50
360.0000000
 51
471.4674988
  0
ENDBLK
  0
BLOCK
  8
WORKLAYER
  2
DXF144
 70
    64
 10
0.0
 20
0.0
 30
0.0
  3
DXF144
  0
LINE
  8
WORKLAYER
  6
CONTINUOUS
 62
     4
 10
49.4598999
 20
13.1487103
 30
0.0
 11
88.6299515
 21
28.5527000
 31
0.0
 62
     4
  0
ARC
  8
WORKLAYER
  6
CONTINUOUS
 62
     4
 10
86.8000488
 20
33.2056999
 30
0.0
 40
5.0000000
 50
291.4675903
 51
360.0000000
  0
ARC
  8
WORKLAYER
  6
CONTINUOUS
 62
     4
 10
45.8000488
 20
22.4549103
 30
0.0
 40
10.0000000
 50
180.0000000
 51
291.4677124
  0
ENDBLK
  0
BLOCK
  8
WORKLAYER
  2
DXF146
 70
    64
 10
0.0
 20
0.0
 30
0.0
  3
DXF146
  0
LINE
  8
WORKLAYER
  6
CONTINUOUS
 62
     4
 10
-38.1999512
 20
-31.1471901
 30
0.0
 11
-38.1999512
 21
-19.9521904
 31
0.0
 62
     4
  0
ARC
  8
WORKLAYER
  6
CONTINUOUS
 62
     4
 10
-46.1999512
 20
-19.9521904
 30
0.0
 40
8.0000000
 50
360.0000000
 51
484.0194092
  0
ENDBLK
  0
BLOCK
  8
WORKLAYER
  2
DXF153
 70
    64
 10
0.0
 20
0.0
 30
0.0
  3
DXF153
  0
LINE
  8
WORKLAYER
  6
CONTINUOUS
 62
     4
 10
-38.1999512
 20
-19.9521904
 30
0.0
 11
-38.1999512
 21
0.0000000
 31
0.0
 62
     4
  0
ARC
  8
WORKLAYER
  6
CONTINUOUS
 62
     4
 10
-33.1999512
 20
0.0000000
 30
0.0
 40
5.0000000
 50
450.0000000
 51
180.0000000
  0
ENDBLK
  0
BLOCK
  8
SSYMB
  2
DXF157
 70
    64
 10
0.0
 20
0.0
 30
0.0
  3
DXF157
  0
ARC
  8
SSYMB
  6
CONTINUOUS
 62
     4
 10
6.8072510
 20
-51.5000000
 30
0.0
 40
8.3333330
 50
525.7050171
 51
194.2949066
  0
ARC
  8
SSYMB
  6
CONTINUOUS
 62
     4
 10
-4.2675171
 20
-51.5000000
 30
0.0
 40
8.3333330
 50
342.6477051
 51
377.3522034
  0
ARC
  8
SSYMB
  6
CONTINUOUS
 62
     4
 10
0.2662964
 20
-49.8333893
 30
0.0
 40
1.5833330
 50
374.2948914
 51
525.7050781
  0
ARC
  8
SSYMB
  6
CONTINUOUS
 62
     4
 10
0.2662964
 20
-50.0833893
 30
0.0
 40
3.5833330
 50
377.3522949
 51
522.6477051
  0
ARC
  8
SSYMB
  6
CONTINUOUS
 62
     4
 10
0.2662964
 20
-53.1666908
 30
0.0
 40
1.5833330
 50
194.2949066
 51
345.7051086
  0
ARC
  8
SSYMB
  6
CONTINUOUS
 62
     4
 10
0.2662964
 20
-52.9166908
 30
0.0
 40
3.5833330
 50
197.3522949
 51
342.6477051
  0
ARC
  8
SSYMB
  6
CONTINUOUS
 62
     4
 10
4.8000488
 20
-51.5000000
 30
0.0
 40
8.3333330
 50
522.6477051
 51
197.3522949
  0
ARC
  8
SSYMB
  6
CONTINUOUS
 62
     4
 10
-6.2748413
 20
-51.5000000
 30
0.0
 40
8.3333330
 50
345.7051086
 51
374.2948914
  0
ENDBLK
  0
BLOCK
  8
SSYMB
  2
DXF158
 70
    64
 10
0.0
 20
0.0
 30
0.0
  3
DXF158
  0
LINE
  8
SSYMB
  6
CONTINUOUS
 62
     4
 10
7.1215820
 20
-56.5000000
 30
0.0
 11
7.1215820
 21
-46.5000000
 31
0.0
 62
     4
  0
LINE
  8
SSYMB
  6
CONTINUOUS
 62
     4
 10
7.1215820
 20
-46.5000000
 30
0.0
 11
8.4831543
 21
-46.5000000
 31
0.0
 62
     4
  0
LINE
  8
SSYMB
  6
CONTINUOUS
 62
     4
 10
12.0223989
 20
-46.5000000
 30
0.0
 11
13.8000488
 21
-46.5000000
 31
0.0
 62
     4
  0
LINE
  8
SSYMB
  6
CONTINUOUS
 62
     4
 10
7.1215820
 20
-56.5000000
 30
0.0
 11
8.4831543
 21
-56.5000000
 31
0.0
 62
     4
  0
LINE
  8
SSYMB
  6
CONTINUOUS
 62
     4
 10
12.5918589
 20
-56.5000000
 30
0.0
 11
14.2704487
 21
-56.5000000
 31
0.0
 62
     4
  0
LINE
  8
SSYMB
  6
CONTINUOUS
 62
     4
 10
8.4831543
 20
-56.5000000
 30
0.0
 11
8.4831543
 21
-50.7997894
 31
0.0
 62
     4
  0
LINE
  8
SSYMB
  6
CONTINUOUS
 62
     4
 10
8.4831543
 20
-50.7177887
 30
0.0
 11
8.4831543
 21
-46.5000000
 31
0.0
 62
     4
  0
LINE
  8
SSYMB
  6
CONTINUOUS
 62
     4
 10
12.0223989
 20
-46.5000000
 30
0.0
 11
8.4831543
 21
-50.7177887
 31
0.0
 62
     4
  0
LINE
  8
SSYMB
  6
CONTINUOUS
 62
     4
 10
13.8000488
 20
-46.5000000
 30
0.0
 11
10.1758423
 21
-50.8191986
 31
0.0
 62
     4
  0
LINE
  8
SSYMB
  6
CONTINUOUS
 62
     4
 10
10.1758423
 20
-50.8191986
 30
0.0
 11
14.2704487
 21
-56.5000000
 31
0.0
 62
     4
  0
LINE
  8
SSYMB
  6
CONTINUOUS
 62
     4
 10
8.4831543
 20
-50.7997894
 30
0.0
 11
12.5918589
 21
-56.5000000
 31
0.0
 62
     4
  0
ENDBLK
  0
BLOCK
  8
SSYMB
  2
DXF159
 70
    64
 10
0.0
 20
0.0
 30
0.0
  3
DXF159
  0
LINE
  8
SSYMB
  6
CONTINUOUS
 62
     4
 10
-8.3666992
 20
-46.5000000
 30
0.0
 11
-8.3666992
 21
-56.5000000
 31
0.0
 62
     4
  0
LINE
  8
SSYMB
  6
CONTINUOUS
 62
     4
 10
-10.2832012
 20
-49.4166908
 30
0.0
 11
-10.2832012
 21
-56.5000000
 31
0.0
 62
     4
  0
LINE
  8
SSYMB
  6
CONTINUOUS
 62
     4
 10
-12.1999512
 20
-48.0000916
 30
0.0
 11
-12.1999512
 21
-49.4166908
 31
0.0
 62
     4
  0
LINE
  8
SSYMB
  6
CONTINUOUS
 62
     4
 10
-10.2832012
 20
-49.4166908
 30
0.0
 11
-12.1999512
 21
-49.4166908
 31
0.0
 62
     4
  0
ARC
  8
SSYMB
  6
CONTINUOUS
 62
     4
 10
-14.2301016
 20
-43.4308891
 30
0.0
 40
4.9999990
 50
293.9562988
 51
322.1328125
  0
LINE
  8
SSYMB
  6
CONTINUOUS
 62
     4
 10
-10.2832012
 20
-56.5000000
 30
0.0
 11
-8.3666992
 21
-56.5000000
 31
0.0
 62
     4
  0
LINE
  8
SSYMB
  6
CONTINUOUS
 62
     4
 10
-8.3666992
 20
-46.5000000
 30
0.0
 11
-10.2829609
 21
-46.5000000
 31
0.0
 62
     4
  0
ENDBLK
  0
BLOCK
  8
SSYMB
  2
DXF163
 70
    64
 10
0.0
 20
0.0
 30
0.0
  3
DXF163
  0
LINE
  8
SSYMB
  6
CONTINUOUS
 62
     4
 10
4.9004517
 20
0.0000000
 30
0.0
 11
6.0198979
 21
0.0000000
 31
0.0
 62
     4
  0
LINE
  8
SSYMB
  6
CONTINUOUS
 62
     4
 10
6.0198979
 20
0.0000000
 30
0.0
 11
6.0198979
 21
-9.0000000
 31
0.0
 62
     4
  0
LINE
  8
SSYMB
  6
CONTINUOUS
 62
     4
 10
6.0198979
 20
-9.0000000
 30
0.0
 11
4.6699829
 21
-9.0000000
 31
0.0
 62
     4
  0
LINE
  8
SSYMB
  6
CONTINUOUS
 62
     4
 10
4.6699829
 20
-9.0000000
 30
0.0
 11
4.6699829
 21
-2.6999969
 31
0.0
 62
     4
  0
LINE
  8
SSYMB
  6
CONTINUOUS
 62
     4
 10
4.6699829
 20
-2.6999969
 30
0.0
 11
2.7798457
 21
-2.6999969
 31
0.0
 62
     4
  0
LINE
  8
SSYMB
  6
CONTINUOUS
 62
     4
 10
2.7798457
 20
-2.6999969
 30
0.0
 11
2.7798457
 21
-2.1203921
 31
0.0
 62
     4
  0
ARC
  8
SSYMB
  6
CONTINUOUS
 62
     4
 10
2.7798457
 20
0.0000000
 30
0.0
 40
2.1204000
 50
270.0000000
 51
360.0000000
  0
ENDBLK
  0
BLOCK
  8
SSYMB
  2
DXF164
 70
    64
 10
0.0
 20
0.0
 30
0.0
  3
DXF164
  0
ARC
  8
SSYMB
  6
CONTINUOUS
 62
     4
 10
7.6670527
 20
-21.1402893
 30
0.0
 40
5.9400001
 50
478.0000000
 51
528.9000244
  0
ARC
  8
SSYMB
  6
CONTINUOUS
 62
     4
 10
0.9366455
 20
-9.7552948
 30
0.0
 40
7.3017001
 50
302.6000061
 51
315.3999939
  0
ARC
  8
SSYMB
  6
CONTINUOUS
 62
     4
 10
4.8824458
 20
-13.9258900
 30
0.0
 40
1.5741000
 50
323.0000000
 51
189.8000031
  0
LINE
  8
SSYMB
  6
CONTINUOUS
 62
     4
 10
3.3307498
 20
-14.1940899
 30
0.0
 11
1.9706419
 21
-14.1940899
 31
0.0
 62
     4
  0
ARC
  8
SSYMB
  6
CONTINUOUS
 62
     4
 10
4.8824458
 20
-13.9258900
 30
0.0
 40
2.9159999
 50
305.6000061
 51
185.1999969
  0
ARC
  8
SSYMB
  6
CONTINUOUS
 62
     4
 10
0.9366455
 20
-9.7552948
 30
0.0
 40
8.6489992
 50
302.5000000
 51
310.7000122
  0
ARC
  8
SSYMB
  6
CONTINUOUS
 62
     4
 10
7.9694829
 20
-21.1221905
 30
0.0
 40
4.7249999
 50
480.2000122
 51
508.3999939
  0
LINE
  8
SSYMB
  6
CONTINUOUS
 62
     4
 10
3.9437869
 20
-18.6508904
 30
0.0
 11
7.9629517
 21
-18.6508904
 31
0.0
 62
     4
  0
LINE
  8
SSYMB
  6
CONTINUOUS
 62
     4
 10
7.9629517
 20
-18.6508904
 30
0.0
 11
7.9629517
 21
-20.0000000
 31
0.0
 62
     4
  0
LINE
  8
SSYMB
  6
CONTINUOUS
 62
     4
 10
7.9629517
 20
-20.0000000
 30
0.0
 11
1.8368528
 21
-20.0000000
 31
0.0
 62
     4
  0
ENDBLK
  0
BLOCK
  8
WORKLAYER
  2
DXF183
 70
    64
 10
0.0
 20
0.0
 30
0.0
  3
DXF183
  0
LINE
  8
WORKLAYER
  6
CONTINUOUS
 62
     4
 10
70.8000717
 20
-160.0000000
 30
0.0
 11
70.8000717
 21
-142.0000000
 31
0.0
 62
     4
  0
LINE
  8
WORKLAYER
  6
CONTINUOUS
 62
     4
 10
68.8000717
 20
-140.0000000
 30
0.0
 11
0.8000488
 21
-140.0000000
 31
0.0
 62
     4
  0
LINE
  8
WORKLAYER
  6
CONTINUOUS
 62
     4
 10
0.8000488
 20
-140.0000000
 30
0.0
 11
-67.1999512
 21
-140.0000000
 31
0.0
 62
     4
  0
LINE
  8
WORKLAYER
  6
CONTINUOUS
 62
     4
 10
-69.1999512
 20
-142.0000000
 30
0.0
 11
-69.1999512
 21
-160.0000000
 31
0.0
 62
     4
  0
LINE
  8
WORKLAYER
  6
CONTINUOUS
 62
     4
 10
-69.1999512
 20
-160.0000000
 30
0.0
 11
70.8000717
 21
-160.0000000
 31
0.0
 62
     4
  0
ARC
  8
WORKLAYER
  6
CONTINUOUS
 62
     4
 10
35.0281487
 20
-135.0000000
 30
0.0
 40
5.0000000
 50
189.5626068
 51
270.0000000
  0
ARC
  8
WORKLAYER
  6
CONTINUOUS
 62
     4
 10
-33.4280510
 20
-135.0000000
 30
0.0
 40
5.0000000
 50
270.0000000
 51
350.4372864
  0
ARC
  8
WORKLAYER
  6
CONTINUOUS
 62
     4
 10
68.8000717
 20
-142.0000000
 30
0.0
 40
2.0000000
 50
360.0000000
 51
90.0000000
  0
ARC
  8
WORKLAYER
  6
CONTINUOUS
 62
     4
 10
-67.1999512
 20
-142.0000000
 30
0.0
 40
2.0000000
 50
90.0000000
 51
180.0000000
  0
ENDBLK
  0
BLOCK
  8
WORKLAYER
  2
DXF184
 70
    64
 10
0.0
 20
0.0
 30
0.0
  3
DXF184
  0
LINE
  8
WORKLAYER
  6
CONTINUOUS
 62
     4
 10
49.8000374
 20
-79.5000000
 30
0.0
 11
49.8000374
 21
-64.5000000
 31
0.0
 62
     4
  0
LINE
  8
WORKLAYER
  6
CONTINUOUS
 62
     4
 10
47.8000374
 20
-62.5000000
 30
0.0
 11
0.8000488
 21
-62.5000000
 31
0.0
 62
     4
  0
LINE
  8
WORKLAYER
  6
CONTINUOUS
 62
     4
 10
0.8000488
 20
-62.5000000
 30
0.0
 11
-46.1999512
 21
-62.5000000
 31
0.0
 62
     4
  0
LINE
  8
WORKLAYER
  6
CONTINUOUS
 62
     4
 10
-48.1999512
 20
-64.5000000
 30
0.0
 11
-48.1999512
 21
-79.5000000
 31
0.0
 62
     4
  0
LINE
  8
WORKLAYER
  6
CONTINUOUS
 62
     4
 10
-46.1999512
 20
-81.5000000
 30
0.0
 11
0.8000488
 21
-81.5000000
 31
0.0
 62
     4
  0
LINE
  8
WORKLAYER
  6
CONTINUOUS
 62
     4
 10
0.8000488
 20
-81.5000000
 30
0.0
 11
47.8000374
 21
-81.5000000
 31
0.0
 62
     4
  0
ARC
  8
WORKLAYER
  6
CONTINUOUS
 62
     4
 10
-35.1675606
 20
-86.5000000
 30
0.0
 40
5.0000000
 50
13.1339102
 51
90.0000000
  0
ARC
  8
WORKLAYER
  6
CONTINUOUS
 62
     4
 10
-46.1999512
 20
-79.5000000
 30
0.0
 40
2.0000000
 50
180.0000000
 51
270.0000000
  0
ARC
  8
WORKLAYER
  6
CONTINUOUS
 62
     4
 10
-46.1999512
 20
-64.5000000
 30
0.0
 40
2.0000000
 50
90.0000000
 51
180.0000000
  0
ARC
  8
WORKLAYER
  6
CONTINUOUS
 62
     4
 10
47.8000374
 20
-79.5000000
 30
0.0
 40
2.0000000
 50
270.0000000
 51
0.0000000
  0
ARC
  8
WORKLAYER
  6
CONTINUOUS
 62
     4
 10
47.8000374
 20
-64.5000000
 30
0.0
 40
2.0000000
 50
0.0000000
 51
90.0000000
  0
ENDBLK
  0
BLOCK
  8
WORKLAYER
  2
DXF186
 70
    64
 10
0.0
 20
0.0
 30
0.0
  3
DXF186
  0
LINE
  8
WORKLAYER
  6
CONTINUOUS
 62
     4
 10
31.5695992
 20
-61.0000000
 30
0.0
 11
0.8000488
 21
-61.0000000
 31
0.0
 62
     4
  0
LINE
  8
WORKLAYER
  6
CONTINUOUS
 62
     4
 10
0.8000488
 20
-61.0000000
 30
0.0
 11
-29.9695015
 21
-61.0000000
 31
0.0
 62
     4
  0
ENDBLK
  0
BLOCK
  8
0
  2
DXF188
 70
    64
 10
0.0
 20
0.0
 30
0.0
  3
DXF188
  0
LINE
  8
0
  6
CONTINUOUS
 62
     4
 10
28.0695992
 20
-89.5000000
 30
0.0
 11
26.5999489
 21
-88.6514969
 31
0.0
 62
     4
  0
LINE
  8
0
  6
CONTINUOUS
 62
     4
 10
31.5695992
 20
-62.5000000
 30
0.0
 11
31.5695992
 21
-58.5000000
 31
0.0
 62
     4
  0
LINE
  8
0
  6
CONTINUOUS
 62
     4
 10
43.5695992
 20
-62.5000000
 30
0.0
 11
43.5695992
 21
-58.5000000
 31
0.0
 62
     4
  0
LINE
  8
0
  6
CONTINUOUS
 62
     4
 10
48.5392494
 20
-81.5000000
 30
0.0
 11
26.5999489
 21
-81.5000000
 31
0.0
 62
     4
  0
LINE
  8
0
  6
CONTINUOUS
 62
     4
 10
47.0695877
 20
-89.5000000
 30
0.0
 11
28.0695992
 21
-89.5000000
 31
0.0
 62
     4
  0
LINE
  8
0
  6
CONTINUOUS
 62
     4
 10
26.5999489
 20
-88.6514969
 30
0.0
 11
26.5999489
 21
-81.5000000
 31
0.0
 62
     4
  0
LINE
  8
0
  6
CONTINUOUS
 62
     4
 10
48.5392494
 20
-88.6514969
 30
0.0
 11
48.5392494
 21
-81.5000000
 31
0.0
 62
     4
  0
LINE
  8
0
  6
CONTINUOUS
 62
     4
 10
47.0695992
 20
-89.5000000
 30
0.0
 11
48.5392494
 21
-88.6514969
 31
0.0
 62
     4
  0
ARC
  8
0
  6
CONTINUOUS
 62
     4
 10
37.5695992
 20
-73.0455170
 30
0.0
 40
16.4544792
 50
610.5288086
 51
289.4711914
  0
LINE
  8
0
  6
CONTINUOUS
 62
     4
 10
43.0544205
 20
-88.5589523
 30
0.0
 11
43.0544205
 21
-81.5000000
 31
0.0
 62
     4
  0
LINE
  8
0
  6
CONTINUOUS
 62
     4
 10
32.0847702
 20
-88.5589523
 30
0.0
 11
32.0847702
 21
-81.5000000
 31
0.0
 62
     4
  0
ARC
  8
0
  6
CONTINUOUS
 62
     4
 10
47.0695877
 20
-80.4636993
 30
0.0
 40
9.0363007
 50
603.6190186
 51
270.0000000
  0
ARC
  8
0
  6
CONTINUOUS
 62
     4
 10
28.0695992
 20
-80.4636993
 30
0.0
 40
9.0363007
 50
270.0000000
 51
296.3810120
  0
ENDBLK
  0
BLOCK
  8
0
  2
DXF189
 70
    64
 10
0.0
 20
0.0
 30
0.0
  3
DXF189
  0
LINE
  8
0
  6
CONTINUOUS
 62
     4
 10
-26.4695015
 20
-89.5000000
 30
0.0
 11
-24.9998512
 21
-88.6514969
 31
0.0
 62
     4
  0
LINE
  8
0
  6
CONTINUOUS
 62
     4
 10
-29.9695015
 20
-62.5000000
 30
0.0
 11
-29.9695015
 21
-58.5000000
 31
0.0
 62
     4
  0
LINE
  8
0
  6
CONTINUOUS
 62
     4
 10
-41.9695015
 20
-62.5000000
 30
0.0
 11
-41.9695015
 21
-58.5000000
 31
0.0
 62
     4
  0
LINE
  8
0
  6
CONTINUOUS
 62
     4
 10
-46.9391518
 20
-81.5000000
 30
0.0
 11
-24.9998512
 21
-81.5000000
 31
0.0
 62
     4
  0
LINE
  8
0
  6
CONTINUOUS
 62
     4
 10
-45.4694901
 20
-89.5000000
 30
0.0
 11
-26.4695015
 21
-89.5000000
 31
0.0
 62
     4
  0
LINE
  8
0
  6
CONTINUOUS
 62
     4
 10
-24.9998512
 20
-88.6514969
 30
0.0
 11
-24.9998512
 21
-81.5000000
 31
0.0
 62
     4
  0
LINE
  8
0
  6
CONTINUOUS
 62
     4
 10
-46.9391518
 20
-88.6514969
 30
0.0
 11
-46.9391518
 21
-81.5000000
 31
0.0
 62
     4
  0
LINE
  8
0
  6
CONTINUOUS
 62
     4
 10
-45.4695015
 20
-89.5000000
 30
0.0
 11
-46.9391518
 21
-88.6514969
 31
0.0
 62
     4
  0
ARC
  8
0
  6
CONTINUOUS
 62
     4
 10
-35.9695015
 20
-73.0455170
 30
0.0
 40
16.4544792
 50
250.5287933
 51
289.4711914
  0
LINE
  8
0
  6
CONTINUOUS
 62
     4
 10
-41.4543228
 20
-88.5589523
 30
0.0
 11
-41.4543228
 21
-81.5000000
 31
0.0
 62
     4
  0
LINE
  8
0
  6
CONTINUOUS
 62
     4
 10
-30.4846706
 20
-88.5589523
 30
0.0
 11
-30.4846706
 21
-81.5000000
 31
0.0
 62
     4
  0
ARC
  8
0
  6
CONTINUOUS
 62
     4
 10
-45.4694901
 20
-80.4636993
 30
0.0
 40
9.0363007
 50
270.0000000
 51
296.3810120
  0
ARC
  8
0
  6
CONTINUOUS
 62
     4
 10
-26.4695015
 20
-80.4636993
 30
0.0
 40
9.0363007
 50
243.6190033
 51
270.0000000
  0
ENDBLK
  0
BLOCK
  8
AREA
  2
DXF198
 70
    64
 10
0.0
 20
0.0
 30
0.0
  3
DXF198
  0
ARC
  8
AREA
  6
CONTINUOUS
 62
     4
 10
270.6199341
 20
76.0000000
 30
0.0
 40
5.0000000
 50
835.3768921
 51
540.0000000
  0
ARC
  8
AREA
  6
CONTINUOUS
 62
     4
 10
267.6198425
 20
82.3245926
 30
0.0
 40
2.0000000
 50
655.3770752
 51
711.0233154
  0
ARC
  8
AREA
  6
CONTINUOUS
 62
     4
 10
267.6198425
 20
82.3245926
 30
0.0
 40
2.0000000
 50
711.0233154
 51
720.0000000
  0
ARC
  8
AREA
  6
CONTINUOUS
 62
     4
 10
271.5709534
 20
81.7003937
 30
0.0
 40
2.0000000
 50
891.0233154
 51
574.9920044
  0
ENDBLK
  0
BLOCK
  8
AREA
  2
DXF203
 70
    64
 10
0.0
 20
0.0
 30
0.0
  3
DXF203
  0
LINE
  8
AREA
  6
CONTINUOUS
 62
     4
 10
264.0199585
 20
134.0000000
 30
0.0
 11
264.0199585
 21
116.5000000
 31
0.0
 62
     4
  0
LINE
  8
AREA
  6
CONTINUOUS
 62
     4
 10
264.0199585
 20
134.0000000
 30
0.0
 11
263.0199585
 21
135.0000000
 31
0.0
 62
     4
  0
ENDBLK
  0
BLOCK
  8
AREA
  2
DXF208
 70
    64
 10
0.0
 20
0.0
 30
0.0
  3
DXF208
  0
LINE
  8
AREA
  6
CONTINUOUS
 62
     4
 10
276.6199341
 20
69.4238892
 30
0.0
 11
276.6199341
 21
63.2454987
 31
0.0
 62
     4
  0
ARC
  8
AREA
  6
CONTINUOUS
 62
     4
 10
271.6199341
 20
69.4238892
 30
0.0
 40
5.0000000
 50
720.0000000
 51
754.9920044
  0
ENDBLK
  0
BLOCK
  8
0
  2
DXF218
 70
    64
 10
0.0
 20
0.0
 30
0.0
  3
DXF218
  0
LINE
  8
0
  6
CONTINUOUS
 62
     4
 10
273.8894348
 20
-89.5000000
 30
0.0
 11
272.4197388
 21
-88.6514969
 31
0.0
 62
     4
  0
LINE
  8
0
  6
CONTINUOUS
 62
     4
 10
289.3894348
 20
-62.5000000
 30
0.0
 11
289.3894348
 21
-58.5000000
 31
0.0
 62
     4
  0
LINE
  8
0
  6
CONTINUOUS
 62
     4
 10
294.3590393
 20
-81.5000000
 30
0.0
 11
272.4197388
 21
-81.5000000
 31
0.0
 62
     4
  0
LINE
  8
0
  6
CONTINUOUS
 62
     4
 10
292.8893433
 20
-89.5000000
 30
0.0
 11
273.8894348
 21
-89.5000000
 31
0.0
 62
     4
  0
LINE
  8
0
  6
CONTINUOUS
 62
     4
 10
272.4197388
 20
-88.6514969
 30
0.0
 11
272.4197388
 21
-81.5000000
 31
0.0
 62
     4
  0
LINE
  8
0
  6
CONTINUOUS
 62
     4
 10
294.3590393
 20
-88.6514969
 30
0.0
 11
294.3590393
 21
-81.5000000
 31
0.0
 62
     4
  0
LINE
  8
0
  6
CONTINUOUS
 62
     4
 10
292.8894348
 20
-89.5000000
 30
0.0
 11
294.3590393
 21
-88.6514969
 31
0.0
 62
     4
  0
ARC
  8
0
  6
CONTINUOUS
 62
     4
 10
283.3894348
 20
-73.0455170
 30
0.0
 40
16.4544792
 50
250.5287933
 51
289.4711914
  0
LINE
  8
0
  6
CONTINUOUS
 62
     4
 10
288.8742371
 20
-88.5589523
 30
0.0
 11
288.8742371
 21
-81.5000000
 31
0.0
 62
     4
  0
LINE
  8
0
  6
CONTINUOUS
 62
     4
 10
277.9045410
 20
-88.5589523
 30
0.0
 11
277.9045410
 21
-81.5000000
 31
0.0
 62
     4
  0
ARC
  8
0
  6
CONTINUOUS
 62
     4
 10
292.8893433
 20
-80.4636993
 30
0.0
 40
9.0363007
 50
243.6190033
 51
270.0000000
  0
ARC
  8
0
  6
CONTINUOUS
 62
     4
 10
273.8894348
 20
-80.4636993
 30
0.0
 40
9.0363007
 50
270.0000000
 51
296.3810120
  0
ENDBLK
  0
ENDSEC
  0
SECTION
  2
ENTITIES
  0
INSERT
  8
WORKLAYER
  2
DXF1
 10
0.0
 20
0.0
 30
0.0
  0
INSERT
  8
WORKLAYER
  2
DXF2
 10
0.0
 20
0.0
 30
0.0
  0
INSERT
  8
WORKLAYER
  2
DXF3
 10
0.0
 20
0.0
 30
0.0
  0
INSERT
  8
WORKLAYER
  2
DXF4
 10
0.0
 20
0.0
 30
0.0
  0
LINE
  8
AREA
  6
CONTINUOUS
 62
     4
 10
229.2197418
 20
107.5000000
 30
0.0
 11
246.6198425
 21
107.5000000
 31
0.0
 62
     4
  0
LINE
  8
AREA
  6
CONTINUOUS
 62
     4
 10
229.2197418
 20
134.0000000
 30
0.0
 11
246.6198425
 21
134.0000000
 31
0.0
 62
     4
  0
LINE
  8
AREA
  6
CONTINUOUS
 62
     4
 10
224.5659485
 20
80.9999924
 30
0.0
 11
246.6198425
 21
80.9999924
 31
0.0
 62
     4
  0
LINE
  8
AREA
  6
CONTINUOUS
 62
     4
 10
230.2197418
 20
135.0000000
 30
0.0
 11
246.6198425
 21
135.0000000
 31
0.0
 62
     4
  0
LINE
  8
AREA
  6
CONTINUOUS
 62
     4
 10
227.6198425
 20
76.0000000
 30
0.0
 11
227.6198425
 21
67.3721008
 31
0.0
 62
     4
  0
INSERT
  8
AREA
  2
DXF10
 10
0.0
 20
0.0
 30
0.0
  0
LINE
  8
AREA
  6
CONTINUOUS
 62
     4
 10
223.6197510
 20
103.0000000
 30
0.0
 11
246.6198425
 21
103.0000000
 31
0.0
 62
     4
  0
INSERT
  8
AREA
  2
DXF12
 10
0.0
 20
0.0
 30
0.0
  0
LINE
  8
AREA
  6
CONTINUOUS
 62
     4
 10
223.6197510
 20
103.0000000
 30
0.0
 11
223.6197510
 21
82.3245926
 31
0.0
 62
     4
  0
LINE
  8
AREA
  6
CONTINUOUS
 62
     4
 10
217.5236511
 20
72.2911987
 30
0.0
 11
223.3072510
 21
80.5534973
 31
0.0
 62
     4
  0
ARC
  8
AREA
  6
CONTINUOUS
 62
     4
 10
229.2197418
 20
109.0000000
 30
0.0
 40
1.5000000
 50
270.0000000
 51
11.5365000
  0
LINE
  8
AREA
  6
CONTINUOUS
 62
     4
 10
229.2197418
 20
116.5000000
 30
0.0
 11
230.6894531
 21
109.3000031
 31
0.0
 62
     4
  0
INSERT
  8
AREA
  2
DXF17
 10
0.0
 20
0.0
 30
0.0
  0
LINE
  8
AREA
  6
CONTINUOUS
 62
     4
 10
229.2197418
 20
107.5000000
 30
0.0
 11
229.2197418
 21
103.0000000
 31
0.0
 62
     4
  0
CIRCLE
  8
WORKLAYER
  6
CONTINUOUS
 62
     4
 10
209.4966431
 20
-37.1231117
 30
0.0
 40
9.5000000
  0
CIRCLE
  8
WORKLAYER
  6
CONTINUOUS
 62
     4
 10
209.4966431
 20
37.1231995
 30
0.0
 40
9.5000000
  0
CIRCLE
  8
WORKLAYER
  6
CONTINUOUS
 62
     4
 10
246.6198425
 20
0.0000000
 30
0.0
 40
20.0000000
  0
LINE
  8
WORKLAYER
  6
CENTER
 62
     2
 10
299.1198425
 20
-163.0000000
 30
0.0
 11
299.1198425
 21
-137.0000000
 31
0.0
 62
     2
  0
LINE
  8
WORKLAYER
  6
CENTER
 62
     2
 10
194.1198425
 20
-163.0000000
 30
0.0
 11
194.1198425
 21
-137.0000000
 31
0.0
 62
     2
  0
LINE
  8
WORKLAYER
  6
CONTINUOUS
 62
     4
 10
274.0928345
 20
-125.0000992
 30
0.0
 11
275.1198425
 21
-96.5000000
 31
0.0
 62
     4
  0
LINE
  8
WORKLAYER
  6
CONTINUOUS
 62
     4
 10
219.1468506
 20
-125.0000992
 30
0.0
 11
218.1198425
 21
-96.5000000
 31
0.0
 62
     4
  0
LINE
  8
SDIM
  6
CONTINUOUS
 62
     2
 10
314.6198425
 20
-142.0000000
 30
0.0
 11
316.0340576
 21
-140.5858002
 31
0.0
 62
     2
  0
LINE
  8
WORKLAYER
  6
CONTINUOUS
 62
     4
 10
217.3222504
 20
-135.8307037
 30
0.0
 11
219.1468506
 21
-125.0000000
 31
0.0
 62
     4
  0
LINE
  8
WORKLAYER
  6
CONTINUOUS
 62
     4
 10
275.9174500
 20
-135.8307037
 30
0.0
 11
274.0928345
 21
-125.0000000
 31
0.0
 62
     4
  0
LINE
  8
WORKLAYER
  6
CONTINUOUS
 62
     4
 10
275.1198425
 20
-96.5000000
 30
0.0
 11
276.7532349
 21
-89.5000000
 31
0.0
 62
     4
  0
INSERT
  8
WORKLAYER
  2
DXF30
 10
0.0
 20
0.0
 30
0.0
  0
INSERT
  8
0
  2
DXF31
 10
0.0
 20
0.0
 30
0.0
  0
INSERT
  8
0
  2
DXF32
 10
0.0
 20
0.0
 30
0.0
  0
INSERT
  8
WORKLAYER
  2
DXF33
 10
0.0
 20
0.0
 30
0.0
  0
INSERT
  8
WORKLAYER
  2
DXF34
 10
0.0
 20
0.0
 30
0.0
  0
INSERT
  8
WORKLAYER
  2
DXF35
 10
0.0
 20
0.0
 30
0.0
  0
LINE
  8
0
  6
CONTINUOUS
 62
     4
 10
203.8502502
 20
-62.5000000
 30
0.0
 11
203.8502502
 21
-58.5000000
 31
0.0
 62
     4
  0
INSERT
  8
WORKLAYER
  2
DXF37
 10
0.0
 20
0.0
 30
0.0
  0
LINE
  8
WORKLAYER
  6
CONTINUOUS
 62
     4
 10
218.1198425
 20
-96.5000000
 30
0.0
 11
216.4865417
 21
-89.5000000
 31
0.0
 62
     4
  0
INSERT
  8
WORKLAYER
  2
DXF39
 10
0.0
 20
0.0
 30
0.0
  0
INSERT
  8
WORKLAYER
  2
DXF40
 10
0.0
 20
0.0
 30
0.0
  0
INSERT
  8
WORKLAYER
  2
DXF41
 10
0.0
 20
0.0
 30
0.0
  0
INSERT
  8
WORKLAYER
  2
DXF42
 10
0.0
 20
0.0
 30
0.0
  0
LINE
  8
WORKLAYER
  6
CENTER
 62
     2
 10
200.6687469
 20
-45.9508514
 30
0.0
 11
217.9820251
 21
-28.6378574
 31
0.0
 62
     2
  0
LINE
  8
WORKLAYER
  6
CENTER
 62
     2
 10
200.4103546
 20
46.2094994
 30
0.0
 11
217.9820099
 21
28.6378231
 31
0.0
 62
     2
  0
LINE
  8
WORKLAYER
  6
CONTINUOUS
 62
     4
 10
31.5695992
 20
-61.0000000
 30
0.0
 11
-29.9695015
 21
-61.0000000
 31
0.0
 62
     4
  0
LINE
  8
AREA
  6
CONTINUOUS
 62
     4
 10
27.8000488
 20
-24.7500000
 30
0.0
 11
21.8000488
 21
-27.5000000
 31
0.0
 62
     4
  0
LINE
  8
AREA
  6
CONTINUOUS
 62
     4
 10
27.8000488
 20
-24.7500000
 30
0.0
 11
21.8000488
 21
-22.0000000
 31
0.0
 62
     4
  0
ARC
  8
WORKLAYER
  6
CONTINUOUS
 62
     4
 10
-83.6510010
 20
-5.9874878
 30
0.0
 40
54.0000000
 50
377.8092957
 51
421.4938049
  0
LINE
  8
AREA
  6
CONTINUOUS
 62
     4
 10
18.1999493
 20
116.5000000
 30
0.0
 11
-16.6001606
 21
116.5000000
 31
0.0
 62
     4
  0
LINE
  8
WORKLAYER
  6
CENTER
 62
     2
 10
88.8000488
 20
52.5000000
 30
0.0
 11
114.8000488
 21
52.5000000
 31
0.0
 62
     2
  0
LINE
  8
WORKLAYER
  6
CENTER
 62
     2
 10
88.8000488
 20
-52.5000000
 30
0.0
 11
114.8000488
 21
-52.5000000
 31
0.0
 62
     2
  0
LINE
  8
WORKLAYER
  6
CENTER
 62
     2
 10
-87.1999512
 20
52.5000000
 30
0.0
 11
-113.1999512
 21
52.5000000
 31
0.0
 62
     2
  0
LINE
  8
WORKLAYER
  6
CENTER
 62
     2
 10
-87.1999512
 20
-52.5000000
 30
0.0
 11
-113.1999512
 21
-52.5000000
 31
0.0
 62
     2
  0
LINE
  8
AREA
  6
CONTINUOUS
 62
     4
 10
-16.6001606
 20
107.5000000
 30
0.0
 11
0.7999878
 21
107.5000000
 31
0.0
 62
     4
  0
LINE
  8
AREA
  6
CONTINUOUS
 62
     4
 10
-16.6001606
 20
134.0000000
 30
0.0
 11
0.7999878
 21
134.0000000
 31
0.0
 62
     4
  0
INSERT
  8
AREA
  2
DXF56
 10
0.0
 20
0.0
 30
0.0
  0
LINE
  8
AREA
  6
CONTINUOUS
 62
     4
 10
-15.6001606
 20
135.0000000
 30
0.0
 11
0.7999878
 21
135.0000000
 31
0.0
 62
     4
  0
INSERT
  8
AREA
  2
DXF58
 10
0.0
 20
0.0
 30
0.0
  0
INSERT
  8
AREA
  2
DXF59
 10
0.0
 20
0.0
 30
0.0
  0
LINE
  8
AREA
  6
CONTINUOUS
 62
     4
 10
-22.2000103
 20
103.0000000
 30
0.0
 11
0.7999878
 21
103.0000000
 31
0.0
 62
     4
  0
INSERT
  8
AREA
  2
DXF61
 10
0.0
 20
0.0
 30
0.0
  0
LINE
  8
AREA
  6
CONTINUOUS
 62
     4
 10
-22.2000103
 20
103.0000000
 30
0.0
 11
-22.2000103
 21
82.3246231
 31
0.0
 62
     4
  0
LINE
  8
AREA
  6
CONTINUOUS
 62
     4
 10
-28.2962017
 20
72.2911987
 30
0.0
 11
-22.5125103
 21
80.5534973
 31
0.0
 62
     4
  0
ARC
  8
AREA
  6
CONTINUOUS
 62
     4
 10
-16.6001606
 20
109.0000000
 30
0.0
 40
1.5000000
 50
270.0000000
 51
371.5364990
  0
LINE
  8
AREA
  6
CONTINUOUS
 62
     4
 10
-16.6001606
 20
116.5000000
 30
0.0
 11
-15.1303110
 21
109.3000031
 31
0.0
 62
     4
  0
INSERT
  8
AREA
  2
DXF66
 10
0.0
 20
0.0
 30
0.0
  0
LINE
  8
AREA
  6
CONTINUOUS
 62
     4
 10
-16.6001606
 20
107.5000000
 30
0.0
 11
-16.6001606
 21
103.0000000
 31
0.0
 62
     4
  0
LINE
  8
AREA
  6
CONTINUOUS
 62
     4
 10
18.1999493
 20
107.5000000
 30
0.0
 11
0.8000488
 21
107.5000000
 31
0.0
 62
     4
  0
LINE
  8
AREA
  6
CONTINUOUS
 62
     4
 10
18.1999493
 20
134.0000000
 30
0.0
 11
0.8000488
 21
134.0000000
 31
0.0
 62
     4
  0
INSERT
  8
AREA
  2
DXF70
 10
0.0
 20
0.0
 30
0.0
  0
LINE
  8
AREA
  6
CONTINUOUS
 62
     4
 10
17.1999493
 20
135.0000000
 30
0.0
 11
0.8000488
 21
135.0000000
 31
0.0
 62
     4
  0
INSERT
  8
AREA
  2
DXF72
 10
0.0
 20
0.0
 30
0.0
  0
INSERT
  8
AREA
  2
DXF73
 10
0.0
 20
0.0
 30
0.0
  0
LINE
  8
AREA
  6
CONTINUOUS
 62
     4
 10
23.8000488
 20
103.0000000
 30
0.0
 11
0.8000488
 21
103.0000000
 31
0.0
 62
     4
  0
INSERT
  8
AREA
  2
DXF75
 10
0.0
 20
0.0
 30
0.0
  0
LINE
  8
AREA
  6
CONTINUOUS
 62
     4
 10
23.8000488
 20
103.0000000
 30
0.0
 11
23.8000488
 21
82.3246231
 31
0.0
 62
     4
  0
LINE
  8
AREA
  6
CONTINUOUS
 62
     4
 10
29.8962383
 20
72.2911987
 30
0.0
 11
24.1125488
 21
80.5534973
 31
0.0
 62
     4
  0
ARC
  8
AREA
  6
CONTINUOUS
 62
     4
 10
18.1999493
 20
109.0000000
 30
0.0
 40
1.5000000
 50
528.4635010
 51
270.0000000
  0
LINE
  8
AREA
  6
CONTINUOUS
 62
     4
 10
18.1999493
 20
116.5000000
 30
0.0
 11
16.7303486
 21
109.3000031
 31
0.0
 62
     4
  0
INSERT
  8
AREA
  2
DXF80
 10
0.0
 20
0.0
 30
0.0
  0
LINE
  8
AREA
  6
CONTINUOUS
 62
     4
 10
18.1999493
 20
107.5000000
 30
0.0
 11
18.1999493
 21
103.0000000
 31
0.0
 62
     4
  0
INSERT
  8
WORKLAYER
  2
DXF82
 10
0.0
 20
0.0
 30
0.0
  0
INSERT
  8
WORKLAYER
  2
DXF83
 10
0.0
 20
0.0
 30
0.0
  0
INSERT
  8
WORKLAYER
  2
DXF84
 10
0.0
 20
0.0
 30
0.0
  0
INSERT
  8
WORKLAYER
  2
DXF85
 10
0.0
 20
0.0
 30
0.0
  0
LINE
  8
WORKLAYER
  6
CONTINUOUS
 62
     4
 10
-0.9499512
 20
-41.5000000
 30
0.0
 11
2.5500488
 21
-41.5000000
 31
0.0
 62
     4
  0
LINE
  8
WORKLAYER
  6
CONTINUOUS
 62
     4
 10
-17.1999512
 20
-26.5000000
 30
0.0
 11
-17.1999512
 21
-23.0000000
 31
0.0
 62
     4
  0
LINE
  8
WORKLAYER
  6
CENTER
 62
     2
 10
-11.6003408
 20
25.0000000
 30
0.0
 11
12.2386484
 21
25.0000000
 31
0.0
 62
     2
  0
INSERT
  8
WORKLAYER
  2
DXF89
 10
0.0
 20
0.0
 30
0.0
  0
LINE
  8
WORKLAYER
  6
CONTINUOUS
 62
     4
 10
1.0000000
 20
-9.3999939
 30
0.0
 11
1.0000000
 21
-10.5999899
 31
0.0
 62
     4
  0
LINE
  8
WORKLAYER
  6
CONTINUOUS
 62
     4
 10
0.0000000
 20
-20.0000000
 30
0.0
 11
0.0000000
 21
0.0000000
 31
0.0
 62
     4
  0
INSERT
  8
SSYMB
  2
DXF92
 10
0.0
 20
0.0
 30
0.0
  0
LINE
  8
WORKLAYER
  6
CONTINUOUS
 62
     4
 10
8.8000488
 20
-9.3998871
 30
0.0
 11
8.8000488
 21
-10.5999899
 31
0.0
 62
     4
  0
LINE
  8
AREA
  6
CONTINUOUS
 62
     4
 10
8.8000488
 20
-9.3998871
 30
0.0
 11
1.0000000
 21
-9.3999939
 31
0.0
 62
     4
  0
LINE
  8
AREA
  6
CONTINUOUS
 62
     4
 10
8.8000488
 20
-10.5999899
 30
0.0
 11
1.0000000
 21
-10.5999899
 31
0.0
 62
     4
  0
LINE
  8
AREA
  6
CONTINUOUS
 62
     4
 10
-66.1999512
 20
4.1100011
 30
0.0
 11
-61.1999512
 21
19.1100006
 31
0.0
 62
     4
  0
INSERT
  8
AREA
  2
DXF97
 10
0.0
 20
0.0
 30
0.0
  0
LINE
  8
AREA
  6
CONTINUOUS
 62
     4
 10
-58.7812500
 20
7.1100011
 30
0.0
 11
-63.6189575
 21
7.1100011
 31
0.0
 62
     4
  0
LINE
  8
AREA
  6
CONTINUOUS
 62
     4
 10
-59.2812500
 20
8.6100006
 30
0.0
 11
-63.1189613
 21
8.6100006
 31
0.0
 62
     4
  0
LINE
  8
AREA
  6
CONTINUOUS
 62
     4
 10
-56.1999512
 20
4.1100011
 30
0.0
 11
-61.1999512
 21
19.1100006
 31
0.0
 62
     4
  0
INSERT
  8
AREA
  2
DXF101
 10
0.0
 20
0.0
 30
0.0
  0
LINE
  8
AREA
  6
CONTINUOUS
 62
     4
 10
-64.6189575
 20
4.1100011
 30
0.0
 11
-66.1999512
 21
4.1100011
 31
0.0
 62
     4
  0
LINE
  8
AREA
  6
CONTINUOUS
 62
     4
 10
-56.1999512
 20
4.1100011
 30
0.0
 11
-57.7812500
 21
4.1100011
 31
0.0
 62
     4
  0
INSERT
  8
WORKLAYER
  2
DXF104
 10
0.0
 20
0.0
 30
0.0
  0
LINE
  8
AREA
  6
CONTINUOUS
 62
     4
 10
66.8000488
 20
-19.6122894
 30
0.0
 11
60.3000488
 21
-19.6122894
 31
0.0
 62
     4
  0
LINE
  8
AREA
  6
CONTINUOUS
 62
     4
 10
66.8094482
 20
-4.6122890
 30
0.0
 11
60.3000488
 21
-4.6122890
 31
0.0
 62
     4
  0
LINE
  8
WORKLAYER
  6
CONTINUOUS
 62
     4
 10
60.3000488
 20
-19.6122894
 30
0.0
 11
60.3000488
 21
-4.6122890
 31
0.0
 62
     4
  0
LINE
  8
WORKLAYER
  6
CONTINUOUS
 62
     4
 10
61.8000488
 20
-18.1122894
 30
0.0
 11
61.8000488
 21
-12.8622904
 31
0.0
 62
     4
  0
LINE
  8
AREA
  6
CONTINUOUS
 62
     4
 10
54.5500488
 20
-4.6122890
 30
0.0
 11
49.8000488
 21
-19.6122894
 31
0.0
 62
     4
  0
INSERT
  8
AREA
  2
DXF110
 10
0.0
 20
0.0
 30
0.0
  0
LINE
  8
AREA
  6
CONTINUOUS
 62
     4
 10
54.5500488
 20
-16.6122894
 30
0.0
 11
52.3232384
 21
-16.6122894
 31
0.0
 62
     4
  0
LINE
  8
AREA
  6
CONTINUOUS
 62
     4
 10
54.5500488
 20
-15.1122904
 30
0.0
 11
52.7983971
 21
-15.1122904
 31
0.0
 62
     4
  0
LINE
  8
AREA
  6
CONTINUOUS
 62
     4
 10
51.3733482
 20
-19.6122894
 30
0.0
 11
49.8000488
 21
-19.6122894
 31
0.0
 62
     4
  0
LINE
  8
AREA
  6
CONTINUOUS
 62
     4
 10
54.5500488
 20
-4.6122890
 30
0.0
 11
59.3000488
 21
-19.6122894
 31
0.0
 62
     4
  0
INSERT
  8
AREA
  2
DXF115
 10
0.0
 20
0.0
 30
0.0
  0
LINE
  8
AREA
  6
CONTINUOUS
 62
     4
 10
54.5500488
 20
-16.6122894
 30
0.0
 11
56.7765503
 21
-16.6122894
 31
0.0
 62
     4
  0
LINE
  8
AREA
  6
CONTINUOUS
 62
     4
 10
54.5500488
 20
-15.1122904
 30
0.0
 11
56.3014488
 21
-15.1122904
 31
0.0
 62
     4
  0
LINE
  8
AREA
  6
CONTINUOUS
 62
     4
 10
57.7266884
 20
-19.6122894
 30
0.0
 11
59.3000488
 21
-19.6122894
 31
0.0
 62
     4
  0
INSERT
  8
WORKLAYER
  2
DXF119
 10
0.0
 20
0.0
 30
0.0
  0
LINE
  8
AREA
  6
CONTINUOUS
 62
     4
 10
66.8000488
 20
-18.1122894
 30
0.0
 11
61.8000488
 21
-18.1122894
 31
0.0
 62
     4
  0
LINE
  8
AREA
  6
CONTINUOUS
 62
     4
 10
66.8066406
 20
-6.1122890
 30
0.0
 11
61.8000488
 21
-6.1122890
 31
0.0
 62
     4
  0
LINE
  8
AREA
  6
CONTINUOUS
 62
     4
 10
66.8000488
 20
-12.8622904
 30
0.0
 11
61.8000488
 21
-12.8622904
 31
0.0
 62
     4
  0
LINE
  8
AREA
  6
CONTINUOUS
 62
     4
 10
66.8000488
 20
-11.3622904
 30
0.0
 11
61.8000488
 21
-11.3622904
 31
0.0
 62
     4
  0
INSERT
  8
WORKLAYER
  2
DXF124
 10
0.0
 20
0.0
 30
0.0
  0
INSERT
  8
WORKLAYER
  2
DXF125
 10
0.0
 20
0.0
 30
0.0
  0
LINE
  8
WORKLAYER
  6
CONTINUOUS
 62
     4
 10
61.8000488
 20
-6.1122890
 30
0.0
 11
61.8000488
 21
-11.3622904
 31
0.0
 62
     4
  0
INSERT
  8
WORKLAYER
  2
DXF127
 10
0.0
 20
0.0
 30
0.0
  0
INSERT
  8
WORKLAYER
  2
DXF128
 10
0.0
 20
0.0
 30
0.0
  0
LINE
  8
WORKLAYER
  6
CONTINUOUS
 62
     4
 10
-50.6758423
 20
-13.3213997
 30
0.0
 11
-64.0942993
 21
-22.3788891
 31
0.0
 62
     4
  0
INSERT
  8
WORKLAYER
  2
DXF130
 10
0.0
 20
0.0
 30
0.0
  0
ARC
  8
WORKLAYER
  6
CONTINUOUS
 62
     4
 10
-85.1999512
 20
-32.0000000
 30
0.0
 40
5.0000000
 50
450.0000000
 51
180.0000000
  0
ARC
  8
WORKLAYER
  6
CONTINUOUS
 62
     4
 10
-44.0937500
 20
-34.0000000
 30
0.0
 40
5.0000000
 50
325.2110901
 51
450.0000000
  0
INSERT
  8
WORKLAYER
  2
DXF133
 10
0.0
 20
0.0
 30
0.0
  0
ARC
  8
WORKLAYER
  6
CONTINUOUS
 62
     4
 10
40.5489502
 20
34.0000000
 30
0.0
 40
5.0000000
 50
187.1808014
 51
270.0000000
  0
LINE
  8
WORKLAYER
  6
CONTINUOUS
 62
     4
 10
86.8000488
 20
29.0000000
 30
0.0
 11
40.5489502
 21
29.0000000
 31
0.0
 62
     4
  0
LINE
  8
WORKLAYER
  6
CONTINUOUS
 62
     4
 10
-85.1999512
 20
-27.0000000
 30
0.0
 11
-79.1999512
 21
-27.0000000
 31
0.0
 62
     4
  0
INSERT
  8
WORKLAYER
  2
DXF137
 10
0.0
 20
0.0
 30
0.0
  0
ARC
  8
WORKLAYER
  6
CONTINUOUS
 62
     4
 10
-85.1999512
 20
-34.0000000
 30
0.0
 40
5.0000000
 50
450.0000000
 51
180.0000000
  0
ARC
  8
WORKLAYER
  6
CONTINUOUS
 62
     4
 10
86.8000488
 20
34.0000000
 30
0.0
 40
5.0000000
 50
270.0000000
 51
360.0000000
  0
LINE
  8
WORKLAYER
  6
CONTINUOUS
 62
     4
 10
-44.0937500
 20
-29.0000000
 30
0.0
 11
-85.1999512
 21
-29.0000000
 31
0.0
 62
     4
  0
LINE
  8
WORKLAYER
  6
CONTINUOUS
 62
     4
 10
-49.8614502
 20
52.3790016
 30
0.0
 11
-82.4026489
 21
30.4136009
 31
0.0
 62
     4
  0
INSERT
  8
WORKLAYER
  2
DXF142
 10
0.0
 20
0.0
 30
0.0
  0
INSERT
  8
WORKLAYER
  2
DXF143
 10
0.0
 20
0.0
 30
0.0
  0
INSERT
  8
WORKLAYER
  2
DXF144
 10
0.0
 20
0.0
 30
0.0
  0
ARC
  8
WORKLAYER
  6
CONTINUOUS
 62
     4
 10
-79.1999512
 20
0.0000000
 30
0.0
 40
27.0000000
 50
270.0000000
 51
304.0606995
  0
INSERT
  8
WORKLAYER
  2
DXF146
 10
0.0
 20
0.0
 30
0.0
  0
ARC
  8
WORKLAYER
  6
CONTINUOUS
 62
     4
 10
-85.1999512
 20
34.5578003
 30
0.0
 40
5.0000000
 50
180.0000000
 51
304.0192871
  0
LINE
  8
WORKLAYER
  6
CONTINUOUS
 62
     4
 10
91.8000488
 20
-35.5652885
 30
0.0
 11
91.8000488
 21
33.2056999
 31
0.0
 62
     4
  0
LINE
  8
WORKLAYER
  6
CONTINUOUS
 62
     4
 10
-90.1999512
 20
-32.0000000
 30
0.0
 11
-90.1999512
 21
34.5578003
 31
0.0
 62
     4
  0
LINE
  8
WORKLAYER
  6
CONTINUOUS
 62
     4
 10
-38.1364098
 20
-58.5000000
 30
0.0
 11
39.7364502
 21
-58.5000000
 31
0.0
 62
     4
  0
LINE
  8
WORKLAYER
  6
CONTINUOUS
 62
     4
 10
-43.2630005
 20
-41.5000000
 30
0.0
 11
49.8000488
 21
-41.5000000
 31
0.0
 62
     4
  0
LINE
  8
WORKLAYER
  6
CONTINUOUS
 62
     4
 10
35.8000488
 20
10.0000000
 30
0.0
 11
-29.9140015
 21
10.0000000
 31
0.0
 62
     4
  0
INSERT
  8
WORKLAYER
  2
DXF153
 10
0.0
 20
0.0
 30
0.0
  0
LINE
  8
WORKLAYER
  6
CONTINUOUS
 62
     4
 10
76.8000488
 20
-30.2217903
 30
0.0
 11
76.8000488
 21
19.9827099
 31
0.0
 62
     4
  0
LINE
  8
WORKLAYER
  6
CONTINUOUS
 62
     4
 10
-75.1999512
 20
-22.0961895
 30
0.0
 11
-75.1999512
 21
28.9788094
 31
0.0
 62
     4
  0
ARC
  8
WORKLAYER
  6
CONTINUOUS
 62
     4
 10
98.7015991
 20
-9.0152893
 30
0.0
 40
54.0000000
 50
517.9849243
 51
215.7673035
  0
INSERT
  8
SSYMB
  2
DXF157
 10
0.0
 20
0.0
 30
0.0
  0
INSERT
  8
SSYMB
  2
DXF158
 10
0.0
 20
0.0
 30
0.0
  0
INSERT
  8
SSYMB
  2
DXF159
 10
0.0
 20
0.0
 30
0.0
  0
LINE
  8
WORKLAYER
  6
CENTER
 62
     2
 10
-113.1999512
 20
0.0000000
 30
0.0
 11
114.8000488
 21
0.0000000
 31
0.0
 62
     2
  0
LINE
  8
WORKLAYER
  6
CONTINUOUS
 62
     4
 10
39.4435387
 20
5.0000000
 30
0.0
 11
-33.1999512
 21
5.0000000
 31
0.0
 62
     4
  0
LINE
  8
WORKLAYER
  6
CONTINUOUS
 62
     4
 10
31.5695992
 20
-60.0000000
 30
0.0
 11
-29.9695015
 21
-60.0000000
 31
0.0
 62
     4
  0
INSERT
  8
SSYMB
  2
DXF163
 10
0.0
 20
0.0
 30
0.0
  0
INSERT
  8
SSYMB
  2
DXF164
 10
0.0
 20
0.0
 30
0.0
  0
ARC
  8
0
  6
CONTINUOUS
 62
     4
 10
1.1072998
 20
28.5013103
 30
0.0
 40
3.5013590
 50
630.0000000
 51
360.0000000
  0
LINE
  8
0
  6
CONTINUOUS
 62
     4
 10
-11.8978310
 20
35.0039101
 30
0.0
 11
-2.8944092
 21
35.0039101
 31
0.0
 62
     4
  0
LINE
  8
0
  6
CONTINUOUS
 62
     4
 10
-2.8944092
 20
35.0039101
 30
0.0
 11
-2.8944092
 21
25.0000000
 31
0.0
 62
     4
  0
LINE
  8
0
  6
CONTINUOUS
 62
     4
 10
-11.8978310
 20
35.0039101
 30
0.0
 11
-2.8944092
 21
25.0000000
 31
0.0
 62
     4
  0
LINE
  8
0
  6
CONTINUOUS
 62
     4
 10
4.6085815
 20
35.0039101
 30
0.0
 11
4.6085815
 21
28.5013103
 31
0.0
 62
     4
  0
LINE
  8
0
  6
CONTINUOUS
 62
     4
 10
1.1072998
 20
25.0000000
 30
0.0
 11
-2.1440432
 21
25.0000000
 31
0.0
 62
     4
  0
LINE
  8
0
  6
CONTINUOUS
 62
     4
 10
-9.6470308
 20
14.9961100
 30
0.0
 11
-2.1440432
 21
25.0000000
 31
0.0
 62
     4
  0
LINE
  8
0
  6
CONTINUOUS
 62
     4
 10
-9.6470308
 20
14.9961100
 30
0.0
 11
-0.8935552
 21
14.9961100
 31
0.0
 62
     4
  0
LINE
  8
0
  6
CONTINUOUS
 62
     4
 10
13.8621788
 20
35.0039101
 30
0.0
 11
4.6085815
 21
35.0039101
 31
0.0
 62
     4
  0
LINE
  8
0
  6
CONTINUOUS
 62
     4
 10
13.8621788
 20
35.0039101
 30
0.0
 11
-0.8935552
 21
14.9961100
 31
0.0
 62
     4
  0
LINE
  8
WORKLAYER
  6
CENTER
 62
     2
 10
53.3000374
 20
-163.0000000
 30
0.0
 11
53.3000374
 21
-137.0000000
 31
0.0
 62
     2
  0
LINE
  8
WORKLAYER
  6
CENTER
 62
     2
 10
-51.6999512
 20
-163.0000000
 30
0.0
 11
-51.6999512
 21
-137.0000000
 31
0.0
 62
     2
  0
LINE
  8
WORKLAYER
  6
CONTINUOUS
 62
     4
 10
28.2730389
 20
-125.0000992
 30
0.0
 11
29.3000393
 21
-96.5000000
 31
0.0
 62
     4
  0
LINE
  8
WORKLAYER
  6
CONTINUOUS
 62
     4
 10
-26.6729603
 20
-125.0000992
 30
0.0
 11
-27.6999512
 21
-96.5000000
 31
0.0
 62
     4
  0
LINE
  8
SDIM
  6
CONTINUOUS
 62
     2
 10
68.8000717
 20
-142.0000000
 30
0.0
 11
70.2142792
 21
-140.5858002
 31
0.0
 62
     2
  0
LINE
  8
WORKLAYER
  6
CONTINUOUS
 62
     4
 10
-28.4975605
 20
-135.8307037
 30
0.0
 11
-26.6729603
 21
-125.0000000
 31
0.0
 62
     4
  0
LINE
  8
WORKLAYER
  6
CONTINUOUS
 62
     4
 10
30.0976391
 20
-135.8307037
 30
0.0
 11
28.2730389
 21
-125.0000000
 31
0.0
 62
     4
  0
LINE
  8
WORKLAYER
  6
CONTINUOUS
 62
     4
 10
-27.6999512
 20
-96.5000000
 30
0.0
 11
-30.2983513
 21
-85.3639069
 31
0.0
 62
     4
  0
INSERT
  8
WORKLAYER
  2
DXF183
 10
0.0
 20
0.0
 30
0.0
  0
INSERT
  8
WORKLAYER
  2
DXF184
 10
0.0
 20
0.0
 30
0.0
  0
LINE
  8
WORKLAYER
  6
CONTINUOUS
 62
     4
 10
29.3000393
 20
-96.5000000
 30
0.0
 11
30.9334297
 21
-89.5000000
 31
0.0
 62
     4
  0
INSERT
  8
WORKLAYER
  2
DXF186
 10
0.0
 20
0.0
 30
0.0
  0
LINE
  8
WORKLAYER
  6
CENTER
 62
     2
 10
0.8000488
 20
-172.9741974
 30
0.0
 11
0.8000488
 21
199.9313049
 31
0.0
 62
     2
  0
INSERT
  8
0
  2
DXF188
 10
0.0
 20
0.0
 30
0.0
  0
INSERT
  8
0
  2
DXF189
 10
0.0
 20
0.0
 30
0.0
  0
ARC
  8
WORKLAYER
  6
CONTINUOUS
 62
     4
 10
254.6198425
 20
76.0000000
 30
0.0
 40
5.0000000
 50
810.0000000
 51
540.0000000
  0
LINE
  8
WORKLAYER
  6
CONTINUOUS
 62
     4
 10
249.6198425
 20
69.9356995
 30
0.0
 11
249.6198425
 21
76.0000000
 31
0.0
 62
     4
  0
LINE
  8
AREA
  6
CONTINUOUS
 62
     4
 10
264.0199585
 20
116.5000000
 30
0.0
 11
246.6198425
 21
116.5000000
 31
0.0
 62
     4
  0
LINE
  8
AREA
  6
CONTINUOUS
 62
     4
 10
264.0199585
 20
107.5000000
 30
0.0
 11
246.6198425
 21
107.5000000
 31
0.0
 62
     4
  0
LINE
  8
AREA
  6
CONTINUOUS
 62
     4
 10
264.0199585
 20
134.0000000
 30
0.0
 11
246.6198425
 21
134.0000000
 31
0.0
 62
     4
  0
LINE
  8
AREA
  6
CONTINUOUS
 62
     4
 10
268.6737366
 20
80.9999924
 30
0.0
 11
246.6198425
 21
80.9999924
 31
0.0
 62
     4
  0
LINE
  8
AREA
  6
CONTINUOUS
 62
     4
 10
263.0199585
 20
135.0000000
 30
0.0
 11
246.6198425
 21
135.0000000
 31
0.0
 62
     4
  0
LINE
  8
AREA
  6
CONTINUOUS
 62
     4
 10
269.6199341
 20
103.0000000
 30
0.0
 11
246.6198425
 21
103.0000000
 31
0.0
 62
     4
  0
INSERT
  8
AREA
  2
DXF198
 10
0.0
 20
0.0
 30
0.0
  0
LINE
  8
AREA
  6
CONTINUOUS
 62
     4
 10
269.6199341
 20
103.0000000
 30
0.0
 11
269.6199341
 21
82.3245926
 31
0.0
 62
     4
  0
LINE
  8
AREA
  6
CONTINUOUS
 62
     4
 10
275.7160339
 20
72.2911987
 30
0.0
 11
269.9324341
 21
80.5534973
 31
0.0
 62
     4
  0
ARC
  8
AREA
  6
CONTINUOUS
 62
     4
 10
264.0199585
 20
109.0000000
 30
0.0
 40
1.5000000
 50
888.4635010
 51
630.0000000
  0
LINE
  8
AREA
  6
CONTINUOUS
 62
     4
 10
264.0199585
 20
116.5000000
 30
0.0
 11
262.5502625
 21
109.3000031
 31
0.0
 62
     4
  0
INSERT
  8
AREA
  2
DXF203
 10
0.0
 20
0.0
 30
0.0
  0
LINE
  8
AREA
  6
CONTINUOUS
 62
     4
 10
264.0199585
 20
107.5000000
 30
0.0
 11
264.0199585
 21
103.0000000
 31
0.0
 62
     4
  0
LINE
  8
WORKLAYER
  6
CENTER
 62
     2
 10
171.6198425
 20
0.0000000
 30
0.0
 11
321.6198425
 21
-0.0000000
 31
0.0
 62
     2
  0
CIRCLE
  8
WORKLAYER
  6
CONTINUOUS
 62
     4
 10
283.7430420
 20
-37.1231117
 30
0.0
 40
9.5000000
  0
CIRCLE
  8
WORKLAYER
  6
CONTINUOUS
 62
     4
 10
283.7430420
 20
37.1231995
 30
0.0
 40
9.5000000
  0
INSERT
  8
AREA
  2
DXF208
 10
0.0
 20
0.0
 30
0.0
  0
LINE
  8
AREA
  6
CONTINUOUS
 62
     4
 10
265.6198425
 20
76.0000000
 30
0.0
 11
265.6198425
 21
67.3721008
 31
0.0
 62
     4
  0
CIRCLE
  8
WORKLAYER
  6
CENTER
 62
     2
 10
246.6198425
 20
-0.0000000
 30
0.0
 40
52.5000000
  0
LINE
  8
WORKLAYER
  6
CENTER
 62
     2
 10
246.6198425
 20
-172.9741974
 30
0.0
 11
246.6198425
 21
201.8775940
 31
0.0
 62
     2
  0
CIRCLE
  8
WORKLAYER
  6
CONTINUOUS
 62
     4
 10
246.6198425
 20
-0.0000000
 30
0.0
 40
70.0000000
  0
LINE
  8
WORKLAYER
  6
CENTER
 62
     2
 10
293.3889465
 20
46.7691193
 30
0.0
 11
275.2576904
 21
28.6378212
 31
0.0
 62
     2
  0
LINE
  8
WORKLAYER
  6
CENTER
 62
     2
 10
293.4144592
 20
-46.7943497
 30
0.0
 11
275.2576599
 21
-28.6378574
 31
0.0
 62
     2
  0
ARC
  8
WORKLAYER
  6
CONTINUOUS
 62
     4
 10
238.6198425
 20
76.0000000
 30
0.0
 40
5.0000000
 50
0.0000000
 51
90.0000000
  0
LINE
  8
WORKLAYER
  6
CONTINUOUS
 62
     4
 10
243.6198425
 20
69.9356995
 30
0.0
 11
243.6198425
 21
76.0000000
 31
0.0
 62
     4
  0
LINE
  8
AREA
  6
CONTINUOUS
 62
     4
 10
229.2197418
 20
116.5000000
 30
0.0
 11
246.6198425
 21
116.5000000
 31
0.0
 62
     4
  0
INSERT
  8
0
  2
DXF218
 10
0.0
 20
0.0
 30
0.0
  0
ENDSEC
  0
EOF
