  0
SECTION
  2
HEADER
  9
$ACADVER 
  1
AC1006
  9
$INSBASE
 10
0.0
 20
0.0
 30
0.0
  9
$EXTMIN
 10
-139.3874969
 20
-206.5892029
  9
$EXTMAX
 10
417.2558289
 20
514.6428223
  9
$LIMMIN
 10
-139.3874969
 20
-206.5892029
  9
$LIMMAX
 10
417.2558289
 20
514.6428223
  9
$ORTHOMODE
 70
     0
  9
$REGENMODE
 70
     1
  9
$FILLMODE
 70
     1
  9
$QTEXTMODE
 70
     0
  9
$MIRRTEXT
 70
     1
  9
$DRAGMODE
 70
     2
  9
$LTSCALE
 40
1.0
  9
$OSMODE
 70
     0
  9
$ATTMODE
 70
     1
  9
$TEXTSIZE
 40
4.0
  9
$TRACEWID
 40
0.05
  9
$TEXTSTYLE
  7
STANDARD
  9
$CLAYER
  8
0
  9
$CELTYPE
  6
BYLAYER
  9
$CECOLOR
 62
   256
  9
$DIMSCALE
 40
1.0
  9
$DIMASZ
 40
0.18
  9
$DIMEXO
 40
0.0625
  9
$DIMDLI
 40
0.38
  9
$DIMRND
 40
0.0
  9
$DIMDLE
 40
0.0
  9
$DIMEXE
 40
0.18
  9
$DIMTP
 40
0.0
  9
$DIMTM
 40
0.0
  9
$DIMTXT
 40
0.18
  9
$DIMCEN
 40
0.09
  9
$DIMTSZ
 40
0.0
  9
$DIMTOL
 70
     0
  9
$DIMLIM
 70
     0
  9
$DIMTIH
 70
     1
  9
$DIMTOH
 70
     1
  9
$DIMSE1
 70
     0
  9
$DIMSE2
 70
     0
  9
$DIMTAD
 70
     0
  9
$DIMZIN
 70
     0
  9
$DIMBLK
  1

  9
$DIMASO
 70
     1
  9
$DIMSHO
 70
     0
  9
$DIMPOST
  1

  9
$DIMAPOST
  1

  9
$DIMALT
 70
     0
  9
$DIMALTD
 70
     2
  9
$DIMALTF
 40
25.4
  9
$DIMLFAC
 40
1.0
  9
$DIMTOFL
 70
     0
  9
$DIMTVP
 40
0.0
  9
$DIMTIX
 70
     0
  9
$DIMSOXD
 70
     0
  9
$DIMSAH
 70
     0
  9
$DIMBLK1
  1

  9
$DIMBLK2
  1

  9
$LUNITS
 70
     2
  9
$LUPREC
 70
     4
  9
$AXISMODE
 70
     0
  9
$AXISUNIT
 10
0.0
 20
0.0
  9
$SKETCHINC
 40
0.1
  9
$FILLETRAD
 40
0.0
  9
$AUNITS
 70
     0
  9
$AUPREC
 70
     0
  9
$MENU
  1
acad
  9
$ELEVATION
 40
0.0
  9
$THICKNESS
 40
0.0
  9
$LIMCHECK
 70
     0
  9
$BLIPMODE
 70
     1
  9
$CHAMFERA
 40
0.0
  9
$CHAMFERB
 40
0.0
  9
$SKPOLY
 70
     0
  9
$TDCREATE
 40
2448026.6008101851
  9
$TDUPDATE
 40
2448026.6181597221
  9
$TDINDWG
 40
0.0173495370
  9
$TDUSRTIMER
 40
0.0173495370
  9
$USRTIMER
 70
     1
  9
$ANGBASE
 50
0.0
  9
$ANGDIR
 70
     0
  9
$PDMODE
 70
     0
  9
$PDSIZE
 40
0.0
  9
$PLINEWID
 40
0.0
  9
$COORDS
 70
     2
  9
$SPLFRAME
 70
     0
  9
$SPLINETYPE
 70
     6
  9
$SPLINESEGS
 70
     8
  9
$ATTDIA
 70
     0
  9
$ATTREQ
 70
     1
  9
$HANDLING
 70
     0
  9
$HANDSEED
  5
0
  9
$SURFTAB1
 70
     6
  9
$SURFTAB2
 70
     6
  9
$SURFTYPE
 70
     6
  9
$SURFU
 70
     6
  9
$SURFV
 70
     6
  9
$FLATLAND
 70
     0
  9
$UCSNAME
  2

  9
$UCSORG
 10
0.0
 20
0.0
 30
0.0
  9
$UCSXDIR
 10
1.0
 20
0.0
 30
0.0
  9
$UCSYDIR
 10
0.0
 20
1.0
 30
0.0
  9
$USERI1
 70
     0
  9
$USERI2
 70
     0
  9
$USERI3
 70
     0
  9
$USERI4
 70
     0
  9
$USERI5
 70
     0
  9
$USERR1
 40
0.0
  9
$USERR2
 40
0.0
  9
$USERR3
 40
0.0
  9
$USERR4
 40
0.0
  9
$USERR5
 40
0.0
  9
$WORLDVIEW
 70
     1
  0
ENDSEC
  0
SECTION
  2
TABLES
  0
TABLE
  2
VPORT
 70
     2
  0
VPORT
  2
*ACTIVE
 70
     0
 10
0.0
 20
0.0
 11
1.0
 21
1.0
 12
27.083333
 22
15.399368
 13
0.0
 23
0.0
 14
1.0
 24
1.0
 15
0.0
 25
0.0
 16
0.0
 26
0.0
 36
1.0
 17
0.0
 27
0.0
 37
0.0
 40
30.798736
 41
1.75873
 42
50.0
 43
0.0
 44
0.0
 50
0.0
 51
0.0
 71
     0
 72
   100
 73
     1
 74
     1
 75
     1
 76
     0
 77
     0
 78
     0
  0
ENDTAB
  0
TABLE
  2
LTYPE
 70
     5
  0
LTYPE
  2
CONTINUOUS
 70
    64
  3
________________________
 72
    65
 73
     0
 40
0.0
  0
LTYPE
  2
DOT
 70
    64
  3
_ _ _ _ _ _ _ _ _ _ _ _
 72
    65
 73
     2
 40
0.375
 49
0.25
 49
-0.125
  0
LTYPE
  2
HIDDEN
 70
    64
  3
__ __ __ __ __ __ __ __
 72
    65
 73
     2
 40
0.75
 49
0.5
 49
-0.25
  0
LTYPE
  2
CENTER
 70
    64
  3
____ _ ____ _ ____ _ ___
 72
    65
 73
     4
 40
2.0
 49
1.25
 49
-0.25
 49
0.25
 49
-0.25
  0
LTYPE
  2
PHANTOM
 70
    64
  3
_____ _ _ _____ _ _ ____
 72
    65
 73
     6
 40
2.5
 49
1.25
 49
-0.25
 49
0.25
 49
-0.25
 49
0.25
 49
-0.25
  0
ENDTAB
  0
TABLE
  2
LAYER
 70
     6
  0
LAYER
  2
0
 70
    64
 62
     7
  6
CONTINUOUS
  0
LAYER
  2
AREA
 70
    64
 62
     7
  6
CONTINUOUS
  0
LAYER
  2
WORKLAYER
 70
    64
 62
     7
  6
CONTINUOUS
  0
LAYER
  2
SSYMB
 70
    64
 62
     7
  6
CONTINUOUS
  0
LAYER
  2
VIEW
 70
    64
 62
     7
  6
CONTINUOUS
  0
ENDTAB
  0
TABLE
  2
STYLE
 70
     3
  0
STYLE
  2
STANDARD
 70
    64
 40
0.0
 41
1.0
 50
0.0
 71
     0
 42
4.0
  3
txt
  4

  0
STYLE
  2
KANJI
 70
    64
 40
0.0
 41
1.0
 50
0.0
 71
     0
 42
2.0
  3
TXT
  4
BIGFONT
  0
ENDTAB
  0
TABLE
  2
VIEW
 70
     0
  0
ENDTAB
  0
TABLE
  2
UCS
 70
     0
  0
ENDTAB
  0
TABLE
  2
DWGMGR
 70
     0
  0
ENDTAB
  0
ENDSEC
  0
SECTION
  2
BLOCKS
  0
BLOCK
  8
AREA
  2
DXF2
 70
    64
 10
0.0
 20
0.0
 30
0.0
  3
DXF2
  0
LINE
  8
AREA
  6
CONTINUOUS
 62
     5
 10
250.6557007
 20
-78.4999771
 30
0.0
 11
315.6557007
 21
-78.4999771
 31
0.0
 62
     5
  0
ARC
  8
AREA
  6
CONTINUOUS
 62
     5
 10
315.6557007
 20
-76.4999771
 30
0.0
 40
2.0000000
 50
270.0000000
 51
360.0000000
  0
ENDBLK
  0
BLOCK
  8
AREA
  2
DXF6
 70
    64
 10
0.0
 20
0.0
 30
0.0
  3
DXF6
  0
LINE
  8
AREA
  6
CONTINUOUS
 62
     5
 10
316.1733093
 20
-64.1027985
 30
0.0
 11
312.1505127
 21
-63.0250092
 31
0.0
 62
     5
  0
ARC
  8
AREA
  6
CONTINUOUS
 62
     5
 10
315.6557007
 20
-66.0346832
 30
0.0
 40
2.0000000
 50
360.0000000
 51
435.0000000
  0
ENDBLK
  0
BLOCK
  8
AREA
  2
DXF11
 70
    64
 10
0.0
 20
0.0
 30
0.0
  3
DXF11
  0
LINE
  8
AREA
  6
CONTINUOUS
 62
     6
 10
250.6557007
 20
95.0000000
 30
0.0
 11
256.6557007
 21
95.0000000
 31
0.0
 62
     6
  0
LINE
  8
AREA
  6
CONTINUOUS
 62
     5
 10
256.6557007
 20
95.0000000
 30
0.0
 11
272.3346863
 21
95.0000000
 31
0.0
 62
     5
  0
ENDBLK
  0
BLOCK
  8
AREA
  2
DXF19
 70
    64
 10
0.0
 20
0.0
 30
0.0
  3
DXF19
  0
LINE
  8
AREA
  6
CONTINUOUS
 62
     5
 10
295.6557007
 20
-78.4999771
 30
0.0
 11
315.6557007
 21
-78.4999771
 31
0.0
 62
     5
  0
ARC
  8
AREA
  6
CONTINUOUS
 62
     5
 10
315.6557007
 20
-76.4999771
 30
0.0
 40
2.0000000
 50
270.0000000
 51
360.0000000
  0
ENDBLK
  0
BLOCK
  8
AREA
  2
DXF21
 70
    64
 10
0.0
 20
0.0
 30
0.0
  3
DXF21
  0
LINE
  8
AREA
  6
CONTINUOUS
 62
     5
 10
316.1733093
 20
-64.1027985
 30
0.0
 11
312.1505127
 21
-63.0250092
 31
0.0
 62
     5
  0
ARC
  8
AREA
  6
CONTINUOUS
 62
     5
 10
315.6557007
 20
-66.0346832
 30
0.0
 40
2.0000000
 50
360.0000000
 51
435.0000000
  0
ARC
  8
AREA
  6
CONTINUOUS
 62
     5
 10
314.7387085
 20
-53.3657112
 30
0.0
 40
10.0000000
 50
191.2738037
 51
255.0000000
  0
ARC
  8
AREA
  6
DOT
 62
     6
 10
314.7387085
 20
-53.3657112
 30
0.0
 40
10.0000000
 50
180.0000000
 51
191.2738037
  0
ENDBLK
  0
BLOCK
  8
AREA
  2
DXF23
 70
    64
 10
0.0
 20
0.0
 30
0.0
  3
DXF23
  0
LINE
  8
AREA
  6
CONTINUOUS
 62
     5
 10
280.6557007
 20
83.4238968
 30
0.0
 11
280.6557007
 21
71.4580078
 31
0.0
 62
     5
  0
ARC
  8
AREA
  6
CONTINUOUS
 62
     5
 10
275.6557007
 20
83.4238968
 30
0.0
 40
5.0000000
 50
360.0000000
 51
394.9920044
  0
ENDBLK
  0
BLOCK
  8
AREA
  2
DXF25
 70
    64
 10
0.0
 20
0.0
 30
0.0
  3
DXF25
  0
LINE
  8
AREA
  6
CONTINUOUS
 62
     5
 10
253.6557007
 20
77.4419098
 30
0.0
 11
253.6557007
 21
92.0000000
 31
0.0
 62
     5
  0
ARC
  8
AREA
  6
CONTINUOUS
 62
     5
 10
256.6557007
 20
92.0000000
 30
0.0
 40
3.0000000
 50
450.0000000
 51
180.0000000
  0
ENDBLK
  0
BLOCK
  8
AREA
  2
DXF28
 70
    64
 10
0.0
 20
0.0
 30
0.0
  3
DXF28
  0
LINE
  8
AREA
  6
CONTINUOUS
 62
     5
 10
250.6557007
 20
-78.4999771
 30
0.0
 11
185.6557007
 21
-78.4999771
 31
0.0
 62
     5
  0
ARC
  8
AREA
  6
CONTINUOUS
 62
     5
 10
185.6557007
 20
-76.4999771
 30
0.0
 40
2.0000000
 50
180.0000000
 51
270.0000000
  0
ENDBLK
  0
BLOCK
  8
AREA
  2
DXF31
 70
    64
 10
0.0
 20
0.0
 30
0.0
  3
DXF31
  0
LINE
  8
AREA
  6
CONTINUOUS
 62
     5
 10
185.1381073
 20
-64.1027985
 30
0.0
 11
189.1609955
 21
-63.0250092
 31
0.0
 62
     5
  0
ARC
  8
AREA
  6
CONTINUOUS
 62
     5
 10
185.6557007
 20
-66.0346832
 30
0.0
 40
2.0000000
 50
465.0000000
 51
180.0000000
  0
ENDBLK
  0
BLOCK
  8
AREA
  2
DXF33
 70
    64
 10
0.0
 20
0.0
 30
0.0
  3
DXF33
  0
LINE
  8
AREA
  6
CONTINUOUS
 62
     5
 10
205.6557007
 20
-78.4999771
 30
0.0
 11
185.6557007
 21
-78.4999771
 31
0.0
 62
     5
  0
ARC
  8
AREA
  6
CONTINUOUS
 62
     5
 10
185.6557007
 20
-76.4999771
 30
0.0
 40
2.0000000
 50
180.0000000
 51
270.0000000
  0
ENDBLK
  0
BLOCK
  8
AREA
  2
DXF35
 70
    64
 10
0.0
 20
0.0
 30
0.0
  3
DXF35
  0
LINE
  8
AREA
  6
CONTINUOUS
 62
     5
 10
185.1381073
 20
-64.1027985
 30
0.0
 11
189.1609955
 21
-63.0250092
 31
0.0
 62
     5
  0
ARC
  8
AREA
  6
CONTINUOUS
 62
     5
 10
185.6557007
 20
-66.0346832
 30
0.0
 40
2.0000000
 50
465.0000000
 51
180.0000000
  0
ARC
  8
AREA
  6
CONTINUOUS
 62
     5
 10
186.5726929
 20
-53.3657112
 30
0.0
 40
10.0000000
 50
285.0000000
 51
348.7261963
  0
ARC
  8
AREA
  6
DOT
 62
     6
 10
186.5726929
 20
-53.3657112
 30
0.0
 40
10.0000000
 50
348.7261963
 51
360.0000000
  0
ENDBLK
  0
BLOCK
  8
AREA
  2
DXF37
 70
    64
 10
0.0
 20
0.0
 30
0.0
  3
DXF37
  0
LINE
  8
AREA
  6
CONTINUOUS
 62
     5
 10
220.6557007
 20
83.4238968
 30
0.0
 11
220.6557007
 21
71.4580078
 31
0.0
 62
     5
  0
ARC
  8
AREA
  6
CONTINUOUS
 62
     5
 10
225.6557007
 20
83.4238968
 30
0.0
 40
5.0000000
 50
505.0079956
 51
180.0000000
  0
ENDBLK
  0
BLOCK
  8
AREA
  2
DXF42
 70
    64
 10
0.0
 20
0.0
 30
0.0
  3
DXF42
  0
LINE
  8
AREA
  6
CONTINUOUS
 62
     6
 10
250.6557007
 20
95.0000000
 30
0.0
 11
244.6557007
 21
95.0000000
 31
0.0
 62
     6
  0
LINE
  8
AREA
  6
CONTINUOUS
 62
     5
 10
244.6557007
 20
95.0000000
 30
0.0
 11
228.9768066
 21
95.0000000
 31
0.0
 62
     5
  0
ENDBLK
  0
BLOCK
  8
AREA
  2
DXF45
 70
    64
 10
0.0
 20
0.0
 30
0.0
  3
DXF45
  0
LINE
  8
AREA
  6
CONTINUOUS
 62
     5
 10
247.6557007
 20
77.4419098
 30
0.0
 11
247.6557007
 21
92.0000000
 31
0.0
 62
     5
  0
ARC
  8
AREA
  6
CONTINUOUS
 62
     5
 10
244.6557007
 20
92.0000000
 30
0.0
 40
3.0000000
 50
360.0000000
 51
450.0000000
  0
ENDBLK
  0
BLOCK
  8
AREA
  2
DXF54
 70
    64
 10
0.0
 20
0.0
 30
0.0
  3
DXF54
  0
LINE
  8
AREA
  6
CONTINUOUS
 62
     5
 10
250.6557007
 20
-79.9999771
 30
0.0
 11
233.8428040
 21
-79.9999771
 31
0.0
 62
     5
  0
LINE
  8
AREA
  6
CONTINUOUS
 62
     5
 10
223.8428040
 20
-79.9999771
 30
0.0
 11
205.6557007
 21
-79.9999771
 31
0.0
 62
     5
  0
ENDBLK
  0
BLOCK
  8
AREA
  2
DXF55
 70
    64
 10
0.0
 20
0.0
 30
0.0
  3
DXF55
  0
LINE
  8
AREA
  6
CONTINUOUS
 62
     5
 10
250.6557007
 20
-79.9999771
 30
0.0
 11
267.4686890
 21
-79.9999771
 31
0.0
 62
     5
  0
LINE
  8
AREA
  6
CONTINUOUS
 62
     5
 10
277.4686890
 20
-79.9999771
 30
0.0
 11
295.6557007
 21
-79.9999771
 31
0.0
 62
     5
  0
ENDBLK
  0
BLOCK
  8
AREA
  2
DXF59
 70
    64
 10
0.0
 20
0.0
 30
0.0
  3
DXF59
  0
LINE
  8
AREA
  6
CONTINUOUS
 62
     5
 10
233.2557983
 20
148.0000000
 30
0.0
 11
233.2557983
 21
145.0000000
 31
0.0
 62
     5
  0
LINE
  8
AREA
  6
CONTINUOUS
 62
     5
 10
233.2557983
 20
148.0000000
 30
0.0
 11
234.2557983
 21
149.0000000
 31
0.0
 62
     5
  0
ENDBLK
  0
BLOCK
  8
WORKLAYER
  2
DXF60
 70
    64
 10
0.0
 20
0.0
 30
0.0
  3
DXF60
  0
LINE
  8
WORKLAYER
  6
CONTINUOUS
 62
     4
 10
0.0000000
 20
-81.0000000
 30
0.0
 11
-16.8129597
 21
-81.0000000
 31
0.0
 62
     4
  0
LINE
  8
WORKLAYER
  6
CONTINUOUS
 62
     4
 10
-26.8129597
 20
-81.0000000
 30
0.0
 11
-45.0000000
 21
-81.0000000
 31
0.0
 62
     4
  0
ENDBLK
  0
BLOCK
  8
AREA
  2
DXF64
 70
    64
 10
0.0
 20
0.0
 30
0.0
  3
DXF64
  0
LINE
  8
AREA
  6
CONTINUOUS
 62
     5
 10
0.0000000
 20
-78.5000000
 30
0.0
 11
65.0000000
 21
-78.5000000
 31
0.0
 62
     5
  0
ARC
  8
AREA
  6
CONTINUOUS
 62
     5
 10
65.0000000
 20
-76.5000000
 30
0.0
 40
2.0000000
 50
270.0000000
 51
360.0000000
  0
ENDBLK
  0
BLOCK
  8
AREA
  2
DXF68
 70
    64
 10
0.0
 20
0.0
 30
0.0
  3
DXF68
  0
ARC
  8
AREA
  6
CONTINUOUS
 62
     5
 10
75.0000000
 20
-59.4014091
 30
0.0
 40
10.0000000
 50
180.0000000
 51
213.5572968
  0
ARC
  8
AREA
  6
CONTINUOUS
 62
     5
 10
65.0000000
 20
-66.0347137
 30
0.0
 40
2.0000000
 50
360.0000000
 51
393.5575867
  0
ENDBLK
  0
BLOCK
  8
AREA
  2
DXF70
 70
    64
 10
0.0
 20
0.0
 30
0.0
  3
DXF70
  0
LINE
  8
AREA
  6
CONTINUOUS
 62
     5
 10
109.0000000
 20
-77.5000000
 30
0.0
 11
127.0000000
 21
-77.5000000
 31
0.0
 62
     5
  0
ARC
  8
AREA
  6
CONTINUOUS
 62
     5
 10
109.0000000
 20
-75.5000000
 30
0.0
 40
2.0000000
 50
180.0000000
 51
270.0000000
  0
ENDBLK
  0
BLOCK
  8
AREA
  2
DXF71
 70
    64
 10
0.0
 20
0.0
 30
0.0
  3
DXF71
  0
ARC
  8
AREA
  6
CONTINUOUS
 62
     6
 10
7.5000000
 20
36.9999809
 30
0.0
 40
32.0000000
 50
423.5161133
 51
450.0000000
  0
ARC
  8
AREA
  6
CONTINUOUS
 62
     6
 10
7.5000000
 20
36.9999809
 30
0.0
 40
32.0000000
 50
401.9916077
 51
423.5161133
  0
ARC
  8
AREA
  6
CONTINUOUS
 62
     5
 10
7.5000000
 20
36.9999809
 30
0.0
 40
32.0000000
 50
366.2062988
 51
403.2331848
  0
ARC
  8
AREA
  6
CONTINUOUS
 62
     5
 10
44.2831993
 20
40.9999809
 30
0.0
 40
5.0000000
 50
186.2062988
 51
270.0000000
  0
ENDBLK
  0
BLOCK
  8
AREA
  2
DXF75
 70
    64
 10
0.0
 20
0.0
 30
0.0
  3
DXF75
  0
LINE
  8
AREA
  6
CONTINUOUS
 62
     5
 10
0.0000000
 20
-78.5000000
 30
0.0
 11
-65.0000000
 21
-78.5000000
 31
0.0
 62
     5
  0
ARC
  8
AREA
  6
CONTINUOUS
 62
     5
 10
-65.0000000
 20
-76.5000000
 30
0.0
 40
2.0000000
 50
180.0000000
 51
270.0000000
  0
ENDBLK
  0
BLOCK
  8
AREA
  2
DXF76
 70
    64
 10
0.0
 20
0.0
 30
0.0
  3
DXF76
  0
LINE
  8
AREA
  6
CONTINUOUS
 62
     5
 10
-109.0000000
 20
77.4999771
 30
0.0
 11
-127.0000000
 21
77.4999771
 31
0.0
 62
     5
  0
ARC
  8
AREA
  6
CONTINUOUS
 62
     5
 10
-109.0000000
 20
75.4999771
 30
0.0
 40
2.0000000
 50
360.0000000
 51
450.0000000
  0
ENDBLK
  0
BLOCK
  8
AREA
  2
DXF78
 70
    64
 10
0.0
 20
0.0
 30
0.0
  3
DXF78
  0
LINE
  8
AREA
  6
CONTINUOUS
 62
     5
 10
-65.5177002
 20
-64.1028137
 30
0.0
 11
-52.4119301
 21
-60.5911102
 31
0.0
 62
     5
  0
ARC
  8
AREA
  6
CONTINUOUS
 62
     5
 10
-65.0000000
 20
-66.0347137
 30
0.0
 40
2.0000000
 50
465.0000000
 51
180.0000000
  0
ARC
  8
AREA
  6
CONTINUOUS
 62
     5
 10
-55.0000000
 20
-50.9318085
 30
0.0
 40
10.0000000
 50
284.9999084
 51
360.0000000
  0
ENDBLK
  0
BLOCK
  8
AREA
  2
DXF80
 70
    64
 10
0.0
 20
0.0
 30
0.0
  3
DXF80
  0
LINE
  8
AREA
  6
CONTINUOUS
 62
     5
 10
-45.0000000
 20
-5.0000000
 30
0.0
 11
-45.0000000
 21
-50.9318085
 31
0.0
 62
     5
  0
ARC
  8
AREA
  6
CONTINUOUS
 62
     5
 10
-33.0000000
 20
-5.0000000
 30
0.0
 40
12.0000000
 50
450.0000000
 51
180.0000000
  0
ENDBLK
  0
BLOCK
  8
AREA
  2
DXF82
 70
    64
 10
0.0
 20
0.0
 30
0.0
  3
DXF82
  0
LINE
  8
AREA
  6
CONTINUOUS
 62
     5
 10
-43.3087807
 20
68.9999771
 30
0.0
 11
-33.0000000
 21
68.9999771
 31
0.0
 62
     5
  0
LINE
  8
AREA
  6
CONTINUOUS
 62
     6
 10
-35.0000000
 20
68.9999771
 30
0.0
 11
-24.0000000
 21
68.9999771
 31
0.0
 62
     6
  0
LINE
  8
AREA
  6
CONTINUOUS
 62
     6
 10
-24.0000000
 20
68.9999771
 30
0.0
 11
-3.0000000
 21
68.9999771
 31
0.0
 62
     6
  0
LINE
  8
AREA
  6
CONTINUOUS
 62
     6
 10
3.0000000
 20
68.9999771
 30
0.0
 11
7.5000000
 21
68.9999771
 31
0.0
 62
     6
  0
ENDBLK
  0
BLOCK
  8
AREA
  2
DXF84
 70
    64
 10
0.0
 20
0.0
 30
0.0
  3
DXF84
  0
LINE
  8
AREA
  6
CONTINUOUS
 62
     5
 10
92.0000000
 20
-40.3864098
 30
0.0
 11
68.0304031
 21
-50.6590996
 31
0.0
 62
     5
  0
ARC
  8
AREA
  6
CONTINUOUS
 62
     5
 10
70.0000000
 20
-55.2548103
 30
0.0
 40
5.0000000
 50
473.1987000
 51
180.0000000
  0
ENDBLK
  0
BLOCK
  8
AREA
  2
DXF85
 70
    64
 10
0.0
 20
0.0
 30
0.0
  3
DXF85
  0
LINE
  8
AREA
  6
CONTINUOUS
 62
     6
 10
92.0000000
 20
29.2434807
 30
0.0
 11
61.7471886
 21
16.2779999
 31
0.0
 62
     6
  0
LINE
  8
AREA
  6
CONTINUOUS
 62
     5
 10
61.7471886
 20
16.2779999
 30
0.0
 11
53.4392090
 21
12.7173901
 31
0.0
 62
     5
  0
ENDBLK
  0
BLOCK
  8
AREA
  2
DXF87
 70
    64
 10
0.0
 20
0.0
 30
0.0
  3
DXF87
  0
LINE
  8
AREA
  6
CONTINUOUS
 62
     5
 10
109.0000000
 20
77.4999771
 30
0.0
 11
127.0000000
 21
77.4999771
 31
0.0
 62
     5
  0
ARC
  8
AREA
  6
CONTINUOUS
 62
     5
 10
109.0000000
 20
75.4999771
 30
0.0
 40
2.0000000
 50
450.0000000
 51
180.0000000
  0
ENDBLK
  0
BLOCK
  8
AREA
  2
DXF89
 70
    64
 10
0.0
 20
0.0
 30
0.0
  3
DXF89
  0
LINE
  8
AREA
  6
CONTINUOUS
 62
     6
 10
107.0000000
 20
40.0433807
 30
0.0
 11
107.0000000
 21
40.9999809
 31
0.0
 62
     6
  0
LINE
  8
AREA
  6
CONTINUOUS
 62
     5
 10
107.0000000
 20
0.0000000
 30
0.0
 11
107.0000000
 21
75.4999771
 31
0.0
 62
     5
  0
ENDBLK
  0
BLOCK
  8
AREA
  2
DXF91
 70
    64
 10
0.0
 20
0.0
 30
0.0
  3
DXF91
  0
LINE
  8
AREA
  6
CONTINUOUS
 62
     5
 10
-102.0000000
 20
-36.0000000
 30
0.0
 11
-50.0000000
 21
-36.0000000
 31
0.0
 62
     5
  0
ARC
  8
AREA
  6
CONTINUOUS
 62
     5
 10
-50.0000000
 20
-41.0000000
 30
0.0
 40
5.0000000
 50
360.0000000
 51
450.0000000
  0
ENDBLK
  0
BLOCK
  8
AREA
  2
DXF92
 70
    64
 10
0.0
 20
0.0
 30
0.0
  3
DXF92
  0
LINE
  8
AREA
  6
CONTINUOUS
 62
     5
 10
92.0000000
 20
-40.3864098
 30
0.0
 11
100.8989029
 21
-38.3774109
 31
0.0
 62
     5
  0
ARC
  8
AREA
  6
CONTINUOUS
 62
     5
 10
102.0000000
 20
-43.2546082
 30
0.0
 40
5.0000000
 50
360.0000000
 51
462.7217102
  0
ENDBLK
  0
BLOCK
  8
AREA
  2
DXF94
 70
    64
 10
0.0
 20
0.0
 30
0.0
  3
DXF94
  0
LINE
  8
AREA
  6
CONTINUOUS
 62
     5
 10
92.0000000
 20
29.2434807
 30
0.0
 11
104.2966003
 21
35.6021004
 31
0.0
 62
     5
  0
ARC
  8
AREA
  6
CONTINUOUS
 62
     5
 10
102.0000000
 20
40.0433807
 30
0.0
 40
5.0000000
 50
297.3432922
 51
360.0000000
  0
ENDBLK
  0
BLOCK
  8
AREA
  2
DXF96
 70
    64
 10
0.0
 20
0.0
 30
0.0
  3
DXF96
  0
LINE
  8
AREA
  6
CONTINUOUS
 62
     5
 10
-76.3745117
 20
-26.0209007
 30
0.0
 11
-60.8203697
 21
-14.8875999
 31
0.0
 62
     5
  0
ARC
  8
AREA
  6
CONTINUOUS
 62
     5
 10
-55.0000000
 20
-23.0191002
 30
0.0
 40
10.0000000
 50
360.0000000
 51
485.5946960
  0
ENDBLK
  0
BLOCK
  8
AREA
  2
DXF98
 70
    64
 10
0.0
 20
0.0
 30
0.0
  3
DXF98
  0
LINE
  8
AREA
  6
CONTINUOUS
 62
     5
 10
-100.5632019
 20
38.9311104
 30
0.0
 11
-92.0000000
 21
41.5002899
 31
0.0
 62
     5
  0
ARC
  8
AREA
  6
CONTINUOUS
 62
     5
 10
-102.0000000
 20
43.7202911
 30
0.0
 40
5.0000000
 50
180.0000000
 51
286.7001953
  0
ENDBLK
  0
BLOCK
  8
AREA
  2
DXF100
 70
    64
 10
0.0
 20
0.0
 30
0.0
  3
DXF100
  0
LINE
  8
AREA
  6
CONTINUOUS
 62
     6
 10
-107.0000000
 20
-40.5718117
 30
0.0
 11
-107.0000000
 21
-42.0000000
 31
0.0
 62
     6
  0
LINE
  8
AREA
  6
CONTINUOUS
 62
     5
 10
-107.0000000
 20
0.0000000
 30
0.0
 11
-107.0000000
 21
-75.5000000
 31
0.0
 62
     5
  0
ARC
  8
AREA
  6
CONTINUOUS
 62
     5
 10
-102.0000000
 20
-40.5718117
 30
0.0
 40
5.0000000
 50
468.9180908
 51
180.0000000
  0
ARC
  8
AREA
  6
CONTINUOUS
 62
     5
 10
-102.0000000
 20
-41.0000000
 30
0.0
 40
5.0000000
 50
450.0000000
 51
180.0000000
  0
ENDBLK
  0
BLOCK
  8
AREA
  2
DXF104
 70
    64
 10
0.0
 20
0.0
 30
0.0
  3
DXF104
  0
LINE
  8
AREA
  6
CONTINUOUS
 62
     6
 10
44.2831993
 20
35.9999809
 30
0.0
 11
102.0000000
 21
35.9999809
 31
0.0
 62
     6
  0
ARC
  8
AREA
  6
CONTINUOUS
 62
     6
 10
102.0000000
 20
40.9999809
 30
0.0
 40
5.0000000
 50
270.0000000
 51
360.0000000
  0
ENDBLK
  0
BLOCK
  8
AREA
  2
DXF106
 70
    64
 10
0.0
 20
0.0
 30
0.0
  3
DXF106
  0
LINE
  8
AREA
  6
CONTINUOUS
 62
     5
 10
-109.0000000
 20
-77.5000000
 30
0.0
 11
-127.0000000
 21
-77.5000000
 31
0.0
 62
     5
  0
ARC
  8
AREA
  6
CONTINUOUS
 62
     5
 10
-109.0000000
 20
-75.5000000
 30
0.0
 40
2.0000000
 50
270.0000000
 51
360.0000000
  0
ENDBLK
  0
BLOCK
  8
AREA
  2
DXF108
 70
    64
 10
0.0
 20
0.0
 30
0.0
  3
DXF108
  0
LINE
  8
AREA
  6
CONTINUOUS
 62
     5
 10
39.5000000
 20
39.5434990
 30
0.0
 11
39.5000000
 21
21.9088898
 31
0.0
 62
     5
  0
ARC
  8
AREA
  6
CONTINUOUS
 62
     5
 10
49.5000000
 20
21.9088898
 30
0.0
 40
10.0000000
 50
180.0000000
 51
293.1987000
  0
ENDBLK
  0
BLOCK
  8
AREA
  2
DXF109
 70
    64
 10
0.0
 20
0.0
 30
0.0
  3
DXF109
  0
LINE
  8
AREA
  6
CONTINUOUS
 62
     5
 10
19.0000000
 20
89.9999771
 30
0.0
 11
19.0000000
 21
70.1172028
 31
0.0
 62
     5
  0
ARC
  8
AREA
  6
CONTINUOUS
 62
     5
 10
24.0000000
 20
70.1172028
 30
0.0
 40
5.0000000
 50
180.0000000
 51
243.5160980
  0
ENDBLK
  0
BLOCK
  8
AREA
  2
DXF110
 70
    64
 10
0.0
 20
0.0
 30
0.0
  3
DXF110
  0
LINE
  8
AREA
  6
CONTINUOUS
 62
     5
 10
30.0000000
 20
83.4238968
 30
0.0
 11
30.0000000
 21
60.9738884
 31
0.0
 62
     5
  0
ARC
  8
AREA
  6
CONTINUOUS
 62
     5
 10
25.0000000
 20
83.4238968
 30
0.0
 40
5.0000000
 50
360.0000000
 51
394.9920044
  0
ARC
  8
AREA
  6
CONTINUOUS
 62
     5
 10
33.0000000
 20
60.9738884
 30
0.0
 40
3.0000000
 50
180.0000000
 51
223.2330017
  0
ENDBLK
  0
BLOCK
  8
AREA
  2
DXF115
 70
    64
 10
0.0
 20
0.0
 30
0.0
  3
DXF115
  0
LINE
  8
AREA
  6
CONTINUOUS
 62
     5
 10
3.0000000
 20
61.9189911
 30
0.0
 11
3.0000000
 21
91.9999771
 31
0.0
 62
     5
  0
ARC
  8
AREA
  6
CONTINUOUS
 62
     5
 10
6.0000000
 20
91.9999771
 30
0.0
 40
3.0000000
 50
450.0000000
 51
180.0000000
  0
ARC
  8
AREA
  6
CONTINUOUS
 62
     5
 10
6.0000000
 20
61.9189911
 30
0.0
 40
3.0000000
 50
180.0000000
 51
270.0000000
  0
ENDBLK
  0
BLOCK
  8
AREA
  2
DXF118
 70
    64
 10
0.0
 20
0.0
 30
0.0
  3
DXF118
  0
LINE
  8
AREA
  6
CONTINUOUS
 62
     6
 10
0.0000000
 20
94.9999771
 30
0.0
 11
6.0000000
 21
94.9999771
 31
0.0
 62
     6
  0
LINE
  8
AREA
  6
CONTINUOUS
 62
     5
 10
6.0000000
 20
94.9999771
 30
0.0
 11
21.6790199
 21
94.9999771
 31
0.0
 62
     5
  0
ENDBLK
  0
BLOCK
  8
AREA
  2
DXF119
 70
    64
 10
0.0
 20
0.0
 30
0.0
  3
DXF119
  0
LINE
  8
AREA
  6
CONTINUOUS
 62
     6
 10
0.0000000
 20
94.9999771
 30
0.0
 11
-6.0000000
 21
94.9999771
 31
0.0
 62
     6
  0
LINE
  8
AREA
  6
CONTINUOUS
 62
     5
 10
-6.0000000
 20
94.9999771
 30
0.0
 11
-21.6790199
 21
94.9999771
 31
0.0
 62
     5
  0
ENDBLK
  0
BLOCK
  8
AREA
  2
DXF121
 70
    64
 10
0.0
 20
0.0
 30
0.0
  3
DXF121
  0
LINE
  8
AREA
  6
CONTINUOUS
 62
     5
 10
-19.0000000
 20
89.9999771
 30
0.0
 11
-19.0000000
 21
73.9999771
 31
0.0
 62
     5
  0
ARC
  8
AREA
  6
CONTINUOUS
 62
     5
 10
-24.0000000
 20
73.9999771
 30
0.0
 40
5.0000000
 50
270.0000000
 51
360.0000000
  0
ENDBLK
  0
BLOCK
  8
AREA
  2
DXF122
 70
    64
 10
0.0
 20
0.0
 30
0.0
  3
DXF122
  0
LINE
  8
AREA
  6
CONTINUOUS
 62
     5
 10
-30.0000000
 20
83.4238968
 30
0.0
 11
-30.0000000
 21
71.9999771
 31
0.0
 62
     5
  0
ARC
  8
AREA
  6
CONTINUOUS
 62
     5
 10
-25.0000000
 20
83.4238968
 30
0.0
 40
5.0000000
 50
505.0079956
 51
180.0000000
  0
ARC
  8
AREA
  6
CONTINUOUS
 62
     5
 10
-33.0000000
 20
71.9999771
 30
0.0
 40
3.0000000
 50
270.0000000
 51
360.0000000
  0
ENDBLK
  0
BLOCK
  8
AREA
  2
DXF127
 70
    64
 10
0.0
 20
0.0
 30
0.0
  3
DXF127
  0
LINE
  8
AREA
  6
CONTINUOUS
 62
     5
 10
-3.0000000
 20
61.9189911
 30
0.0
 11
-3.0000000
 21
91.9999771
 31
0.0
 62
     5
  0
ARC
  8
AREA
  6
CONTINUOUS
 62
     5
 10
-6.0000000
 20
91.9999771
 30
0.0
 40
3.0000000
 50
360.0000000
 51
450.0000000
  0
ARC
  8
AREA
  6
CONTINUOUS
 62
     5
 10
-6.0000000
 20
61.9189911
 30
0.0
 40
3.0000000
 50
270.0000000
 51
360.0000000
  0
ENDBLK
  0
BLOCK
  8
AREA
  2
DXF132
 70
    64
 10
0.0
 20
0.0
 30
0.0
  3
DXF132
  0
LINE
  8
AREA
  6
CONTINUOUS
 62
     5
 10
-20.0000000
 20
-34.0000000
 30
0.0
 11
22.0000000
 21
-34.0000000
 31
0.0
 62
     5
  0
ARC
  8
AREA
  6
CONTINUOUS
 62
     5
 10
17.0000000
 20
-53.0000000
 30
0.0
 40
19.0000000
 50
487.8635864
 51
180.0000000
  0
ENDBLK
  0
BLOCK
  8
AREA
  2
DXF133
 70
    64
 10
0.0
 20
0.0
 30
0.0
  3
DXF133
  0
LINE
  8
AREA
  6
CONTINUOUS
 62
     5
 10
-20.0000000
 20
-38.0000000
 30
0.0
 11
5.3380132
 21
-38.0000000
 31
0.0
 62
     5
  0
ARC
  8
AREA
  6
CONTINUOUS
 62
     5
 10
17.0000000
 20
-53.0000000
 30
0.0
 40
15.0000000
 50
450.0000000
 51
180.0000000
  0
ENDBLK
  0
BLOCK
  8
AREA
  2
DXF143
 70
    64
 10
0.0
 20
0.0
 30
0.0
  3
DXF143
  0
LINE
  8
AREA
  6
CONTINUOUS
 62
     5
 10
-72.0000000
 20
20.4631805
 30
0.0
 11
-70.5000000
 21
14.4631796
 31
0.0
 62
     5
  0
LINE
  8
AREA
  6
CONTINUOUS
 62
     5
 10
-70.0000000
 20
12.4631796
 30
0.0
 11
-69.0000000
 21
8.4631805
 31
0.0
 62
     5
  0
ENDBLK
  0
BLOCK
  8
AREA
  2
DXF147
 70
    64
 10
0.0
 20
0.0
 30
0.0
  3
DXF147
  0
LINE
  8
AREA
  6
CONTINUOUS
 62
     5
 10
-72.0000000
 20
20.4631805
 30
0.0
 11
-73.5000000
 21
14.4631796
 31
0.0
 62
     5
  0
LINE
  8
AREA
  6
CONTINUOUS
 62
     5
 10
-74.0000000
 20
12.4631796
 30
0.0
 11
-75.0000000
 21
8.4631805
 31
0.0
 62
     5
  0
ENDBLK
  0
BLOCK
  8
AREA
  2
DXF149
 70
    64
 10
0.0
 20
0.0
 30
0.0
  3
DXF149
  0
LINE
  8
AREA
  6
CONTINUOUS
 62
     5
 10
82.0000000
 20
-12.4630098
 30
0.0
 11
82.0000000
 21
-13.4630098
 31
0.0
 62
     5
  0
ARC
  8
AREA
  6
CONTINUOUS
 62
     5
 10
78.0000000
 20
-20.4630108
 30
0.0
 40
4.0000000
 50
270.0000000
 51
360.0000000
  0
ENDBLK
  0
BLOCK
  8
AREA
  2
DXF161
 70
    64
 10
0.0
 20
0.0
 30
0.0
  3
DXF161
  0
LINE
  8
AREA
  6
CONTINUOUS
 62
     5
 10
67.0000000
 20
-12.4629097
 30
0.0
 11
68.5000000
 21
-18.4629097
 31
0.0
 62
     5
  0
LINE
  8
AREA
  6
CONTINUOUS
 62
     5
 10
69.0000000
 20
-20.4629097
 30
0.0
 11
70.0000000
 21
-24.4629097
 31
0.0
 62
     5
  0
ENDBLK
  0
BLOCK
  8
AREA
  2
DXF162
 70
    64
 10
0.0
 20
0.0
 30
0.0
  3
DXF162
  0
LINE
  8
AREA
  6
CONTINUOUS
 62
     5
 10
67.0000000
 20
-12.4629097
 30
0.0
 11
65.5000000
 21
-18.4629097
 31
0.0
 62
     5
  0
LINE
  8
AREA
  6
CONTINUOUS
 62
     5
 10
65.0000000
 20
-20.4629097
 30
0.0
 11
64.0000000
 21
-24.4629097
 31
0.0
 62
     5
  0
ENDBLK
  0
BLOCK
  8
AREA
  2
DXF164
 70
    64
 10
0.0
 20
0.0
 30
0.0
  3
DXF164
  0
LINE
  8
AREA
  6
CONTINUOUS
 62
     5
 10
80.0000000
 20
-19.4630108
 30
0.0
 11
80.0000000
 21
-20.4630108
 31
0.0
 62
     5
  0
ARC
  8
AREA
  6
CONTINUOUS
 62
     5
 10
78.0000000
 20
-20.4630108
 30
0.0
 40
2.0000000
 50
270.0000000
 51
360.0000000
  0
ARC
  8
AREA
  6
CONTINUOUS
 62
     5
 10
78.0000000
 20
-19.4630108
 30
0.0
 40
2.0000000
 50
360.0000000
 51
450.0000000
  0
ENDBLK
  0
BLOCK
  8
AREA
  2
DXF171
 70
    64
 10
0.0
 20
0.0
 30
0.0
  3
DXF171
  0
LINE
  8
AREA
  6
CONTINUOUS
 62
     5
 10
80.0000000
 20
-12.4630098
 30
0.0
 11
80.0000000
 21
-13.4630098
 31
0.0
 62
     5
  0
ARC
  8
AREA
  6
CONTINUOUS
 62
     5
 10
78.0000000
 20
-13.4630098
 30
0.0
 40
2.0000000
 50
270.0000000
 51
360.0000000
  0
ARC
  8
AREA
  6
CONTINUOUS
 62
     5
 10
78.0000000
 20
-12.4630098
 30
0.0
 40
2.0000000
 50
360.0000000
 51
450.0000000
  0
ENDBLK
  0
BLOCK
  8
SSYMB
  2
DXF174
 70
    64
 10
0.0
 20
0.0
 30
0.0
  3
DXF174
  0
LINE
  8
SSYMB
  6
CONTINUOUS
 62
     5
 10
-10.6439199
 20
-66.5000000
 30
0.0
 11
-9.4000244
 21
-66.5000000
 31
0.0
 62
     5
  0
LINE
  8
SSYMB
  6
CONTINUOUS
 62
     5
 10
-9.4000244
 20
-66.5000000
 30
0.0
 11
-9.4000244
 21
-76.5000000
 31
0.0
 62
     5
  0
LINE
  8
SSYMB
  6
CONTINUOUS
 62
     5
 10
-9.4000244
 20
-76.5000000
 30
0.0
 11
-10.9000196
 21
-76.5000000
 31
0.0
 62
     5
  0
LINE
  8
SSYMB
  6
CONTINUOUS
 62
     5
 10
-10.9000196
 20
-76.5000000
 30
0.0
 11
-10.9000196
 21
-69.5000000
 31
0.0
 62
     5
  0
LINE
  8
SSYMB
  6
CONTINUOUS
 62
     5
 10
-10.9000196
 20
-69.5000000
 30
0.0
 11
-13.0000000
 21
-69.5000000
 31
0.0
 62
     5
  0
LINE
  8
SSYMB
  6
CONTINUOUS
 62
     5
 10
-13.0000000
 20
-69.5000000
 30
0.0
 11
-13.0000000
 21
-68.8560028
 31
0.0
 62
     5
  0
ARC
  8
SSYMB
  6
CONTINUOUS
 62
     5
 10
-13.0000000
 20
-66.5000000
 30
0.0
 40
2.3559999
 50
270.0000000
 51
360.0000000
  0
ENDBLK
  0
BLOCK
  8
SSYMB
  2
DXF175
 70
    64
 10
0.0
 20
0.0
 30
0.0
  3
DXF175
  0
LINE
  8
SSYMB
  6
CONTINUOUS
 62
     5
 10
6.2659302
 20
-71.0300064
 30
0.0
 11
10.7959003
 21
-66.5000000
 31
0.0
 62
     5
  0
LINE
  8
SSYMB
  6
CONTINUOUS
 62
     5
 10
10.7959003
 20
-66.5000000
 30
0.0
 11
12.9177904
 21
-66.5000000
 31
0.0
 62
     5
  0
LINE
  8
SSYMB
  6
CONTINUOUS
 62
     5
 10
12.9177904
 20
-66.5000000
 30
0.0
 11
8.8479004
 21
-70.5700073
 31
0.0
 62
     5
  0
LINE
  8
SSYMB
  6
CONTINUOUS
 62
     5
 10
8.8479004
 20
-70.5700073
 30
0.0
 11
12.9998798
 21
-76.5000000
 31
0.0
 62
     5
  0
LINE
  8
SSYMB
  6
CONTINUOUS
 62
     5
 10
12.9998798
 20
-76.5000000
 30
0.0
 11
11.1688805
 21
-76.5000000
 31
0.0
 62
     5
  0
LINE
  8
SSYMB
  6
CONTINUOUS
 62
     5
 10
11.1688805
 20
-76.5000000
 30
0.0
 11
7.7708740
 21
-71.6470032
 31
0.0
 62
     5
  0
LINE
  8
SSYMB
  6
CONTINUOUS
 62
     5
 10
7.7708740
 20
-71.6470032
 30
0.0
 11
6.2659302
 21
-73.1520081
 31
0.0
 62
     5
  0
LINE
  8
SSYMB
  6
CONTINUOUS
 62
     5
 10
6.2659302
 20
-73.1520081
 30
0.0
 11
6.2659302
 21
-76.5000000
 31
0.0
 62
     5
  0
LINE
  8
SSYMB
  6
CONTINUOUS
 62
     5
 10
6.2659302
 20
-76.5000000
 30
0.0
 11
4.7659302
 21
-76.5000000
 31
0.0
 62
     5
  0
LINE
  8
SSYMB
  6
CONTINUOUS
 62
     5
 10
4.7659302
 20
-76.5000000
 30
0.0
 11
4.7659302
 21
-66.5000000
 31
0.0
 62
     5
  0
LINE
  8
SSYMB
  6
CONTINUOUS
 62
     5
 10
4.7659302
 20
-66.5000000
 30
0.0
 11
6.2659302
 21
-66.5000000
 31
0.0
 62
     5
  0
LINE
  8
SSYMB
  6
CONTINUOUS
 62
     5
 10
6.2659302
 20
-66.5000000
 30
0.0
 11
6.2659302
 21
-71.0300064
 31
0.0
 62
     5
  0
ENDBLK
  0
BLOCK
  8
SSYMB
  2
DXF176
 70
    64
 10
0.0
 20
0.0
 30
0.0
  3
DXF176
  0
POLYLINE
  8
SSYMB
 66
     1
 10
0.0
 20
0.0
 30
0.0
  6
CONTINUOUS
 62
     5
 70
     1
  0
VERTEX
  8
SSYMB
  6
CONTINUOUS
 10
-2.3170776
 20
-67.9690094
 30
0.0
 42
0.1600442
 62
     5
  0
VERTEX
  8
SSYMB
  6
CONTINUOUS
 10
-3.1283658
 20
-68.2379379
 30
0.0
 42
0.1008155
 62
     5
  0
VERTEX
  8
SSYMB
  6
CONTINUOUS
 10
-3.8161445
 20
-69.0037994
 30
0.0
 42
0.0734295
 62
     5
  0
VERTEX
  8
SSYMB
  6
CONTINUOUS
 10
-4.2757034
 20
-70.1499863
 30
0.0
 42
0.0594679
 62
     5
  0
VERTEX
  8
SSYMB
  6
CONTINUOUS
 10
-4.4370780
 20
-71.5020065
 30
0.0
 42
0.0594679
 62
     5
  0
VERTEX
  8
SSYMB
  6
CONTINUOUS
 10
-4.2757044
 20
-72.8540268
 30
0.0
 42
0.0734295
 62
     5
  0
VERTEX
  8
SSYMB
  6
CONTINUOUS
 10
-3.8161466
 20
-74.0002136
 30
0.0
 42
0.1008155
 62
     5
  0
VERTEX
  8
SSYMB
  6
CONTINUOUS
 10
-3.1283689
 20
-74.7660751
 30
0.0
 42
0.1614250
 62
     5
  0
VERTEX
  8
SSYMB
  6
CONTINUOUS
 10
-2.3170791
 20
-75.0350037
 30
0.0
 42
0.1614250
 62
     5
  0
VERTEX
  8
SSYMB
  6
CONTINUOUS
 10
-1.5057925
 20
-74.7660751
 30
0.0
 42
0.1008155
 62
     5
  0
VERTEX
  8
SSYMB
  6
CONTINUOUS
 10
-0.8180134
 20
-74.0002136
 30
0.0
 42
0.0734295
 62
     5
  0
VERTEX
  8
SSYMB
  6
CONTINUOUS
 10
-0.3584537
 20
-72.8540268
 30
0.0
 42
0.0594679
 62
     5
  0
VERTEX
  8
SSYMB
  6
CONTINUOUS
 10
-0.1970782
 20
-71.5020065
 30
0.0
 42
0.0594679
 62
     5
  0
VERTEX
  8
SSYMB
  6
CONTINUOUS
 10
-0.3584525
 20
-70.1499863
 30
0.0
 42
0.0734295
 62
     5
  0
VERTEX
  8
SSYMB
  6
CONTINUOUS
 10
-0.8180111
 20
-69.0037994
 30
0.0
 42
0.1004762
 62
     5
  0
VERTEX
  8
SSYMB
  6
CONTINUOUS
 10
-1.5057895
 20
-68.2379379
 30
0.0
 42
0.1614250
 62
     5
  0
SEQEND
  0
POLYLINE
  8
SSYMB
 66
     1
 10
0.0
 20
0.0
 30
0.0
  6
CONTINUOUS
 62
     5
 70
     1
  0
VERTEX
  8
SSYMB
  6
CONTINUOUS
 10
-2.3170774
 20
-66.4909973
 30
0.0
 42
0.1347887
 62
     5
  0
VERTEX
  8
SSYMB
  6
CONTINUOUS
 10
-3.6970346
 20
-66.8722839
 30
0.0
 42
0.1029886
 62
     5
  0
VERTEX
  8
SSYMB
  6
CONTINUOUS
 10
-4.8669057
 20
-67.9580994
 30
0.0
 42
0.0834256
 62
     5
  0
VERTEX
  8
SSYMB
  6
CONTINUOUS
 10
-5.6485896
 20
-69.5831451
 30
0.0
 42
0.0712352
 62
     5
  0
VERTEX
  8
SSYMB
  6
CONTINUOUS
 10
-5.9230781
 20
-71.5000000
 30
0.0
 42
0.0712352
 62
     5
  0
VERTEX
  8
SSYMB
  6
CONTINUOUS
 10
-5.6485896
 20
-73.4168549
 30
0.0
 42
0.0834256
 62
     5
  0
VERTEX
  8
SSYMB
  6
CONTINUOUS
 10
-4.8669090
 20
-75.0419006
 30
0.0
 42
0.1029886
 62
     5
  0
VERTEX
  8
SSYMB
  6
CONTINUOUS
 10
-3.6970344
 20
-76.1277161
 30
0.0
 42
0.1356107
 62
     5
  0
VERTEX
  8
SSYMB
  6
CONTINUOUS
 10
-2.3170795
 20
-76.5090027
 30
0.0
 42
0.1356107
 62
     5
  0
VERTEX
  8
SSYMB
  6
CONTINUOUS
 10
-0.9371245
 20
-76.1277161
 30
0.0
 42
0.1029886
 62
     5
  0
VERTEX
  8
SSYMB
  6
CONTINUOUS
 10
0.2327474
 20
-75.0419006
 30
0.0
 42
0.0834256
 62
     5
  0
VERTEX
  8
SSYMB
  6
CONTINUOUS
 10
1.0144323
 20
-73.4168625
 30
0.0
 42
0.0712352
 62
     5
  0
VERTEX
  8
SSYMB
  6
CONTINUOUS
 10
1.2889218
 20
-71.5000000
 30
0.0
 42
0.0712352
 62
     5
  0
VERTEX
  8
SSYMB
  6
CONTINUOUS
 10
1.0144331
 20
-69.5831375
 30
0.0
 42
0.0834256
 62
     5
  0
VERTEX
  8
SSYMB
  6
CONTINUOUS
 10
0.2327506
 20
-67.9580994
 30
0.0
 42
0.1026268
 62
     5
  0
VERTEX
  8
SSYMB
  6
CONTINUOUS
 10
-0.9371225
 20
-66.8722839
 30
0.0
 42
0.1356107
 62
     5
  0
SEQEND
  0
ENDBLK
  0
BLOCK
  8
SSYMB
  2
DXF177
 70
    64
 10
0.0
 20
0.0
 30
0.0
  3
DXF177
  0
ARC
  8
SSYMB
  6
CONTINUOUS
 62
     5
 10
6.1491089
 20
-26.5340099
 30
0.0
 40
13.1999998
 50
478.0000000
 51
528.9000244
  0
ARC
  8
SSYMB
  6
CONTINUOUS
 62
     5
 10
-8.8070068
 20
-1.2340090
 30
0.0
 40
16.2259998
 50
302.6000061
 51
315.3999939
  0
ARC
  8
SSYMB
  6
CONTINUOUS
 62
     5
 10
-0.0391235
 20
-10.5021095
 30
0.0
 40
3.4979999
 50
323.0000000
 51
189.8000031
  0
LINE
  8
SSYMB
  6
CONTINUOUS
 62
     5
 10
-3.4871221
 20
-11.0980101
 30
0.0
 11
-6.5095830
 21
-11.0980101
 31
0.0
 62
     5
  0
ARC
  8
SSYMB
  6
CONTINUOUS
 62
     5
 10
-0.0391235
 20
-10.5021095
 30
0.0
 40
6.4800000
 50
305.6000061
 51
185.1999969
  0
ARC
  8
SSYMB
  6
CONTINUOUS
 62
     5
 10
-8.8070068
 20
-1.2340090
 30
0.0
 40
19.2199993
 50
302.5000000
 51
310.7000122
  0
ARC
  8
SSYMB
  6
CONTINUOUS
 62
     5
 10
6.8209839
 20
-26.4939098
 30
0.0
 40
10.5000000
 50
480.2000122
 51
508.3999939
  0
LINE
  8
SSYMB
  6
CONTINUOUS
 62
     5
 10
-2.1250000
 20
-21.0021095
 30
0.0
 11
6.8070068
 21
-21.0021095
 31
0.0
 62
     5
  0
LINE
  8
SSYMB
  6
CONTINUOUS
 62
     5
 10
6.8070068
 20
-21.0021095
 30
0.0
 11
6.8070068
 21
-24.0000000
 31
0.0
 62
     5
  0
LINE
  8
SSYMB
  6
CONTINUOUS
 62
     5
 10
6.8070068
 20
-24.0000000
 30
0.0
 11
-6.8070068
 21
-24.0000000
 31
0.0
 62
     5
  0
ENDBLK
  0
BLOCK
  8
AREA
  2
DXF181
 70
    64
 10
0.0
 20
0.0
 30
0.0
  3
DXF181
  0
LINE
  8
AREA
  6
CONTINUOUS
 62
     5
 10
0.0000000
 20
-80.0000000
 30
0.0
 11
-16.8129597
 21
-80.0000000
 31
0.0
 62
     5
  0
LINE
  8
AREA
  6
CONTINUOUS
 62
     5
 10
-26.8129597
 20
-80.0000000
 30
0.0
 11
-45.0000000
 21
-80.0000000
 31
0.0
 62
     5
  0
ENDBLK
  0
BLOCK
  8
AREA
  2
DXF182
 70
    64
 10
0.0
 20
0.0
 30
0.0
  3
DXF182
  0
LINE
  8
AREA
  6
CONTINUOUS
 62
     5
 10
0.0000000
 20
-80.0000000
 30
0.0
 11
16.8129597
 21
-80.0000000
 31
0.0
 62
     5
  0
LINE
  8
AREA
  6
CONTINUOUS
 62
     5
 10
26.8129597
 20
-80.0000000
 30
0.0
 11
45.0000000
 21
-80.0000000
 31
0.0
 62
     5
  0
ENDBLK
  0
BLOCK
  8
WORKLAYER
  2
DXF194
 70
    64
 10
0.0
 20
0.0
 30
0.0
  3
DXF194
  0
LINE
  8
WORKLAYER
  6
CONTINUOUS
 62
     3
 10
77.4999771
 20
-185.0001068
 30
0.0
 11
77.4999771
 21
-167.0001068
 31
0.0
 62
     3
  0
LINE
  8
WORKLAYER
  6
CONTINUOUS
 62
     3
 10
75.4999771
 20
-165.0001068
 30
0.0
 11
-0.0000000
 21
-165.0001068
 31
0.0
 62
     3
  0
LINE
  8
WORKLAYER
  6
CONTINUOUS
 62
     3
 10
-0.0000000
 20
-165.0001068
 30
0.0
 11
-75.5000000
 21
-165.0001068
 31
0.0
 62
     3
  0
LINE
  8
WORKLAYER
  6
CONTINUOUS
 62
     3
 10
-77.5000000
 20
-167.0001068
 30
0.0
 11
-77.5000000
 21
-185.0001068
 31
0.0
 62
     3
  0
LINE
  8
WORKLAYER
  6
CONTINUOUS
 62
     3
 10
-77.5000000
 20
-185.0001068
 30
0.0
 11
77.4999771
 21
-185.0001068
 31
0.0
 62
     3
  0
ARC
  8
WORKLAYER
  6
CONTINUOUS
 62
     3
 10
-75.5000000
 20
-167.0001068
 30
0.0
 40
2.0000000
 50
90.0000000
 51
180.0000000
  0
ARC
  8
WORKLAYER
  6
CONTINUOUS
 62
     3
 10
75.4999771
 20
-167.0001068
 30
0.0
 40
2.0000000
 50
0.0000000
 51
90.0000000
  0
ARC
  8
WORKLAYER
  6
CONTINUOUS
 62
     3
 10
41.0723000
 20
-160.0001068
 30
0.0
 40
5.0000000
 50
198.9105072
 51
270.0000000
  0
ARC
  8
WORKLAYER
  6
CONTINUOUS
 62
     3
 10
-41.0723991
 20
-160.0001068
 30
0.0
 40
5.0000000
 50
270.0000000
 51
341.0895081
  0
LINE
  8
WORKLAYER
  6
CONTINUOUS
 62
     3
 10
66.9999771
 20
-100.5000000
 30
0.0
 11
66.9999771
 21
-84.5000000
 31
0.0
 62
     3
  0
LINE
  8
WORKLAYER
  6
CONTINUOUS
 62
     3
 10
64.9999771
 20
-82.5000000
 30
0.0
 11
-0.0000000
 21
-82.5000000
 31
0.0
 62
     3
  0
LINE
  8
WORKLAYER
  6
CONTINUOUS
 62
     3
 10
-0.0000000
 20
-82.5000000
 30
0.0
 11
-65.0000000
 21
-82.5000000
 31
0.0
 62
     3
  0
LINE
  8
WORKLAYER
  6
CONTINUOUS
 62
     3
 10
-67.0000000
 20
-84.5000000
 30
0.0
 11
-67.0000000
 21
-100.5000000
 31
0.0
 62
     3
  0
LINE
  8
WORKLAYER
  6
CONTINUOUS
 62
     3
 10
-65.0000000
 20
-102.5000992
 30
0.0
 11
-0.0000000
 21
-102.5000992
 31
0.0
 62
     3
  0
LINE
  8
WORKLAYER
  6
CONTINUOUS
 62
     3
 10
-0.0000000
 20
-102.5000992
 30
0.0
 11
64.9999771
 21
-102.5000992
 31
0.0
 62
     3
  0
ARC
  8
WORKLAYER
  6
CONTINUOUS
 62
     3
 10
64.9999771
 20
-100.5000000
 30
0.0
 40
2.0000000
 50
270.0000000
 51
0.0000000
  0
ARC
  8
WORKLAYER
  6
CONTINUOUS
 62
     3
 10
64.9999771
 20
-84.5000000
 30
0.0
 40
2.0000000
 50
0.0000000
 51
90.0000000
  0
ARC
  8
WORKLAYER
  6
CONTINUOUS
 62
     3
 10
-65.0000000
 20
-84.5000000
 30
0.0
 40
2.0000000
 50
90.0000000
 51
180.0000000
  0
ARC
  8
WORKLAYER
  6
CONTINUOUS
 62
     3
 10
-65.0000000
 20
-100.5000000
 30
0.0
 40
2.0000000
 50
180.0000000
 51
270.0000000
  0
ARC
  8
WORKLAYER
  6
CONTINUOUS
 62
     3
 10
-43.2345009
 20
-107.5000000
 30
0.0
 40
5.0000000
 50
24.2029095
 51
90.0000000
  0
ARC
  8
WORKLAYER
  6
CONTINUOUS
 62
     3
 10
43.2344093
 20
-107.5000000
 30
0.0
 40
5.0000000
 50
90.0000000
 51
155.7971039
  0
LINE
  8
WORKLAYER
  6
CONTINUOUS
 62
     3
 10
45.0000114
 20
-81.0000000
 30
0.0
 11
26.8129597
 21
-81.0000000
 31
0.0
 62
     3
  0
LINE
  8
WORKLAYER
  6
CONTINUOUS
 62
     3
 10
16.8129597
 20
-81.0000000
 30
0.0
 11
-0.0000000
 21
-81.0000000
 31
0.0
 62
     3
  0
LINE
  8
WORKLAYER
  6
CONTINUOUS
 62
     3
 10
-0.0000000
 20
-81.0000000
 30
0.0
 11
-16.8129597
 21
-81.0000000
 31
0.0
 62
     3
  0
LINE
  8
WORKLAYER
  6
CONTINUOUS
 62
     3
 10
-26.8129597
 20
-81.0000000
 30
0.0
 11
-45.0000000
 21
-81.0000000
 31
0.0
 62
     3
  0
ARC
  8
WORKLAYER
  6
CONTINUOUS
 62
     3
 10
46.9365005
 20
-80.5001068
 30
0.0
 40
2.0000000
 50
194.4774933
 51
270.0000000
  0
ARC
  8
WORKLAYER
  6
CONTINUOUS
 62
     3
 10
-46.9364891
 20
-80.5001068
 30
0.0
 40
2.0000000
 50
270.0000000
 51
345.5224915
  0
LINE
  8
WORKLAYER
  6
CONTINUOUS
 62
     3
 10
-33.2578888
 20
-117.5000000
 30
0.0
 11
-38.6739998
 21
-105.4502029
 31
0.0
 62
     3
  0
LINE
  8
WORKLAYER
  6
CONTINUOUS
 62
     3
 10
-36.3423004
 20
-161.6204987
 30
0.0
 11
-32.3613014
 21
-150.0001068
 31
0.0
 62
     3
  0
LINE
  8
WORKLAYER
  6
CONTINUOUS
 62
     3
 10
33.2578011
 20
-117.5000000
 30
0.0
 11
38.6739998
 21
-105.4502029
 31
0.0
 62
     3
  0
LINE
  8
WORKLAYER
  6
CONTINUOUS
 62
     3
 10
36.3422012
 20
-161.6204987
 30
0.0
 11
32.3613091
 21
-150.0001068
 31
0.0
 62
     3
  0
LINE
  8
WORKLAYER
  6
CONTINUOUS
 62
     3
 10
32.3613091
 20
-150.0000000
 30
0.0
 11
33.2578011
 21
-117.5000000
 31
0.0
 62
     3
  0
LINE
  8
WORKLAYER
  6
CONTINUOUS
 62
     3
 10
-32.3613014
 20
-150.0000000
 30
0.0
 11
-33.2578888
 21
-117.5000000
 31
0.0
 62
     3
  0
LINE
  8
WORKLAYER
  6
CENTER
 62
     2
 10
-60.0000000
 20
-188.0001068
 30
0.0
 11
-60.0000000
 21
-162.0001068
 31
0.0
 62
     2
  0
LINE
  8
WORKLAYER
  6
CENTER
 62
     2
 10
59.9999809
 20
-188.0001068
 30
0.0
 11
59.9999809
 21
-162.0001068
 31
0.0
 62
     2
  0
ENDBLK
  0
BLOCK
  8
WORKLAYER
  2
DXF195
 70
    64
 10
0.0
 20
0.0
 30
0.0
  3
DXF195
  0
LINE
  8
WORKLAYER
  6
CONTINUOUS
 62
     4
 10
-11.5000296
 20
160.5000000
 30
0.0
 11
0.0000000
 21
160.5000000
 31
0.0
 62
     4
  0
LINE
  8
WORKLAYER
  6
CONTINUOUS
 62
     4
 10
0.0000000
 20
160.5000000
 30
0.0
 11
11.4999704
 21
160.5000000
 31
0.0
 62
     4
  0
LINE
  8
WORKLAYER
  6
CONTINUOUS
 62
     4
 10
-12.0000296
 20
155.5000000
 30
0.0
 11
0.0000000
 21
155.5000000
 31
0.0
 62
     4
  0
LINE
  8
WORKLAYER
  6
CONTINUOUS
 62
     4
 10
0.0000000
 20
155.5000000
 30
0.0
 11
11.9999704
 21
155.5000000
 31
0.0
 62
     4
  0
LINE
  8
WORKLAYER
  6
CONTINUOUS
 62
     4
 10
-12.0000296
 20
155.5000000
 30
0.0
 11
-13.0000296
 21
154.5000000
 31
0.0
 62
     4
  0
LINE
  8
WORKLAYER
  6
CONTINUOUS
 62
     4
 10
-13.0000296
 20
154.5000000
 30
0.0
 11
-13.0000296
 21
154.0000000
 31
0.0
 62
     4
  0
LINE
  8
WORKLAYER
  6
CONTINUOUS
 62
     4
 10
12.9999704
 20
154.5000000
 30
0.0
 11
12.9999704
 21
154.0000000
 31
0.0
 62
     4
  0
LINE
  8
WORKLAYER
  6
CONTINUOUS
 62
     4
 10
12.9999704
 20
154.5000000
 30
0.0
 11
11.9999704
 21
155.5000000
 31
0.0
 62
     4
  0
LINE
  8
WORKLAYER
  6
CONTINUOUS
 62
     2
 10
-12.1880503
 20
155.5000000
 30
0.0
 11
-12.1880503
 21
154.0000000
 31
0.0
 62
     2
  0
LINE
  8
WORKLAYER
  6
CONTINUOUS
 62
     2
 10
12.1879597
 20
155.5000000
 30
0.0
 11
12.1879597
 21
154.0000000
 31
0.0
 62
     2
  0
LINE
  8
WORKLAYER
  6
CONTINUOUS
 62
     4
 10
11.4999704
 20
160.5000000
 30
0.0
 11
11.4999704
 21
155.5000000
 31
0.0
 62
     4
  0
LINE
  8
WORKLAYER
  6
CONTINUOUS
 62
     4
 10
-11.5000296
 20
160.5000000
 30
0.0
 11
-11.5000296
 21
155.5000000
 31
0.0
 62
     4
  0
ENDBLK
  0
BLOCK
  8
WORKLAYER
  2
DXF196
 70
    64
 10
0.0
 20
0.0
 30
0.0
  3
DXF196
  0
LINE
  8
WORKLAYER
  6
CONTINUOUS
 62
     4
 10
4.9999728
 20
160.5000000
 30
0.0
 11
4.9999728
 21
161.5359955
 31
0.0
 62
     4
  0
LINE
  8
WORKLAYER
  6
CONTINUOUS
 62
     4
 10
-5.0000272
 20
161.5359955
 30
0.0
 11
-5.0000272
 21
160.5000000
 31
0.0
 62
     4
  0
LINE
  8
WORKLAYER
  6
CONTINUOUS
 62
     4
 10
-4.0000272
 20
165.2680054
 30
0.0
 11
-5.0000272
 21
161.5359955
 31
0.0
 62
     4
  0
LINE
  8
WORKLAYER
  6
CONTINUOUS
 62
     4
 10
3.9999731
 20
165.2680054
 30
0.0
 11
4.9999728
 21
161.5359955
 31
0.0
 62
     4
  0
LINE
  8
WORKLAYER
  6
CONTINUOUS
 62
     2
 10
3.9999731
 20
165.2680054
 30
0.0
 11
-4.0000272
 21
165.2680054
 31
0.0
 62
     2
  0
LINE
  8
WORKLAYER
  6
CONTINUOUS
 62
     2
 10
3.9999731
 20
168.2680054
 30
0.0
 11
-4.0000272
 21
168.2680054
 31
0.0
 62
     2
  0
LINE
  8
WORKLAYER
  6
CONTINUOUS
 62
     4
 10
-4.0000272
 20
170.3977051
 30
0.0
 11
-4.0000272
 21
165.2680054
 31
0.0
 62
     4
  0
LINE
  8
WORKLAYER
  6
CONTINUOUS
 62
     4
 10
3.9999731
 20
165.2680054
 30
0.0
 11
3.9999731
 21
170.3977051
 31
0.0
 62
     4
  0
LINE
  8
WORKLAYER
  6
CONTINUOUS
 62
     2
 10
-5.0000272
 20
161.5359955
 30
0.0
 11
4.9999728
 21
161.5359955
 31
0.0
 62
     2
  0
LINE
  8
WORKLAYER
  6
CONTINUOUS
 62
     2
 10
-4.0000272
 20
166.5359955
 30
0.0
 11
-3.0000269
 21
168.2680054
 31
0.0
 62
     2
  0
LINE
  8
WORKLAYER
  6
CONTINUOUS
 62
     2
 10
3.9999731
 20
166.5359955
 30
0.0
 11
2.9999731
 21
168.2680054
 31
0.0
 62
     2
  0
LINE
  8
WORKLAYER
  6
CONTINUOUS
 62
     2
 10
-3.0000269
 20
170.3977051
 30
0.0
 11
-3.0000269
 21
168.2680054
 31
0.0
 62
     2
  0
LINE
  8
WORKLAYER
  6
CONTINUOUS
 62
     2
 10
2.9999731
 20
168.2680054
 30
0.0
 11
2.9999731
 21
170.3977051
 31
0.0
 62
     2
  0
ENDBLK
  0
BLOCK
  8
WORKLAYER
  2
DXF197
 70
    64
 10
0.0
 20
0.0
 30
0.0
  3
DXF197
  0
LINE
  8
WORKLAYER
  6
CONTINUOUS
 62
     4
 10
242.9530029
 20
177.3000031
 30
0.0
 11
245.8421021
 21
177.3000031
 31
0.0
 62
     4
  0
ARC
  8
WORKLAYER
  6
CONTINUOUS
 62
     4
 10
250.6557007
 20
189.6988068
 30
0.0
 40
16.0000000
 50
111.1300964
 51
115.9445038
  0
LINE
  8
WORKLAYER
  6
CONTINUOUS
 62
     4
 10
242.9530029
 20
197.0643005
 30
0.0
 11
245.1083984
 21
198.3087006
 31
0.0
 62
     4
  0
ARC
  8
WORKLAYER
  6
CONTINUOUS
 62
     4
 10
250.6557007
 20
217.6011963
 30
0.0
 40
16.0000000
 50
244.0554962
 51
249.1340942
  0
LINE
  8
WORKLAYER
  6
CONTINUOUS
 62
     4
 10
243.6557007
 20
204.0863037
 30
0.0
 11
243.6557007
 21
203.2136993
 31
0.0
 62
     4
  0
LINE
  8
WORKLAYER
  6
CONTINUOUS
 62
     3
 10
243.6557007
 20
204.0863037
 30
0.0
 11
244.9066925
 21
204.0863037
 31
0.0
 62
     3
  0
LINE
  8
WORKLAYER
  6
CONTINUOUS
 62
     3
 10
244.9371033
 20
203.2136993
 30
0.0
 11
243.6557007
 21
203.2136993
 31
0.0
 62
     3
  0
LINE
  8
WORKLAYER
  6
CONTINUOUS
 62
     4
 10
242.9530029
 20
197.0643005
 30
0.0
 11
242.9530029
 21
177.3000031
 31
0.0
 62
     4
  0
ARC
  8
WORKLAYER
  6
CONTINUOUS
 62
     4
 10
246.8043060
 20
190.3934937
 30
0.0
 40
7.7027302
 50
102.6128006
 51
120.0000000
  0
ENDBLK
  0
BLOCK
  8
0
  2
DXF198
 70
    64
 10
0.0
 20
0.0
 30
0.0
  3
DXF198
  0
LINE
  8
0
  6
CONTINUOUS
 62
     3
 10
-61.1611290
 20
-109.5000992
 30
0.0
 11
-62.4760818
 21
-108.7408981
 31
0.0
 62
     3
  0
LINE
  8
0
  6
CONTINUOUS
 62
     3
 10
-57.6611290
 20
-82.5000000
 30
0.0
 11
-57.6611290
 21
-78.5000000
 31
0.0
 62
     3
  0
LINE
  8
0
  6
CONTINUOUS
 62
     3
 10
-47.6611290
 20
-82.5000000
 30
0.0
 11
-47.6611290
 21
-78.5000000
 31
0.0
 62
     3
  0
LINE
  8
0
  6
CONTINUOUS
 62
     3
 10
-42.8461800
 20
-102.5000992
 30
0.0
 11
-62.4760818
 21
-102.5000992
 31
0.0
 62
     3
  0
LINE
  8
0
  6
CONTINUOUS
 62
     3
 10
-44.1611519
 20
-109.5000992
 30
0.0
 11
-61.1611290
 21
-109.5000992
 31
0.0
 62
     3
  0
LINE
  8
0
  6
CONTINUOUS
 62
     3
 10
-62.4760818
 20
-108.7408981
 30
0.0
 11
-62.4760818
 21
-102.5000992
 31
0.0
 62
     3
  0
LINE
  8
0
  6
CONTINUOUS
 62
     3
 10
-42.8461800
 20
-108.7408981
 30
0.0
 11
-42.8461800
 21
-102.5000992
 31
0.0
 62
     3
  0
LINE
  8
0
  6
CONTINUOUS
 62
     3
 10
-44.1611290
 20
-109.5000992
 30
0.0
 11
-42.8461800
 21
-108.7408981
 31
0.0
 62
     3
  0
ARC
  8
0
  6
CONTINUOUS
 62
     3
 10
-52.6611290
 20
-94.7776566
 30
0.0
 40
14.7224302
 50
610.5288086
 51
289.4711914
  0
LINE
  8
0
  6
CONTINUOUS
 62
     3
 10
-47.7536697
 20
-108.6580963
 30
0.0
 11
-47.7536697
 21
-102.5000992
 31
0.0
 62
     3
  0
LINE
  8
0
  6
CONTINUOUS
 62
     3
 10
-57.5686111
 20
-108.6580963
 30
0.0
 11
-57.5686111
 21
-102.5000992
 31
0.0
 62
     3
  0
ARC
  8
0
  6
CONTINUOUS
 62
     3
 10
-44.1611519
 20
-101.4150009
 30
0.0
 40
8.0851116
 50
603.6190186
 51
270.0000000
  0
ARC
  8
0
  6
CONTINUOUS
 62
     3
 10
-61.1611290
 20
-101.4150009
 30
0.0
 40
8.0851116
 50
270.0000000
 51
296.3810120
  0
ENDBLK
  0
BLOCK
  8
0
  2
DXF199
 70
    64
 10
0.0
 20
0.0
 30
0.0
  3
DXF199
  0
LINE
  8
0
  6
CONTINUOUS
 62
     3
 10
-30.3129597
 20
-109.5000992
 30
0.0
 11
-31.6278992
 21
-108.7408981
 31
0.0
 62
     3
  0
LINE
  8
0
  6
CONTINUOUS
 62
     3
 10
-26.8129597
 20
-82.5000000
 30
0.0
 11
-26.8129597
 21
-78.5000000
 31
0.0
 62
     3
  0
LINE
  8
0
  6
CONTINUOUS
 62
     3
 10
-16.8129597
 20
-82.5000000
 30
0.0
 11
-16.8129597
 21
-78.5000000
 31
0.0
 62
     3
  0
LINE
  8
0
  6
CONTINUOUS
 62
     3
 10
-11.9980097
 20
-102.5000992
 30
0.0
 11
-31.6278992
 21
-102.5000992
 31
0.0
 62
     3
  0
LINE
  8
0
  6
CONTINUOUS
 62
     3
 10
-13.3129702
 20
-109.5000992
 30
0.0
 11
-30.3129597
 21
-109.5000992
 31
0.0
 62
     3
  0
LINE
  8
0
  6
CONTINUOUS
 62
     3
 10
-31.6278992
 20
-108.7408981
 30
0.0
 11
-31.6278992
 21
-102.5000992
 31
0.0
 62
     3
  0
LINE
  8
0
  6
CONTINUOUS
 62
     3
 10
-11.9980097
 20
-108.7408981
 30
0.0
 11
-11.9980097
 21
-102.5000992
 31
0.0
 62
     3
  0
LINE
  8
0
  6
CONTINUOUS
 62
     3
 10
-13.3129597
 20
-109.5000992
 30
0.0
 11
-11.9980097
 21
-108.7408981
 31
0.0
 62
     3
  0
ARC
  8
0
  6
CONTINUOUS
 62
     3
 10
-21.8129597
 20
-94.7776566
 30
0.0
 40
14.7224302
 50
610.5288086
 51
289.4711914
  0
LINE
  8
0
  6
CONTINUOUS
 62
     3
 10
-16.9054909
 20
-108.6580963
 30
0.0
 11
-16.9054909
 21
-102.5000992
 31
0.0
 62
     3
  0
LINE
  8
0
  6
CONTINUOUS
 62
     3
 10
-26.7204399
 20
-108.6580963
 30
0.0
 11
-26.7204399
 21
-102.5000992
 31
0.0
 62
     3
  0
ARC
  8
0
  6
CONTINUOUS
 62
     3
 10
-13.3129702
 20
-101.4150009
 30
0.0
 40
8.0851116
 50
603.6190186
 51
270.0000000
  0
ARC
  8
0
  6
CONTINUOUS
 62
     3
 10
-30.3129597
 20
-101.4150009
 30
0.0
 40
8.0851116
 50
270.0000000
 51
296.3810120
  0
ENDBLK
  0
BLOCK
  8
0
  2
DXF200
 70
    64
 10
0.0
 20
0.0
 30
0.0
  3
DXF200
  0
LINE
  8
0
  6
CONTINUOUS
 62
     3
 10
30.3129597
 20
-109.5000992
 30
0.0
 11
31.6278992
 21
-108.7408981
 31
0.0
 62
     3
  0
LINE
  8
0
  6
CONTINUOUS
 62
     3
 10
26.8129597
 20
-82.5000000
 30
0.0
 11
26.8129597
 21
-78.5000000
 31
0.0
 62
     3
  0
LINE
  8
0
  6
CONTINUOUS
 62
     3
 10
16.8129597
 20
-82.5000000
 30
0.0
 11
16.8129597
 21
-78.5000000
 31
0.0
 62
     3
  0
LINE
  8
0
  6
CONTINUOUS
 62
     3
 10
11.9980097
 20
-102.5000992
 30
0.0
 11
31.6278992
 21
-102.5000992
 31
0.0
 62
     3
  0
LINE
  8
0
  6
CONTINUOUS
 62
     3
 10
13.3129702
 20
-109.5000992
 30
0.0
 11
30.3129597
 21
-109.5000992
 31
0.0
 62
     3
  0
LINE
  8
0
  6
CONTINUOUS
 62
     3
 10
31.6278992
 20
-108.7408981
 30
0.0
 11
31.6278992
 21
-102.5000992
 31
0.0
 62
     3
  0
LINE
  8
0
  6
CONTINUOUS
 62
     3
 10
11.9980097
 20
-108.7408981
 30
0.0
 11
11.9980097
 21
-102.5000992
 31
0.0
 62
     3
  0
LINE
  8
0
  6
CONTINUOUS
 62
     3
 10
13.3129597
 20
-109.5000992
 30
0.0
 11
11.9980097
 21
-108.7408981
 31
0.0
 62
     3
  0
ARC
  8
0
  6
CONTINUOUS
 62
     3
 10
21.8129597
 20
-94.7776566
 30
0.0
 40
14.7224302
 50
250.5287933
 51
289.4711914
  0
LINE
  8
0
  6
CONTINUOUS
 62
     3
 10
16.9054909
 20
-108.6580963
 30
0.0
 11
16.9054909
 21
-102.5000992
 31
0.0
 62
     3
  0
LINE
  8
0
  6
CONTINUOUS
 62
     3
 10
26.7204399
 20
-108.6580963
 30
0.0
 11
26.7204399
 21
-102.5000992
 31
0.0
 62
     3
  0
ARC
  8
0
  6
CONTINUOUS
 62
     3
 10
13.3129702
 20
-101.4150009
 30
0.0
 40
8.0851116
 50
270.0000000
 51
296.3810120
  0
ARC
  8
0
  6
CONTINUOUS
 62
     3
 10
30.3129597
 20
-101.4150009
 30
0.0
 40
8.0851116
 50
243.6190033
 51
270.0000000
  0
ENDBLK
  0
BLOCK
  8
0
  2
DXF201
 70
    64
 10
0.0
 20
0.0
 30
0.0
  3
DXF201
  0
LINE
  8
0
  6
CONTINUOUS
 62
     3
 10
61.1611290
 20
-109.5000992
 30
0.0
 11
62.4760818
 21
-108.7408981
 31
0.0
 62
     3
  0
LINE
  8
0
  6
CONTINUOUS
 62
     3
 10
57.6611290
 20
-82.5000000
 30
0.0
 11
57.6611290
 21
-78.5000000
 31
0.0
 62
     3
  0
LINE
  8
0
  6
CONTINUOUS
 62
     3
 10
47.6611290
 20
-82.5000000
 30
0.0
 11
47.6611290
 21
-78.5000000
 31
0.0
 62
     3
  0
LINE
  8
0
  6
CONTINUOUS
 62
     3
 10
42.8461800
 20
-102.5000992
 30
0.0
 11
62.4760818
 21
-102.5000992
 31
0.0
 62
     3
  0
LINE
  8
0
  6
CONTINUOUS
 62
     3
 10
44.1611519
 20
-109.5000992
 30
0.0
 11
61.1611290
 21
-109.5000992
 31
0.0
 62
     3
  0
LINE
  8
0
  6
CONTINUOUS
 62
     3
 10
62.4760818
 20
-108.7408981
 30
0.0
 11
62.4760818
 21
-102.5000992
 31
0.0
 62
     3
  0
LINE
  8
0
  6
CONTINUOUS
 62
     3
 10
42.8461800
 20
-108.7408981
 30
0.0
 11
42.8461800
 21
-102.5000992
 31
0.0
 62
     3
  0
LINE
  8
0
  6
CONTINUOUS
 62
     3
 10
44.1611290
 20
-109.5000992
 30
0.0
 11
42.8461800
 21
-108.7408981
 31
0.0
 62
     3
  0
ARC
  8
0
  6
CONTINUOUS
 62
     3
 10
52.6611290
 20
-94.7776566
 30
0.0
 40
14.7224302
 50
250.5287933
 51
289.4711914
  0
LINE
  8
0
  6
CONTINUOUS
 62
     3
 10
47.7536697
 20
-108.6580963
 30
0.0
 11
47.7536697
 21
-102.5000992
 31
0.0
 62
     3
  0
LINE
  8
0
  6
CONTINUOUS
 62
     3
 10
57.5686111
 20
-108.6580963
 30
0.0
 11
57.5686111
 21
-102.5000992
 31
0.0
 62
     3
  0
ARC
  8
0
  6
CONTINUOUS
 62
     3
 10
44.1611519
 20
-101.4150009
 30
0.0
 40
8.0851116
 50
270.0000000
 51
296.3810120
  0
ARC
  8
0
  6
CONTINUOUS
 62
     3
 10
61.1611290
 20
-101.4150009
 30
0.0
 40
8.0851116
 50
243.6190033
 51
270.0000000
  0
ENDBLK
  0
BLOCK
  8
WORKLAYER
  2
DXF202
 70
    64
 10
0.0
 20
0.0
 30
0.0
  3
DXF202
  0
LINE
  8
WORKLAYER
  6
CONTINUOUS
 62
     4
 10
250.6557007
 20
-81.0000000
 30
0.0
 11
233.8428040
 21
-81.0000000
 31
0.0
 62
     4
  0
LINE
  8
WORKLAYER
  6
CONTINUOUS
 62
     4
 10
223.8428040
 20
-81.0000000
 30
0.0
 11
205.6557007
 21
-81.0000000
 31
0.0
 62
     4
  0
ENDBLK
  0
BLOCK
  8
WORKLAYER
  2
DXF203
 70
    64
 10
0.0
 20
0.0
 30
0.0
  3
DXF203
  0
LINE
  8
WORKLAYER
  6
CONTINUOUS
 62
     3
 10
328.1557007
 20
-185.0001068
 30
0.0
 11
328.1557007
 21
-167.0001068
 31
0.0
 62
     3
  0
LINE
  8
WORKLAYER
  6
CONTINUOUS
 62
     3
 10
326.1557007
 20
-165.0001068
 30
0.0
 11
250.6557007
 21
-165.0001068
 31
0.0
 62
     3
  0
LINE
  8
WORKLAYER
  6
CONTINUOUS
 62
     3
 10
250.6557007
 20
-165.0001068
 30
0.0
 11
175.1557007
 21
-165.0001068
 31
0.0
 62
     3
  0
LINE
  8
WORKLAYER
  6
CONTINUOUS
 62
     3
 10
173.1557007
 20
-167.0001068
 30
0.0
 11
173.1557007
 21
-185.0001068
 31
0.0
 62
     3
  0
LINE
  8
WORKLAYER
  6
CONTINUOUS
 62
     3
 10
173.1557007
 20
-185.0001068
 30
0.0
 11
328.1557007
 21
-185.0001068
 31
0.0
 62
     3
  0
ARC
  8
WORKLAYER
  6
CONTINUOUS
 62
     3
 10
175.1557007
 20
-167.0001068
 30
0.0
 40
2.0000000
 50
90.0000000
 51
180.0000000
  0
ARC
  8
WORKLAYER
  6
CONTINUOUS
 62
     3
 10
326.1557007
 20
-167.0001068
 30
0.0
 40
2.0000000
 50
0.0000000
 51
90.0000000
  0
ARC
  8
WORKLAYER
  6
CONTINUOUS
 62
     3
 10
291.7279968
 20
-160.0001068
 30
0.0
 40
5.0000000
 50
198.9105072
 51
270.0000000
  0
ARC
  8
WORKLAYER
  6
CONTINUOUS
 62
     3
 10
209.5832977
 20
-160.0001068
 30
0.0
 40
5.0000000
 50
270.0000000
 51
341.0895081
  0
LINE
  8
WORKLAYER
  6
CONTINUOUS
 62
     3
 10
317.6557007
 20
-100.5000000
 30
0.0
 11
317.6557007
 21
-84.5000000
 31
0.0
 62
     3
  0
LINE
  8
WORKLAYER
  6
CONTINUOUS
 62
     3
 10
315.6557007
 20
-82.5000000
 30
0.0
 11
250.6557007
 21
-82.5000000
 31
0.0
 62
     3
  0
LINE
  8
WORKLAYER
  6
CONTINUOUS
 62
     3
 10
250.6557007
 20
-82.5000000
 30
0.0
 11
185.6557007
 21
-82.5000000
 31
0.0
 62
     3
  0
LINE
  8
WORKLAYER
  6
CONTINUOUS
 62
     3
 10
183.6557007
 20
-84.5000000
 30
0.0
 11
183.6557007
 21
-100.5000000
 31
0.0
 62
     3
  0
LINE
  8
WORKLAYER
  6
CONTINUOUS
 62
     3
 10
185.6557007
 20
-102.5000992
 30
0.0
 11
250.6557007
 21
-102.5000992
 31
0.0
 62
     3
  0
LINE
  8
WORKLAYER
  6
CONTINUOUS
 62
     3
 10
250.6557007
 20
-102.5000992
 30
0.0
 11
315.6557007
 21
-102.5000992
 31
0.0
 62
     3
  0
ARC
  8
WORKLAYER
  6
CONTINUOUS
 62
     3
 10
315.6557007
 20
-100.5000000
 30
0.0
 40
2.0000000
 50
270.0000000
 51
0.0000000
  0
ARC
  8
WORKLAYER
  6
CONTINUOUS
 62
     3
 10
315.6557007
 20
-84.5000000
 30
0.0
 40
2.0000000
 50
0.0000000
 51
90.0000000
  0
ARC
  8
WORKLAYER
  6
CONTINUOUS
 62
     3
 10
185.6557007
 20
-84.5000000
 30
0.0
 40
2.0000000
 50
90.0000000
 51
180.0000000
  0
ARC
  8
WORKLAYER
  6
CONTINUOUS
 62
     3
 10
185.6557007
 20
-100.5000000
 30
0.0
 40
2.0000000
 50
180.0000000
 51
270.0000000
  0
ARC
  8
WORKLAYER
  6
CONTINUOUS
 62
     3
 10
207.4212036
 20
-107.5000000
 30
0.0
 40
5.0000000
 50
24.2029095
 51
90.0000000
  0
ARC
  8
WORKLAYER
  6
CONTINUOUS
 62
     3
 10
293.8901062
 20
-107.5000000
 30
0.0
 40
5.0000000
 50
90.0000000
 51
155.7971039
  0
LINE
  8
WORKLAYER
  6
CONTINUOUS
 62
     3
 10
295.6557007
 20
-81.0000000
 30
0.0
 11
277.4686890
 21
-81.0000000
 31
0.0
 62
     3
  0
LINE
  8
WORKLAYER
  6
CONTINUOUS
 62
     3
 10
267.4686890
 20
-81.0000000
 30
0.0
 11
250.6557007
 21
-81.0000000
 31
0.0
 62
     3
  0
LINE
  8
WORKLAYER
  6
CONTINUOUS
 62
     3
 10
250.6557007
 20
-81.0000000
 30
0.0
 11
233.8428040
 21
-81.0000000
 31
0.0
 62
     3
  0
LINE
  8
WORKLAYER
  6
CONTINUOUS
 62
     3
 10
223.8428040
 20
-81.0000000
 30
0.0
 11
205.6557007
 21
-81.0000000
 31
0.0
 62
     3
  0
ARC
  8
WORKLAYER
  6
CONTINUOUS
 62
     3
 10
297.5921936
 20
-80.5001068
 30
0.0
 40
2.0000000
 50
194.4774933
 51
270.0000000
  0
ARC
  8
WORKLAYER
  6
CONTINUOUS
 62
     3
 10
203.7191925
 20
-80.5001068
 30
0.0
 40
2.0000000
 50
270.0000000
 51
345.5224915
  0
LINE
  8
WORKLAYER
  6
CONTINUOUS
 62
     3
 10
217.3977966
 20
-117.5000000
 30
0.0
 11
211.9817047
 21
-105.4502029
 31
0.0
 62
     3
  0
LINE
  8
WORKLAYER
  6
CONTINUOUS
 62
     3
 10
214.3134003
 20
-161.6204987
 30
0.0
 11
218.2944031
 21
-150.0001068
 31
0.0
 62
     3
  0
LINE
  8
WORKLAYER
  6
CONTINUOUS
 62
     3
 10
283.9135132
 20
-117.5000000
 30
0.0
 11
289.3297119
 21
-105.4502029
 31
0.0
 62
     3
  0
LINE
  8
WORKLAYER
  6
CONTINUOUS
 62
     3
 10
286.9978943
 20
-161.6204987
 30
0.0
 11
283.0169983
 21
-150.0001068
 31
0.0
 62
     3
  0
LINE
  8
WORKLAYER
  6
CONTINUOUS
 62
     3
 10
283.0169983
 20
-150.0000000
 30
0.0
 11
283.9135132
 21
-117.5000000
 31
0.0
 62
     3
  0
LINE
  8
WORKLAYER
  6
CONTINUOUS
 62
     3
 10
218.2944031
 20
-150.0000000
 30
0.0
 11
217.3977966
 21
-117.5000000
 31
0.0
 62
     3
  0
LINE
  8
WORKLAYER
  6
CENTER
 62
     2
 10
190.6557007
 20
-188.0001068
 30
0.0
 11
190.6557007
 21
-162.0001068
 31
0.0
 62
     2
  0
LINE
  8
WORKLAYER
  6
CENTER
 62
     2
 10
310.6557007
 20
-188.0001068
 30
0.0
 11
310.6557007
 21
-162.0001068
 31
0.0
 62
     2
  0
ENDBLK
  0
BLOCK
  8
0
  2
DXF204
 70
    64
 10
0.0
 20
0.0
 30
0.0
  3
DXF204
  0
LINE
  8
0
  6
CONTINUOUS
 62
     3
 10
220.3428040
 20
-109.5000992
 30
0.0
 11
219.0278015
 21
-108.7408981
 31
0.0
 62
     3
  0
LINE
  8
0
  6
CONTINUOUS
 62
     3
 10
223.8428040
 20
-82.5000000
 30
0.0
 11
223.8428040
 21
-78.5000000
 31
0.0
 62
     3
  0
LINE
  8
0
  6
CONTINUOUS
 62
     3
 10
233.8428040
 20
-82.5000000
 30
0.0
 11
233.8428040
 21
-78.5000000
 31
0.0
 62
     3
  0
LINE
  8
0
  6
CONTINUOUS
 62
     3
 10
238.6576996
 20
-102.5000992
 30
0.0
 11
219.0278015
 21
-102.5000992
 31
0.0
 62
     3
  0
LINE
  8
0
  6
CONTINUOUS
 62
     3
 10
237.3428040
 20
-109.5000992
 30
0.0
 11
220.3428040
 21
-109.5000992
 31
0.0
 62
     3
  0
LINE
  8
0
  6
CONTINUOUS
 62
     3
 10
219.0278015
 20
-108.7408981
 30
0.0
 11
219.0278015
 21
-102.5000992
 31
0.0
 62
     3
  0
LINE
  8
0
  6
CONTINUOUS
 62
     3
 10
238.6576996
 20
-108.7408981
 30
0.0
 11
238.6576996
 21
-102.5000992
 31
0.0
 62
     3
  0
LINE
  8
0
  6
CONTINUOUS
 62
     3
 10
237.3428040
 20
-109.5000992
 30
0.0
 11
238.6576996
 21
-108.7408981
 31
0.0
 62
     3
  0
ARC
  8
0
  6
CONTINUOUS
 62
     3
 10
228.8428040
 20
-94.7776566
 30
0.0
 40
14.7224302
 50
610.5288086
 51
289.4711914
  0
LINE
  8
0
  6
CONTINUOUS
 62
     3
 10
233.7501984
 20
-108.6580963
 30
0.0
 11
233.7501984
 21
-102.5000992
 31
0.0
 62
     3
  0
LINE
  8
0
  6
CONTINUOUS
 62
     3
 10
223.9353027
 20
-108.6580963
 30
0.0
 11
223.9353027
 21
-102.5000992
 31
0.0
 62
     3
  0
ARC
  8
0
  6
CONTINUOUS
 62
     3
 10
237.3428040
 20
-101.4150009
 30
0.0
 40
8.0851116
 50
603.6190186
 51
270.0000000
  0
ARC
  8
0
  6
CONTINUOUS
 62
     3
 10
220.3428040
 20
-101.4150009
 30
0.0
 40
8.0851116
 50
270.0000000
 51
296.3810120
  0
ENDBLK
  0
BLOCK
  8
0
  2
DXF205
 70
    64
 10
0.0
 20
0.0
 30
0.0
  3
DXF205
  0
LINE
  8
0
  6
CONTINUOUS
 62
     3
 10
280.9686890
 20
-109.5000992
 30
0.0
 11
282.2835999
 21
-108.7408981
 31
0.0
 62
     3
  0
LINE
  8
0
  6
CONTINUOUS
 62
     3
 10
277.4686890
 20
-82.5000000
 30
0.0
 11
277.4686890
 21
-78.5000000
 31
0.0
 62
     3
  0
LINE
  8
0
  6
CONTINUOUS
 62
     3
 10
267.4686890
 20
-82.5000000
 30
0.0
 11
267.4686890
 21
-78.5000000
 31
0.0
 62
     3
  0
LINE
  8
0
  6
CONTINUOUS
 62
     3
 10
262.6536865
 20
-102.5000992
 30
0.0
 11
282.2835999
 21
-102.5000992
 31
0.0
 62
     3
  0
LINE
  8
0
  6
CONTINUOUS
 62
     3
 10
263.9686890
 20
-109.5000992
 30
0.0
 11
280.9686890
 21
-109.5000992
 31
0.0
 62
     3
  0
LINE
  8
0
  6
CONTINUOUS
 62
     3
 10
282.2835999
 20
-108.7408981
 30
0.0
 11
282.2835999
 21
-102.5000992
 31
0.0
 62
     3
  0
LINE
  8
0
  6
CONTINUOUS
 62
     3
 10
262.6536865
 20
-108.7408981
 30
0.0
 11
262.6536865
 21
-102.5000992
 31
0.0
 62
     3
  0
LINE
  8
0
  6
CONTINUOUS
 62
     3
 10
263.9686890
 20
-109.5000992
 30
0.0
 11
262.6536865
 21
-108.7408981
 31
0.0
 62
     3
  0
ARC
  8
0
  6
CONTINUOUS
 62
     3
 10
272.4686890
 20
-94.7776566
 30
0.0
 40
14.7224302
 50
250.5287933
 51
289.4711914
  0
LINE
  8
0
  6
CONTINUOUS
 62
     3
 10
267.5611877
 20
-108.6580963
 30
0.0
 11
267.5611877
 21
-102.5000992
 31
0.0
 62
     3
  0
LINE
  8
0
  6
CONTINUOUS
 62
     3
 10
277.3761902
 20
-108.6580963
 30
0.0
 11
277.3761902
 21
-102.5000992
 31
0.0
 62
     3
  0
ARC
  8
0
  6
CONTINUOUS
 62
     3
 10
263.9686890
 20
-101.4150009
 30
0.0
 40
8.0851116
 50
270.0000000
 51
296.3810120
  0
ARC
  8
0
  6
CONTINUOUS
 62
     3
 10
280.9686890
 20
-101.4150009
 30
0.0
 40
8.0851116
 50
243.6190033
 51
270.0000000
  0
ENDBLK
  0
BLOCK
  8
0
  2
DXF206
 70
    64
 10
0.0
 20
0.0
 30
0.0
  3
DXF206
  0
LINE
  8
0
  6
CONTINUOUS
 62
     3
 10
311.8168945
 20
-109.5000992
 30
0.0
 11
313.1318054
 21
-108.7408981
 31
0.0
 62
     3
  0
LINE
  8
0
  6
CONTINUOUS
 62
     3
 10
308.3168945
 20
-82.5000000
 30
0.0
 11
308.3168945
 21
-78.5000000
 31
0.0
 62
     3
  0
LINE
  8
0
  6
CONTINUOUS
 62
     3
 10
298.3168945
 20
-82.5000000
 30
0.0
 11
298.3168945
 21
-78.5000000
 31
0.0
 62
     3
  0
LINE
  8
0
  6
CONTINUOUS
 62
     3
 10
293.5018921
 20
-102.5000992
 30
0.0
 11
313.1318054
 21
-102.5000992
 31
0.0
 62
     3
  0
LINE
  8
0
  6
CONTINUOUS
 62
     3
 10
294.8168945
 20
-109.5000992
 30
0.0
 11
311.8168945
 21
-109.5000992
 31
0.0
 62
     3
  0
LINE
  8
0
  6
CONTINUOUS
 62
     3
 10
313.1318054
 20
-108.7408981
 30
0.0
 11
313.1318054
 21
-102.5000992
 31
0.0
 62
     3
  0
LINE
  8
0
  6
CONTINUOUS
 62
     3
 10
293.5018921
 20
-108.7408981
 30
0.0
 11
293.5018921
 21
-102.5000992
 31
0.0
 62
     3
  0
LINE
  8
0
  6
CONTINUOUS
 62
     3
 10
294.8168945
 20
-109.5000992
 30
0.0
 11
293.5018921
 21
-108.7408981
 31
0.0
 62
     3
  0
ARC
  8
0
  6
CONTINUOUS
 62
     3
 10
303.3168945
 20
-94.7776566
 30
0.0
 40
14.7224302
 50
250.5287933
 51
289.4711914
  0
LINE
  8
0
  6
CONTINUOUS
 62
     3
 10
298.4093933
 20
-108.6580963
 30
0.0
 11
298.4093933
 21
-102.5000992
 31
0.0
 62
     3
  0
LINE
  8
0
  6
CONTINUOUS
 62
     3
 10
308.2243958
 20
-108.6580963
 30
0.0
 11
308.2243958
 21
-102.5000992
 31
0.0
 62
     3
  0
ARC
  8
0
  6
CONTINUOUS
 62
     3
 10
294.8168945
 20
-101.4150009
 30
0.0
 40
8.0851116
 50
270.0000000
 51
296.3810120
  0
ARC
  8
0
  6
CONTINUOUS
 62
     3
 10
311.8168945
 20
-101.4150009
 30
0.0
 40
8.0851116
 50
243.6190033
 51
270.0000000
  0
ENDBLK
  0
BLOCK
  8
0
  2
DXF207
 70
    64
 10
0.0
 20
0.0
 30
0.0
  3
DXF207
  0
LINE
  8
0
  6
CONTINUOUS
 62
     3
 10
189.4945984
 20
-109.5000992
 30
0.0
 11
188.1797028
 21
-108.7408981
 31
0.0
 62
     3
  0
LINE
  8
0
  6
CONTINUOUS
 62
     3
 10
192.9945984
 20
-82.5000000
 30
0.0
 11
192.9945984
 21
-78.5000000
 31
0.0
 62
     3
  0
LINE
  8
0
  6
CONTINUOUS
 62
     3
 10
202.9945984
 20
-82.5000000
 30
0.0
 11
202.9945984
 21
-78.5000000
 31
0.0
 62
     3
  0
LINE
  8
0
  6
CONTINUOUS
 62
     3
 10
207.8096008
 20
-102.5000992
 30
0.0
 11
188.1797028
 21
-102.5000992
 31
0.0
 62
     3
  0
LINE
  8
0
  6
CONTINUOUS
 62
     3
 10
206.4945984
 20
-109.5000992
 30
0.0
 11
189.4945984
 21
-109.5000992
 31
0.0
 62
     3
  0
LINE
  8
0
  6
CONTINUOUS
 62
     3
 10
188.1797028
 20
-108.7408981
 30
0.0
 11
188.1797028
 21
-102.5000992
 31
0.0
 62
     3
  0
LINE
  8
0
  6
CONTINUOUS
 62
     3
 10
207.8096008
 20
-108.7408981
 30
0.0
 11
207.8096008
 21
-102.5000992
 31
0.0
 62
     3
  0
LINE
  8
0
  6
CONTINUOUS
 62
     3
 10
206.4945984
 20
-109.5000992
 30
0.0
 11
207.8096008
 21
-108.7408981
 31
0.0
 62
     3
  0
ARC
  8
0
  6
CONTINUOUS
 62
     3
 10
197.9945984
 20
-94.7776566
 30
0.0
 40
14.7224302
 50
610.5288086
 51
289.4711914
  0
LINE
  8
0
  6
CONTINUOUS
 62
     3
 10
202.9020996
 20
-108.6580963
 30
0.0
 11
202.9020996
 21
-102.5000992
 31
0.0
 62
     3
  0
LINE
  8
0
  6
CONTINUOUS
 62
     3
 10
193.0870972
 20
-108.6580963
 30
0.0
 11
193.0870972
 21
-102.5000992
 31
0.0
 62
     3
  0
ARC
  8
0
  6
CONTINUOUS
 62
     3
 10
206.4945984
 20
-101.4150009
 30
0.0
 40
8.0851116
 50
603.6190186
 51
270.0000000
  0
ARC
  8
0
  6
CONTINUOUS
 62
     3
 10
189.4945984
 20
-101.4150009
 30
0.0
 40
8.0851116
 50
270.0000000
 51
296.3810120
  0
ENDBLK
  0
BLOCK
  8
WORKLAYER
  2
DXF208
 70
    64
 10
0.0
 20
0.0
 30
0.0
  3
DXF208
  0
LINE
  8
WORKLAYER
  6
CONTINUOUS
 62
     4
 10
239.1557007
 20
160.5000000
 30
0.0
 11
246.4286957
 21
160.5000000
 31
0.0
 62
     4
  0
LINE
  8
WORKLAYER
  6
CONTINUOUS
 62
     4
 10
238.6557007
 20
155.5000000
 30
0.0
 11
246.6033020
 21
155.5000000
 31
0.0
 62
     4
  0
LINE
  8
WORKLAYER
  6
CONTINUOUS
 62
     4
 10
238.6557007
 20
155.5000000
 30
0.0
 11
237.6557007
 21
154.5000000
 31
0.0
 62
     4
  0
LINE
  8
WORKLAYER
  6
CONTINUOUS
 62
     4
 10
237.6557007
 20
154.5000000
 30
0.0
 11
237.6557007
 21
151.0000000
 31
0.0
 62
     4
  0
LINE
  8
WORKLAYER
  6
CONTINUOUS
 62
     2
 10
238.4676971
 20
155.5000000
 30
0.0
 11
238.4676971
 21
151.0000000
 31
0.0
 62
     2
  0
LINE
  8
WORKLAYER
  6
CONTINUOUS
 62
     4
 10
239.1557007
 20
160.5000000
 30
0.0
 11
239.1557007
 21
155.5000000
 31
0.0
 62
     4
  0
ENDBLK
  0
BLOCK
  8
WORKLAYER
  2
DXF209
 70
    64
 10
0.0
 20
0.0
 30
0.0
  3
DXF209
  0
LINE
  8
WORKLAYER
  6
CONTINUOUS
 62
     4
 10
233.6557007
 20
149.0000000
 30
0.0
 11
238.4676971
 21
149.0000000
 31
0.0
 62
     4
  0
LINE
  8
WORKLAYER
  6
CONTINUOUS
 62
     4
 10
245.4436035
 20
151.0000000
 30
0.0
 11
233.6557007
 21
151.0000000
 31
0.0
 62
     4
  0
LINE
  8
WORKLAYER
  6
CONTINUOUS
 62
     4
 10
233.6557007
 20
151.0000000
 30
0.0
 11
233.6557007
 21
149.0000000
 31
0.0
 62
     4
  0
ENDBLK
  0
BLOCK
  8
WORKLAYER
  2
DXF210
 70
    64
 10
0.0
 20
0.0
 30
0.0
  3
DXF210
  0
LINE
  8
WORKLAYER
  6
CONTINUOUS
 62
     4
 10
245.6557007
 20
161.5359955
 30
0.0
 11
245.6557007
 21
160.5000000
 31
0.0
 62
     4
  0
LINE
  8
WORKLAYER
  6
CONTINUOUS
 62
     4
 10
246.3076019
 20
163.9687958
 30
0.0
 11
245.6557007
 21
161.5359955
 31
0.0
 62
     4
  0
LINE
  8
WORKLAYER
  6
CONTINUOUS
 62
     2
 10
245.6557007
 20
161.5359955
 30
0.0
 11
246.3925018
 21
161.5359955
 31
0.0
 62
     2
  0
ENDBLK
  0
BLOCK
  8
0
  2
DXF211
 70
    64
 10
0.0
 20
0.0
 30
0.0
  3
DXF211
  0
LINE
  8
0
  6
CONTINUOUS
 62
     3
 10
8.4932728
 20
177.5843964
 30
0.0
 11
9.8071766
 21
176.8258057
 31
0.0
 62
     3
  0
LINE
  8
0
  6
CONTINUOUS
 62
     3
 10
-8.4933300
 20
170.3977051
 30
0.0
 11
8.4932728
 21
170.3977051
 31
0.0
 62
     3
  0
LINE
  8
0
  6
CONTINUOUS
 62
     3
 10
-8.4933300
 20
177.5843964
 30
0.0
 11
8.4932728
 21
177.5843964
 31
0.0
 62
     3
  0
LINE
  8
0
  6
CONTINUOUS
 62
     3
 10
9.8071766
 20
176.8258057
 30
0.0
 11
9.8071766
 21
171.1562958
 31
0.0
 62
     3
  0
LINE
  8
0
  6
CONTINUOUS
 62
     3
 10
-9.8073254
 20
176.8258057
 30
0.0
 11
-9.8073254
 21
171.1562958
 31
0.0
 62
     3
  0
LINE
  8
0
  6
CONTINUOUS
 62
     3
 10
-8.4934216
 20
177.5843964
 30
0.0
 11
-9.8073254
 21
176.8258057
 31
0.0
 62
     3
  0
ARC
  8
0
  6
CONTINUOUS
 62
     3
 10
-0.0000129
 20
162.8735046
 30
0.0
 40
14.7108898
 50
70.5288086
 51
109.4711990
  0
LINE
  8
0
  6
CONTINUOUS
 62
     3
 10
-4.9037299
 20
176.7431030
 30
0.0
 11
-4.9037299
 21
171.2389984
 31
0.0
 62
     3
  0
LINE
  8
0
  6
CONTINUOUS
 62
     3
 10
4.9035821
 20
176.7431030
 30
0.0
 11
4.9035821
 21
171.2389984
 31
0.0
 62
     3
  0
ARC
  8
0
  6
CONTINUOUS
 62
     3
 10
-8.4933300
 20
169.5056000
 30
0.0
 40
8.0787697
 50
63.6189919
 51
90.0000000
  0
ARC
  8
0
  6
CONTINUOUS
 62
     3
 10
8.4932728
 20
169.5056000
 30
0.0
 40
8.0787697
 50
90.0000000
 51
116.3809967
  0
LINE
  8
0
  6
CONTINUOUS
 62
     3
 10
8.4932728
 20
170.3977051
 30
0.0
 11
9.8071766
 21
171.1562958
 31
0.0
 62
     3
  0
LINE
  8
0
  6
CONTINUOUS
 62
     3
 10
-8.4933300
 20
177.5843964
 30
0.0
 11
8.4932728
 21
177.5843964
 31
0.0
 62
     3
  0
LINE
  8
0
  6
CONTINUOUS
 62
     3
 10
-8.4934216
 20
170.3977051
 30
0.0
 11
-9.8073254
 21
171.1562958
 31
0.0
 62
     3
  0
ARC
  8
0
  6
CONTINUOUS
 62
     3
 10
-0.0000129
 20
185.1085968
 30
0.0
 40
14.7108898
 50
250.5287933
 51
289.4711914
  0
ARC
  8
0
  6
CONTINUOUS
 62
     3
 10
-8.4933300
 20
178.4763947
 30
0.0
 40
8.0787697
 50
270.0000000
 51
296.3810120
  0
ARC
  8
0
  6
CONTINUOUS
 62
     3
 10
8.4932728
 20
178.4763947
 30
0.0
 40
8.0787697
 50
243.6190033
 51
270.0000000
  0
ENDBLK
  0
BLOCK
  8
VIEW
  2
DXF212
 70
    64
 10
0.0
 20
0.0
 30
0.0
  3
DXF212
  0
LINE
  8
VIEW
  6
CONTINUOUS
 62
     4
 10
-1.2373960
 20
262.0374146
 30
0.0
 11
1.2373960
 21
259.5625916
 31
0.0
 62
     4
  0
LINE
  8
VIEW
  6
CONTINUOUS
 62
     4
 10
-1.2373960
 20
259.5625916
 30
0.0
 11
1.2373960
 21
262.0374146
 31
0.0
 62
     4
  0
CIRCLE
  8
VIEW
  6
CONTINUOUS
 62
     4
 10
0.0000000
 20
260.7999878
 30
0.0
 40
2.7500000
  0
ENDBLK
  0
BLOCK
  8
VIEW
  2
DXF213
 70
    64
 10
0.0
 20
0.0
 30
0.0
  3
DXF213
  0
LINE
  8
VIEW
  6
CONTINUOUS
 62
     4
 10
-1.2373960
 20
241.0626068
 30
0.0
 11
1.2373960
 21
243.5373993
 31
0.0
 62
     4
  0
LINE
  8
VIEW
  6
CONTINUOUS
 62
     4
 10
-1.2373960
 20
243.5373993
 30
0.0
 11
1.2373960
 21
241.0626068
 31
0.0
 62
     4
  0
CIRCLE
  8
VIEW
  6
CONTINUOUS
 62
     4
 10
0.0000000
 20
242.3000031
 30
0.0
 40
2.7500000
  0
ENDBLK
  0
BLOCK
  8
VIEW
  2
DXF215
 70
    64
 10
0.0
 20
0.0
 30
0.0
  3
DXF215
  0
ARC
  8
VIEW
  6
CONTINUOUS
 62
     2
 10
0.0000000
 20
356.2999878
 30
0.0
 40
24.0000000
 50
75.0000000
 51
105.0000000
  0
LINE
  8
VIEW
  6
CONTINUOUS
 62
     2
 10
7.7644958
 20
385.2778015
 30
0.0
 11
6.2116089
 21
379.4822083
 31
0.0
 62
     2
  0
LINE
  8
VIEW
  6
CONTINUOUS
 62
     2
 10
-6.2117000
 20
379.4822083
 30
0.0
 11
-7.7646179
 21
385.2778015
 31
0.0
 62
     2
  0
ARC
  8
VIEW
  6
CONTINUOUS
 62
     2
 10
0.0000000
 20
356.2999878
 30
0.0
 40
30.0000000
 50
75.0000000
 51
105.0000000
  0
ENDBLK
  0
BLOCK
  8
VIEW
  2
DXF216
 70
    64
 10
0.0
 20
0.0
 30
0.0
  3
DXF216
  0
ARC
  8
VIEW
  6
CONTINUOUS
 62
     4
 10
-54.4847984
 20
282.5000000
 30
0.0
 40
1.3000000
 50
90.0000000
 51
163.5496063
  0
LINE
  8
VIEW
  6
CONTINUOUS
 62
     4
 10
-53.5000000
 20
283.7999878
 30
0.0
 11
-54.4847984
 21
283.7999878
 31
0.0
 62
     4
  0
LINE
  8
VIEW
  6
CONTINUOUS
 62
     4
 10
-53.5000000
 20
276.7999878
 30
0.0
 11
-54.4732094
 21
276.7999878
 31
0.0
 62
     4
  0
ARC
  8
VIEW
  6
CONTINUOUS
 62
     4
 10
-47.1000099
 20
280.3194885
 30
0.0
 40
9.0000000
 50
180.0000000
 51
196.7528076
  0
ARC
  8
VIEW
  6
CONTINUOUS
 62
     4
 10
-47.1000099
 20
280.3194885
 30
0.0
 40
9.0000000
 50
163.5496063
 51
180.0000000
  0
ARC
  8
VIEW
  6
CONTINUOUS
 62
     4
 10
-54.4732094
 20
278.1000061
 30
0.0
 40
1.3000000
 50
196.7528076
 51
270.0000000
  0
ENDBLK
  0
BLOCK
  8
0
  2
DXF217
 70
    64
 10
0.0
 20
0.0
 30
0.0
  3
DXF217
  0
LINE
  8
0
  6
CONTINUOUS
 62
     4
 10
-58.0000000
 20
285.0000000
 30
0.0
 11
-57.3811989
 21
284.6427002
 31
0.0
 62
     4
  0
LINE
  8
0
  6
CONTINUOUS
 62
     4
 10
-59.5000000
 20
257.7999878
 30
0.0
 11
-59.5000000
 21
255.3999939
 31
0.0
 62
     4
  0
LINE
  8
0
  6
CONTINUOUS
 62
     4
 10
-64.5000000
 20
257.7999878
 30
0.0
 11
-64.5000000
 21
255.3999939
 31
0.0
 62
     4
  0
LINE
  8
0
  6
CONTINUOUS
 62
     4
 10
-64.5000000
 20
255.3999939
 30
0.0
 11
-63.6000099
 21
254.5000000
 31
0.0
 62
     4
  0
LINE
  8
0
  6
CONTINUOUS
 62
     4
 10
-66.6187973
 20
281.5000000
 30
0.0
 11
-57.3811989
 21
281.5000000
 31
0.0
 62
     4
  0
LINE
  8
0
  6
CONTINUOUS
 62
     4
 10
-63.6000099
 20
254.5000000
 30
0.0
 11
-60.4000092
 21
254.5000000
 31
0.0
 62
     4
  0
LINE
  8
0
  6
CONTINUOUS
 62
     4
 10
-60.4000092
 20
254.5000000
 30
0.0
 11
-59.5000000
 21
255.3999939
 31
0.0
 62
     4
  0
LINE
  8
0
  6
CONTINUOUS
 62
     4
 10
-66.0000000
 20
285.0000000
 30
0.0
 11
-58.0000000
 21
285.0000000
 31
0.0
 62
     4
  0
LINE
  8
0
  6
CONTINUOUS
 62
     4
 10
-57.3811989
 20
284.6427002
 30
0.0
 11
-57.3811989
 21
281.5000000
 31
0.0
 62
     4
  0
LINE
  8
0
  6
CONTINUOUS
 62
     4
 10
-66.6187973
 20
284.6427002
 30
0.0
 11
-66.6187973
 21
281.5000000
 31
0.0
 62
     4
  0
LINE
  8
0
  6
CONTINUOUS
 62
     4
 10
-66.0000000
 20
285.0000000
 30
0.0
 11
-66.6187973
 21
284.6427002
 31
0.0
 62
     4
  0
ARC
  8
0
  6
CONTINUOUS
 62
     4
 10
-59.6907005
 20
278.0718079
 30
0.0
 40
6.9282041
 50
90.0000000
 51
109.4711990
  0
LINE
  8
0
  6
CONTINUOUS
 62
     4
 10
-62.0000000
 20
284.6037903
 30
0.0
 11
-62.0000000
 21
281.5000000
 31
0.0
 62
     4
  0
LINE
  8
0
  6
CONTINUOUS
 62
     4
 10
-63.6000099
 20
257.7999878
 30
0.0
 11
-63.6000099
 21
254.5000000
 31
0.0
 62
     4
  0
LINE
  8
0
  6
CONTINUOUS
 62
     4
 10
-60.4000092
 20
257.7999878
 30
0.0
 11
-60.4000092
 21
254.5000000
 31
0.0
 62
     4
  0
LINE
  8
0
  6
CONTINUOUS
 62
     4
 10
-64.5000000
 20
255.3999939
 30
0.0
 11
-59.5000000
 21
255.3999939
 31
0.0
 62
     4
  0
ARC
  8
0
  6
CONTINUOUS
 62
     4
 10
-64.3093109
 20
278.0718079
 30
0.0
 40
6.9282041
 50
70.5288086
 51
90.0000000
  0
ENDBLK
  0
BLOCK
  8
VIEW
  2
DXF218
 70
    64
 10
0.0
 20
0.0
 30
0.0
  3
DXF218
  0
LINE
  8
VIEW
  6
CONTINUOUS
 62
     2
 10
-32.5000000
 20
300.7999878
 30
0.0
 11
-25.1667194
 21
300.7999878
 31
0.0
 62
     2
  0
LINE
  8
VIEW
  6
CONTINUOUS
 62
     2
 10
-29.0000000
 20
298.2999878
 30
0.0
 11
-28.1667194
 21
296.7921143
 31
0.0
 62
     2
  0
LINE
  8
VIEW
  6
CONTINUOUS
 62
     2
 10
-27.3333092
 20
298.2999878
 30
0.0
 11
-25.3333092
 21
298.2999878
 31
0.0
 62
     2
  0
LINE
  8
VIEW
  6
CONTINUOUS
 62
     2
 10
-28.1667194
 20
296.7921143
 30
0.0
 11
-27.3333092
 21
298.2999878
 31
0.0
 62
     2
  0
LINE
  8
VIEW
  6
CONTINUOUS
 62
     2
 10
-31.0000000
 20
298.2999878
 30
0.0
 11
-29.0000000
 21
298.2999878
 31
0.0
 62
     2
  0
LINE
  8
VIEW
  6
CONTINUOUS
 62
     2
 10
-23.8333092
 20
290.7999878
 30
0.0
 11
-23.8333092
 21
299.4667053
 31
0.0
 62
     2
  0
LINE
  8
VIEW
  6
CONTINUOUS
 62
     2
 10
-23.8333092
 20
290.7999878
 30
0.0
 11
-31.1667194
 21
290.7999878
 31
0.0
 62
     2
  0
LINE
  8
VIEW
  6
CONTINUOUS
 62
     2
 10
-32.5000000
 20
300.7999878
 30
0.0
 11
-32.5000000
 21
292.1333008
 31
0.0
 62
     2
  0
LINE
  8
VIEW
  6
CONTINUOUS
 62
     2
 10
-31.0000000
 20
298.7999878
 30
0.0
 11
-25.3333092
 21
298.7999878
 31
0.0
 62
     2
  0
LINE
  8
VIEW
  6
CONTINUOUS
 62
     2
 10
-25.3333092
 20
298.7999878
 30
0.0
 11
-25.3333092
 21
299.7999878
 31
0.0
 62
     2
  0
LINE
  8
VIEW
  6
CONTINUOUS
 62
     2
 10
-25.3333092
 20
299.7999878
 30
0.0
 11
-31.0000000
 21
299.7999878
 31
0.0
 62
     2
  0
LINE
  8
VIEW
  6
CONTINUOUS
 62
     2
 10
-31.0000000
 20
299.7999878
 30
0.0
 11
-31.0000000
 21
298.7999878
 31
0.0
 62
     2
  0
LINE
  8
VIEW
  6
CONTINUOUS
 62
     2
 10
-31.0000000
 20
291.7999878
 30
0.0
 11
-25.3333092
 21
291.7999878
 31
0.0
 62
     2
  0
LINE
  8
VIEW
  6
CONTINUOUS
 62
     2
 10
-25.3333092
 20
291.7999878
 30
0.0
 11
-25.3333092
 21
292.7999878
 31
0.0
 62
     2
  0
LINE
  8
VIEW
  6
CONTINUOUS
 62
     2
 10
-25.3333092
 20
292.7999878
 30
0.0
 11
-31.0000000
 21
292.7999878
 31
0.0
 62
     2
  0
LINE
  8
VIEW
  6
CONTINUOUS
 62
     2
 10
-31.0000000
 20
292.7999878
 30
0.0
 11
-31.0000000
 21
291.7999878
 31
0.0
 62
     2
  0
LINE
  8
VIEW
  6
CONTINUOUS
 62
     2
 10
-29.2500000
 20
295.1333008
 30
0.0
 11
-29.2500000
 21
293.1333008
 31
0.0
 62
     2
  0
LINE
  8
VIEW
  6
CONTINUOUS
 62
     2
 10
-27.0833092
 20
295.1333008
 30
0.0
 11
-27.0833092
 21
293.1333008
 31
0.0
 62
     2
  0
LINE
  8
VIEW
  6
CONTINUOUS
 62
     2
 10
-29.2500000
 20
293.1333008
 30
0.0
 11
-27.0833092
 21
293.1333008
 31
0.0
 62
     2
  0
LINE
  8
VIEW
  6
CONTINUOUS
 62
     2
 10
-31.0000000
 20
298.2999878
 30
0.0
 11
-29.2500000
 21
295.1333008
 31
0.0
 62
     2
  0
LINE
  8
VIEW
  6
CONTINUOUS
 62
     2
 10
-27.0833092
 20
295.1333008
 30
0.0
 11
-25.3333092
 21
298.2999878
 31
0.0
 62
     2
  0
ARC
  8
VIEW
  6
CONTINUOUS
 62
     2
 10
-31.1667194
 20
292.1333008
 30
0.0
 40
1.3333330
 50
180.0000000
 51
270.0000000
  0
ARC
  8
VIEW
  6
CONTINUOUS
 62
     2
 10
-25.1667194
 20
299.4667053
 30
0.0
 40
1.3333330
 50
0.0000000
 51
90.0000000
  0
ENDBLK
  0
BLOCK
  8
0
  2
DXF219
 70
    64
 10
0.0
 20
0.0
 30
0.0
  3
DXF219
  0
LINE
  8
0
  6
CONTINUOUS
 62
     4
 10
57.9999084
 20
257.7999878
 30
0.0
 11
57.3810997
 21
258.1571960
 31
0.0
 62
     4
  0
LINE
  8
0
  6
CONTINUOUS
 62
     4
 10
65.9999084
 20
257.7999878
 30
0.0
 11
57.9999084
 21
257.7999878
 31
0.0
 62
     4
  0
LINE
  8
0
  6
CONTINUOUS
 62
     4
 10
65.9999084
 20
257.7999878
 30
0.0
 11
66.6186829
 21
258.1571960
 31
0.0
 62
     4
  0
LINE
  8
0
  6
CONTINUOUS
 62
     4
 10
57.9999084
 20
261.7999878
 30
0.0
 11
57.3810997
 21
261.4428101
 31
0.0
 62
     4
  0
LINE
  8
0
  6
CONTINUOUS
 62
     4
 10
65.9999084
 20
261.7999878
 30
0.0
 11
57.9999084
 21
261.7999878
 31
0.0
 62
     4
  0
LINE
  8
0
  6
CONTINUOUS
 62
     4
 10
57.3810997
 20
261.4428101
 30
0.0
 11
57.3810997
 21
258.1571960
 31
0.0
 62
     4
  0
LINE
  8
0
  6
CONTINUOUS
 62
     4
 10
66.6186829
 20
261.4428101
 30
0.0
 11
66.6186829
 21
258.1571960
 31
0.0
 62
     4
  0
LINE
  8
0
  6
CONTINUOUS
 62
     4
 10
65.9999084
 20
261.7999878
 30
0.0
 11
66.6186829
 21
261.4428101
 31
0.0
 62
     4
  0
ARC
  8
0
  6
CONTINUOUS
 62
     4
 10
64.3093033
 20
254.8717957
 30
0.0
 40
6.9282041
 50
90.0000000
 51
109.4711990
  0
LINE
  8
0
  6
CONTINUOUS
 62
     4
 10
61.9999084
 20
261.4038086
 30
0.0
 11
61.9999084
 21
258.1962891
 31
0.0
 62
     4
  0
ARC
  8
0
  6
CONTINUOUS
 62
     4
 10
59.6904907
 20
254.8717957
 30
0.0
 40
6.9282041
 50
70.5288086
 51
90.0000000
  0
ARC
  8
0
  6
CONTINUOUS
 62
     4
 10
59.6904907
 20
264.7282104
 30
0.0
 40
6.9282041
 50
270.0000000
 51
289.4711914
  0
ARC
  8
0
  6
CONTINUOUS
 62
     4
 10
64.3093033
 20
264.7282104
 30
0.0
 40
6.9282041
 50
250.5287933
 51
270.0000000
  0
ENDBLK
  0
BLOCK
  8
VIEW
  2
DXF220
 70
    64
 10
0.0
 20
0.0
 30
0.0
  3
DXF220
  0
LINE
  8
VIEW
  6
CONTINUOUS
 62
     4
 10
51.0000000
 20
406.2999878
 30
0.0
 11
-51.0000000
 21
406.2999878
 31
0.0
 62
     4
  0
LINE
  8
VIEW
  6
CONTINUOUS
 62
     4
 10
-52.5000000
 20
404.7999878
 30
0.0
 11
-52.5000000
 21
265.2999878
 31
0.0
 62
     4
  0
LINE
  8
VIEW
  6
CONTINUOUS
 62
     4
 10
52.5000000
 20
265.2999878
 30
0.0
 11
52.5000000
 21
404.7999878
 31
0.0
 62
     4
  0
LINE
  8
VIEW
  6
CONTINUOUS
 62
     4
 10
53.5000000
 20
405.2999878
 30
0.0
 11
53.5000000
 21
265.2999878
 31
0.0
 62
     4
  0
LINE
  8
VIEW
  6
CONTINUOUS
 62
     4
 10
-53.5000000
 20
405.2999878
 30
0.0
 11
-53.5000000
 21
265.2999878
 31
0.0
 62
     4
  0
LINE
  8
VIEW
  6
CONTINUOUS
 62
     4
 10
-52.5000000
 20
405.2999878
 30
0.0
 11
-52.5000000
 21
404.7999878
 31
0.0
 62
     4
  0
LINE
  8
VIEW
  6
CONTINUOUS
 62
     4
 10
-52.5000000
 20
405.2999878
 30
0.0
 11
-53.5000000
 21
405.2999878
 31
0.0
 62
     4
  0
LINE
  8
VIEW
  6
CONTINUOUS
 62
     4
 10
52.5000000
 20
405.2999878
 30
0.0
 11
52.5000000
 21
404.7999878
 31
0.0
 62
     4
  0
LINE
  8
VIEW
  6
CONTINUOUS
 62
     4
 10
52.5000000
 20
405.2999878
 30
0.0
 11
53.5000000
 21
405.2999878
 31
0.0
 62
     4
  0
ARC
  8
VIEW
  6
CONTINUOUS
 62
     4
 10
-51.0000000
 20
404.7999878
 30
0.0
 40
1.5000000
 50
90.0000000
 51
180.0000000
  0
ARC
  8
VIEW
  6
CONTINUOUS
 62
     4
 10
51.0000000
 20
404.7999878
 30
0.0
 40
1.5000000
 50
0.0000000
 51
90.0000000
  0
LINE
  8
VIEW
  6
CONTINUOUS
 62
     4
 10
-52.5000000
 20
265.2999878
 30
0.0
 11
52.5000000
 21
265.2999878
 31
0.0
 62
     4
  0
ENDBLK
  0
BLOCK
  8
VIEW
  2
DXF221
 70
    64
 10
0.0
 20
0.0
 30
0.0
  3
DXF221
  0
LINE
  8
VIEW
  6
CONTINUOUS
 62
     2
 10
-10.0000000
 20
303.2999878
 30
0.0
 11
-10.0000000
 21
307.2999878
 31
0.0
 62
     2
  0
LINE
  8
VIEW
  6
CONTINUOUS
 62
     2
 10
-10.0000000
 20
307.2999878
 30
0.0
 11
20.0000000
 21
307.2999878
 31
0.0
 62
     2
  0
LINE
  8
VIEW
  6
CONTINUOUS
 62
     2
 10
20.0000000
 20
303.2999878
 30
0.0
 11
-10.0000000
 21
303.2999878
 31
0.0
 62
     2
  0
LINE
  8
VIEW
  6
CONTINUOUS
 62
     2
 10
20.0000000
 20
307.2999878
 30
0.0
 11
20.0000000
 21
303.2999878
 31
0.0
 62
     2
  0
ENDBLK
  0
BLOCK
  8
VIEW
  2
DXF223
 70
    64
 10
0.0
 20
0.0
 30
0.0
  3
DXF223
  0
LINE
  8
VIEW
  6
CONTINUOUS
 62
     2
 10
17.7416992
 20
340.1373901
 30
0.0
 11
22.4282799
 21
336.3760071
 31
0.0
 62
     2
  0
LINE
  8
VIEW
  6
CONTINUOUS
 62
     2
 10
24.3060894
 20
338.7156067
 30
0.0
 11
19.6195107
 21
342.4769897
 31
0.0
 62
     2
  0
ARC
  8
VIEW
  6
CONTINUOUS
 62
     2
 10
0.0000000
 20
356.2999878
 30
0.0
 40
30.0000000
 50
318.3840027
 51
324.1159973
  0
ARC
  8
VIEW
  6
CONTINUOUS
 62
     2
 10
0.0000000
 20
356.2999878
 30
0.0
 40
24.0000000
 50
317.6666870
 51
324.8333130
  0
ENDBLK
  0
BLOCK
  8
0
  2
DXF224
 70
    64
 10
0.0
 20
0.0
 30
0.0
  3
DXF224
  0
LINE
  8
0
  6
CONTINUOUS
 62
     4
 10
57.9999084
 20
285.0000000
 30
0.0
 11
57.3810997
 21
284.6427002
 31
0.0
 62
     4
  0
LINE
  8
0
  6
CONTINUOUS
 62
     4
 10
59.4999084
 20
257.7999878
 30
0.0
 11
59.4999084
 21
255.3999939
 31
0.0
 62
     4
  0
LINE
  8
0
  6
CONTINUOUS
 62
     4
 10
64.4999084
 20
257.7999878
 30
0.0
 11
64.4999084
 21
255.3999939
 31
0.0
 62
     4
  0
LINE
  8
0
  6
CONTINUOUS
 62
     4
 10
64.4999084
 20
255.3999939
 30
0.0
 11
63.5998802
 21
254.5000000
 31
0.0
 62
     4
  0
LINE
  8
0
  6
CONTINUOUS
 62
     4
 10
66.6186829
 20
281.5000000
 30
0.0
 11
57.3810997
 21
281.5000000
 31
0.0
 62
     4
  0
LINE
  8
0
  6
CONTINUOUS
 62
     4
 10
63.5998802
 20
254.5000000
 30
0.0
 11
60.3998985
 21
254.5000000
 31
0.0
 62
     4
  0
LINE
  8
0
  6
CONTINUOUS
 62
     4
 10
60.3998985
 20
254.5000000
 30
0.0
 11
59.4999084
 21
255.3999939
 31
0.0
 62
     4
  0
LINE
  8
0
  6
CONTINUOUS
 62
     4
 10
65.9999084
 20
285.0000000
 30
0.0
 11
57.9999084
 21
285.0000000
 31
0.0
 62
     4
  0
LINE
  8
0
  6
CONTINUOUS
 62
     4
 10
57.3810997
 20
284.6427002
 30
0.0
 11
57.3810997
 21
281.5000000
 31
0.0
 62
     4
  0
LINE
  8
0
  6
CONTINUOUS
 62
     4
 10
66.6186829
 20
284.6427002
 30
0.0
 11
66.6186829
 21
281.5000000
 31
0.0
 62
     4
  0
LINE
  8
0
  6
CONTINUOUS
 62
     4
 10
65.9999084
 20
285.0000000
 30
0.0
 11
66.6186829
 21
284.6427002
 31
0.0
 62
     4
  0
ARC
  8
0
  6
CONTINUOUS
 62
     4
 10
59.6905785
 20
278.0718079
 30
0.0
 40
6.9282041
 50
70.5288086
 51
90.0000000
  0
LINE
  8
0
  6
CONTINUOUS
 62
     4
 10
61.9999084
 20
284.6037903
 30
0.0
 11
61.9999084
 21
281.5000000
 31
0.0
 62
     4
  0
LINE
  8
0
  6
CONTINUOUS
 62
     4
 10
63.5998802
 20
257.7999878
 30
0.0
 11
63.5998802
 21
254.5000000
 31
0.0
 62
     4
  0
LINE
  8
0
  6
CONTINUOUS
 62
     4
 10
60.3998985
 20
257.7999878
 30
0.0
 11
60.3998985
 21
254.5000000
 31
0.0
 62
     4
  0
LINE
  8
0
  6
CONTINUOUS
 62
     4
 10
64.4999084
 20
255.3999939
 30
0.0
 11
59.4999084
 21
255.3999939
 31
0.0
 62
     4
  0
ARC
  8
0
  6
CONTINUOUS
 62
     4
 10
64.3091965
 20
278.0718079
 30
0.0
 40
6.9282041
 50
90.0000000
 51
109.4711990
  0
ENDBLK
  0
BLOCK
  8
VIEW
  2
DXF226
 70
    64
 10
0.0
 20
0.0
 30
0.0
  3
DXF226
  0
LINE
  8
VIEW
  6
CONTINUOUS
 62
     2
 10
-35.5000000
 20
286.7999878
 30
0.0
 11
35.5000000
 21
286.7999878
 31
0.0
 62
     2
  0
ARC
  8
VIEW
  6
CONTINUOUS
 62
     2
 10
-32.5000000
 20
283.7999878
 30
0.0
 40
3.0000000
 50
180.0000000
 51
270.0000000
  0
LINE
  8
VIEW
  6
CONTINUOUS
 62
     2
 10
-35.5000000
 20
286.7999878
 30
0.0
 11
-35.5000000
 21
283.7999878
 31
0.0
 62
     2
  0
LINE
  8
VIEW
  6
CONTINUOUS
 62
     2
 10
-32.5000000
 20
280.7999878
 30
0.0
 11
32.5000000
 21
280.7999878
 31
0.0
 62
     2
  0
LINE
  8
VIEW
  6
CONTINUOUS
 62
     2
 10
35.5000000
 20
283.7999878
 30
0.0
 11
35.5000000
 21
286.7999878
 31
0.0
 62
     2
  0
ARC
  8
VIEW
  6
CONTINUOUS
 62
     2
 10
32.5000000
 20
283.7999878
 30
0.0
 40
3.0000000
 50
270.0000000
 51
0.0000000
  0
CIRCLE
  8
VIEW
  6
CONTINUOUS
 62
     2
 10
-32.5000000
 20
283.7999878
 30
0.0
 40
2.0000000
  0
CIRCLE
  8
VIEW
  6
CONTINUOUS
 62
     2
 10
32.5000000
 20
283.7999878
 30
0.0
 40
2.0000000
  0
ENDBLK
  0
BLOCK
  8
VIEW
  2
DXF228
 70
    64
 10
0.0
 20
0.0
 30
0.0
  3
DXF228
  0
LINE
  8
VIEW
  6
CONTINUOUS
 62
     2
 10
19.6195107
 20
370.1229858
 30
0.0
 11
24.3060894
 21
373.8843994
 31
0.0
 62
     2
  0
LINE
  8
VIEW
  6
CONTINUOUS
 62
     2
 10
22.4282799
 20
376.2239990
 30
0.0
 11
17.7416992
 21
372.4625854
 31
0.0
 62
     2
  0
ARC
  8
VIEW
  6
CONTINUOUS
 62
     2
 10
0.0000000
 20
356.2999878
 30
0.0
 40
30.0000000
 50
35.8840103
 51
41.6159897
  0
ARC
  8
VIEW
  6
CONTINUOUS
 62
     2
 10
0.0000000
 20
356.2999878
 30
0.0
 40
24.0000000
 50
35.1666794
 51
42.3333206
  0
ENDBLK
  0
BLOCK
  8
VIEW
  2
DXF230
 70
    64
 10
0.0
 20
0.0
 30
0.0
  3
DXF230
  0
LINE
  8
VIEW
  6
CONTINUOUS
 62
     4
 10
-21.0000000
 20
214.8000031
 30
0.0
 11
-21.0000000
 21
230.8000031
 31
0.0
 62
     4
  0
LINE
  8
VIEW
  6
CONTINUOUS
 62
     4
 10
-6.2764888
 20
229.8000031
 30
0.0
 11
-6.2764888
 21
214.8000031
 31
0.0
 62
     4
  0
LINE
  8
VIEW
  6
CONTINUOUS
 62
     4
 10
21.0000000
 20
230.8000031
 30
0.0
 11
21.0000000
 21
214.8000031
 31
0.0
 62
     4
  0
LINE
  8
VIEW
  6
CONTINUOUS
 62
     4
 10
21.0000000
 20
214.8000031
 30
0.0
 11
6.2764888
 21
214.8000031
 31
0.0
 62
     4
  0
LINE
  8
VIEW
  6
CONTINUOUS
 62
     4
 10
-6.2764888
 20
214.8000031
 30
0.0
 11
-14.6202097
 21
214.8000031
 31
0.0
 62
     4
  0
LINE
  8
VIEW
  6
CONTINUOUS
 62
     4
 10
6.2764888
 20
229.8000031
 30
0.0
 11
6.2764888
 21
214.8000031
 31
0.0
 62
     4
  0
LINE
  8
VIEW
  6
CONTINUOUS
 62
     4
 10
6.2764888
 20
214.8000031
 30
0.0
 11
-6.2764888
 21
214.8000031
 31
0.0
 62
     4
  0
LINE
  8
VIEW
  6
CONTINUOUS
 62
     4
 10
-14.6202097
 20
229.8000031
 30
0.0
 11
-14.6202097
 21
214.8000031
 31
0.0
 62
     4
  0
LINE
  8
VIEW
  6
CONTINUOUS
 62
     4
 10
-14.6202097
 20
214.8000031
 30
0.0
 11
-21.0000000
 21
214.8000031
 31
0.0
 62
     4
  0
LINE
  8
VIEW
  6
CONTINUOUS
 62
     4
 10
14.6202097
 20
214.8000031
 30
0.0
 11
14.6202097
 21
229.8000031
 31
0.0
 62
     4
  0
ENDBLK
  0
BLOCK
  8
VIEW
  2
DXF231
 70
    64
 10
0.0
 20
0.0
 30
0.0
  3
DXF231
  0
LINE
  8
VIEW
  6
CONTINUOUS
 62
     2
 10
-1.4848940
 20
357.7849121
 30
0.0
 11
1.4848940
 21
354.8150940
 31
0.0
 62
     2
  0
LINE
  8
VIEW
  6
CONTINUOUS
 62
     2
 10
-1.4848940
 20
354.8150940
 30
0.0
 11
1.4848940
 21
357.7849121
 31
0.0
 62
     2
  0
LINE
  8
VIEW
  6
CONTINUOUS
 62
     2
 10
7.7644958
 20
327.3222046
 30
0.0
 11
6.2116089
 21
333.1177979
 31
0.0
 62
     2
  0
LINE
  8
VIEW
  6
CONTINUOUS
 62
     2
 10
-6.2117000
 20
333.1177979
 30
0.0
 11
-7.7646179
 21
327.3222046
 31
0.0
 62
     2
  0
LINE
  8
VIEW
  6
CONTINUOUS
 62
     2
 10
-2.6000061
 20
331.2999878
 30
0.0
 11
2.6000061
 21
331.2999878
 31
0.0
 62
     2
  0
LINE
  8
VIEW
  6
CONTINUOUS
 62
     2
 10
-5.4624019
 20
355.6581116
 30
0.0
 11
-2.6000061
 21
331.2999878
 31
0.0
 62
     2
  0
LINE
  8
VIEW
  6
CONTINUOUS
 62
     2
 10
2.6000061
 20
331.2999878
 30
0.0
 11
5.4624019
 21
355.6581116
 31
0.0
 62
     2
  0
ARC
  8
VIEW
  6
CONTINUOUS
 62
     2
 10
0.0000000
 20
356.2999878
 30
0.0
 40
24.0000000
 50
276.5456848
 51
285.0000000
  0
ARC
  8
VIEW
  6
CONTINUOUS
 62
     2
 10
0.0000000
 20
356.2999878
 30
0.0
 40
30.0000000
 50
255.0000000
 51
285.0000000
  0
ARC
  8
VIEW
  6
CONTINUOUS
 62
     2
 10
0.0000000
 20
356.2999878
 30
0.0
 40
24.0000000
 50
255.0000000
 51
263.4543152
  0
ARC
  8
VIEW
  6
CONTINUOUS
 62
     2
 10
0.0000000
 20
356.2999878
 30
0.0
 40
5.5000000
 50
353.2976990
 51
186.7023010
  0
CIRCLE
  8
VIEW
  6
CONTINUOUS
 62
     2
 10
0.0000000
 20
356.2999878
 30
0.0
 40
4.1500001
  0
ENDBLK
  0
BLOCK
  8
WORKLAYER
  2
DXF232
 70
    64
 10
0.0
 20
0.0
 30
0.0
  3
DXF232
  0
LINE
  8
WORKLAYER
  6
CONTINUOUS
 62
     2
 10
20.0000000
 20
290.7999878
 30
0.0
 11
-20.0000000
 21
290.7999878
 31
0.0
 62
     2
  0
LINE
  8
WORKLAYER
  6
CONTINUOUS
 62
     2
 10
-20.0000000
 20
290.7999878
 30
0.0
 11
-20.0000000
 21
293.9765015
 31
0.0
 62
     2
  0
LINE
  8
WORKLAYER
  6
CONTINUOUS
 62
     2
 10
-20.0000000
 20
293.9765015
 30
0.0
 11
20.0000000
 21
293.9765015
 31
0.0
 62
     2
  0
LINE
  8
WORKLAYER
  6
CONTINUOUS
 62
     2
 10
20.0000000
 20
293.9765015
 30
0.0
 11
20.0000000
 21
290.7999878
 31
0.0
 62
     2
  0
ENDBLK
  0
BLOCK
  8
VIEW
  2
DXF233
 70
    64
 10
0.0
 20
0.0
 30
0.0
  3
DXF233
  0
LINE
  8
VIEW
  6
CONTINUOUS
 62
     4
 10
-53.5000000
 20
271.2999878
 30
0.0
 11
-70.5000000
 21
271.2999878
 31
0.0
 62
     4
  0
LINE
  8
VIEW
  6
CONTINUOUS
 62
     4
 10
-53.4190102
 20
261.7999878
 30
0.0
 11
-70.5000000
 21
261.7999878
 31
0.0
 62
     4
  0
LINE
  8
VIEW
  6
CONTINUOUS
 62
     4
 10
70.5000000
 20
261.7999878
 30
0.0
 11
53.4190102
 21
261.7999878
 31
0.0
 62
     4
  0
LINE
  8
VIEW
  6
CONTINUOUS
 62
     4
 10
71.5000000
 20
270.2999878
 30
0.0
 11
71.5000000
 21
262.7999878
 31
0.0
 62
     4
  0
LINE
  8
VIEW
  6
CONTINUOUS
 62
     4
 10
53.5000000
 20
271.2999878
 30
0.0
 11
70.5000000
 21
271.2999878
 31
0.0
 62
     4
  0
LINE
  8
VIEW
  6
CONTINUOUS
 62
     4
 10
-71.5000000
 20
270.2999878
 30
0.0
 11
-71.5000000
 21
262.7999878
 31
0.0
 62
     4
  0
ARC
  8
VIEW
  6
CONTINUOUS
 62
     4
 10
70.5000000
 20
262.7999878
 30
0.0
 40
1.0000000
 50
270.0000000
 51
0.0000000
  0
ARC
  8
VIEW
  6
CONTINUOUS
 62
     4
 10
70.5000000
 20
270.2999878
 30
0.0
 40
1.0000000
 50
0.0000000
 51
90.0000000
  0
ARC
  8
VIEW
  6
CONTINUOUS
 62
     4
 10
-70.5000000
 20
262.7999878
 30
0.0
 40
1.0000000
 50
180.0000000
 51
270.0000000
  0
ARC
  8
VIEW
  6
CONTINUOUS
 62
     4
 10
-70.5000000
 20
270.2999878
 30
0.0
 40
1.0000000
 50
90.0000000
 51
180.0000000
  0
LINE
  8
VIEW
  6
CONTINUOUS
 62
     4
 10
52.0000000
 20
264.2557983
 30
0.0
 11
53.4399109
 21
264.2557983
 31
0.0
 62
     4
  0
LINE
  8
VIEW
  6
CONTINUOUS
 62
     4
 10
-53.4399109
 20
264.2557983
 30
0.0
 11
-52.0000000
 21
264.2557983
 31
0.0
 62
     4
  0
LINE
  8
VIEW
  6
CONTINUOUS
 62
     4
 10
52.0000000
 20
265.2999878
 30
0.0
 11
52.0000000
 21
264.2557983
 31
0.0
 62
     4
  0
LINE
  8
VIEW
  6
CONTINUOUS
 62
     4
 10
-52.0000000
 20
265.2999878
 30
0.0
 11
-52.0000000
 21
264.2557983
 31
0.0
 62
     4
  0
LINE
  8
VIEW
  6
CONTINUOUS
 62
     4
 10
-53.4489098
 20
265.2999878
 30
0.0
 11
-52.5000000
 21
154.0000000
 31
0.0
 62
     4
  0
LINE
  8
VIEW
  6
CONTINUOUS
 62
     4
 10
53.4487915
 20
265.2999878
 30
0.0
 11
52.5000000
 21
154.0000000
 31
0.0
 62
     4
  0
LINE
  8
VIEW
  6
CONTINUOUS
 62
     4
 10
-24.0000000
 20
230.8000031
 30
0.0
 11
-33.9209900
 21
230.8000031
 31
0.0
 62
     4
  0
LINE
  8
VIEW
  6
CONTINUOUS
 62
     4
 10
52.5000000
 20
154.0000000
 30
0.0
 11
39.5000000
 21
154.0000000
 31
0.0
 62
     4
  0
LINE
  8
VIEW
  6
CONTINUOUS
 62
     4
 10
-39.5000000
 20
154.0000000
 30
0.0
 11
-52.5000000
 21
154.0000000
 31
0.0
 62
     4
  0
LINE
  8
VIEW
  6
CONTINUOUS
 62
     4
 10
36.9191895
 20
227.9046936
 30
0.0
 11
39.5000000
 21
154.0000000
 31
0.0
 62
     4
  0
LINE
  8
VIEW
  6
CONTINUOUS
 62
     4
 10
-39.5000000
 20
154.0000000
 30
0.0
 11
-36.9191895
 21
227.9046936
 31
0.0
 62
     4
  0
ARC
  8
VIEW
  6
CONTINUOUS
 62
     4
 10
-33.9209900
 20
227.8000031
 30
0.0
 40
3.0000000
 50
90.0000000
 51
178.0000000
  0
ARC
  8
VIEW
  6
CONTINUOUS
 62
     4
 10
33.9209900
 20
227.8000031
 30
0.0
 40
3.0000000
 50
2.0000000
 51
90.0000000
  0
LINE
  8
VIEW
  6
CONTINUOUS
 62
     4
 10
33.9209900
 20
230.8000031
 30
0.0
 11
24.0000000
 21
230.8000031
 31
0.0
 62
     4
  0
ENDBLK
  0
BLOCK
  8
VIEW
  2
DXF234
 70
    64
 10
0.0
 20
0.0
 30
0.0
  3
DXF234
  0
LINE
  8
VIEW
  6
CONTINUOUS
 62
     2
 10
-22.4284096
 20
376.2239990
 30
0.0
 11
-17.7417908
 21
372.4625854
 31
0.0
 62
     2
  0
LINE
  8
VIEW
  6
CONTINUOUS
 62
     2
 10
-19.6195107
 20
370.1229858
 30
0.0
 11
-24.3062096
 21
373.8843994
 31
0.0
 62
     2
  0
ARC
  8
VIEW
  6
CONTINUOUS
 62
     2
 10
0.0000000
 20
356.2999878
 30
0.0
 40
24.0000000
 50
137.6667023
 51
144.8332977
  0
ARC
  8
VIEW
  6
CONTINUOUS
 62
     2
 10
0.0000000
 20
356.2999878
 30
0.0
 40
30.0000000
 50
138.3840027
 51
144.1159973
  0
ENDBLK
  0
BLOCK
  8
VIEW
  2
DXF235
 70
    64
 10
0.0
 20
0.0
 30
0.0
  3
DXF235
  0
LINE
  8
VIEW
  6
CONTINUOUS
 62
     2
 10
32.5000000
 20
391.7999878
 30
0.0
 11
-32.5000000
 21
391.7999878
 31
0.0
 62
     2
  0
LINE
  8
VIEW
  6
CONTINUOUS
 62
     2
 10
35.5000000
 20
318.2999878
 30
0.0
 11
35.5000000
 21
388.7999878
 31
0.0
 62
     2
  0
LINE
  8
VIEW
  6
CONTINUOUS
 62
     2
 10
-35.5000000
 20
318.2999878
 30
0.0
 11
35.5000000
 21
318.2999878
 31
0.0
 62
     2
  0
LINE
  8
VIEW
  6
CONTINUOUS
 62
     2
 10
-35.5000000
 20
388.7999878
 30
0.0
 11
-35.5000000
 21
318.2999878
 31
0.0
 62
     2
  0
ARC
  8
VIEW
  6
CONTINUOUS
 62
     2
 10
32.5000000
 20
388.7999878
 30
0.0
 40
3.0000000
 50
0.0000000
 51
90.0000000
  0
ARC
  8
VIEW
  6
CONTINUOUS
 62
     2
 10
-32.5000000
 20
388.7999878
 30
0.0
 40
3.0000000
 50
90.0000000
 51
180.0000000
  0
CIRCLE
  8
VIEW
  6
CONTINUOUS
 62
     2
 10
32.5000000
 20
388.7999878
 30
0.0
 40
2.0000000
  0
CIRCLE
  8
VIEW
  6
CONTINUOUS
 62
     2
 10
-32.5000000
 20
388.7999878
 30
0.0
 40
2.0000000
  0
ENDBLK
  0
BLOCK
  8
0
  2
DXF236
 70
    64
 10
0.0
 20
0.0
 30
0.0
  3
DXF236
  0
LINE
  8
0
  6
CONTINUOUS
 62
     4
 10
-58.0000000
 20
257.7999878
 30
0.0
 11
-57.3811989
 21
258.1571960
 31
0.0
 62
     4
  0
LINE
  8
0
  6
CONTINUOUS
 62
     4
 10
-66.0000000
 20
257.7999878
 30
0.0
 11
-58.0000000
 21
257.7999878
 31
0.0
 62
     4
  0
LINE
  8
0
  6
CONTINUOUS
 62
     4
 10
-66.0000000
 20
257.7999878
 30
0.0
 11
-66.6187973
 21
258.1571960
 31
0.0
 62
     4
  0
LINE
  8
0
  6
CONTINUOUS
 62
     4
 10
-58.0000000
 20
261.7999878
 30
0.0
 11
-57.3811989
 21
261.4428101
 31
0.0
 62
     4
  0
LINE
  8
0
  6
CONTINUOUS
 62
     4
 10
-66.0000000
 20
261.7999878
 30
0.0
 11
-58.0000000
 21
261.7999878
 31
0.0
 62
     4
  0
LINE
  8
0
  6
CONTINUOUS
 62
     4
 10
-57.3811989
 20
261.4428101
 30
0.0
 11
-57.3811989
 21
258.1571960
 31
0.0
 62
     4
  0
LINE
  8
0
  6
CONTINUOUS
 62
     4
 10
-66.6187973
 20
261.4428101
 30
0.0
 11
-66.6187973
 21
258.1571960
 31
0.0
 62
     4
  0
LINE
  8
0
  6
CONTINUOUS
 62
     4
 10
-66.0000000
 20
261.7999878
 30
0.0
 11
-66.6187973
 21
261.4428101
 31
0.0
 62
     4
  0
ARC
  8
0
  6
CONTINUOUS
 62
     4
 10
-64.3093109
 20
254.8717957
 30
0.0
 40
6.9282041
 50
70.5288086
 51
90.0000000
  0
LINE
  8
0
  6
CONTINUOUS
 62
     4
 10
-62.0000000
 20
261.4038086
 30
0.0
 11
-62.0000000
 21
258.1962891
 31
0.0
 62
     4
  0
ARC
  8
0
  6
CONTINUOUS
 62
     4
 10
-59.6906013
 20
254.8717957
 30
0.0
 40
6.9282041
 50
90.0000000
 51
109.4711990
  0
ARC
  8
0
  6
CONTINUOUS
 62
     4
 10
-59.6906013
 20
264.7282104
 30
0.0
 40
6.9282041
 50
250.5287933
 51
270.0000000
  0
ARC
  8
0
  6
CONTINUOUS
 62
     4
 10
-64.3093109
 20
264.7282104
 30
0.0
 40
6.9282041
 50
270.0000000
 51
289.4711914
  0
ENDBLK
  0
BLOCK
  8
VIEW
  2
DXF237
 70
    64
 10
0.0
 20
0.0
 30
0.0
  3
DXF237
  0
LINE
  8
VIEW
  6
CONTINUOUS
 62
     4
 10
-24.0000000
 20
265.2999878
 30
0.0
 11
-24.0000000
 21
230.8000031
 31
0.0
 62
     4
  0
LINE
  8
VIEW
  6
CONTINUOUS
 62
     4
 10
2.0000000
 20
231.3000031
 30
0.0
 11
2.0000000
 21
232.3999939
 31
0.0
 62
     4
  0
LINE
  8
VIEW
  6
CONTINUOUS
 62
     4
 10
2.0000000
 20
232.3999939
 30
0.0
 11
2.0000000
 21
234.8000031
 31
0.0
 62
     4
  0
LINE
  8
VIEW
  6
CONTINUOUS
 62
     4
 10
-3.5000000
 20
237.8000031
 30
0.0
 11
3.5000000
 21
237.8000031
 31
0.0
 62
     4
  0
LINE
  8
VIEW
  6
CONTINUOUS
 62
     4
 10
3.5000000
 20
237.8000031
 30
0.0
 11
3.5000000
 21
265.2999878
 31
0.0
 62
     4
  0
LINE
  8
VIEW
  6
CONTINUOUS
 62
     4
 10
-2.0000000
 20
232.3999939
 30
0.0
 11
2.0000000
 21
232.3999939
 31
0.0
 62
     4
  0
LINE
  8
VIEW
  6
CONTINUOUS
 62
     4
 10
24.0000000
 20
265.2999878
 30
0.0
 11
24.0000000
 21
230.8000031
 31
0.0
 62
     4
  0
LINE
  8
VIEW
  6
CONTINUOUS
 62
     4
 10
3.7999880
 20
265.2999878
 30
0.0
 11
3.7999880
 21
230.8000031
 31
0.0
 62
     4
  0
ARC
  8
VIEW
  6
CONTINUOUS
 62
     4
 10
0.0000000
 20
234.8000031
 30
0.0
 40
2.0000000
 50
0.0000000
 51
90.0000000
  0
LINE
  8
VIEW
  6
CONTINUOUS
 62
     4
 10
-3.8000181
 20
231.3000031
 30
0.0
 11
-2.0000000
 21
231.3000031
 31
0.0
 62
     4
  0
LINE
  8
VIEW
  6
CONTINUOUS
 62
     4
 10
-2.0000000
 20
232.3999939
 30
0.0
 11
-2.0000000
 21
234.8000031
 31
0.0
 62
     4
  0
LINE
  8
VIEW
  6
CONTINUOUS
 62
     4
 10
-2.0000000
 20
231.3000031
 30
0.0
 11
-2.0000000
 21
232.3999939
 31
0.0
 62
     4
  0
LINE
  8
VIEW
  6
CONTINUOUS
 62
     4
 10
2.0000000
 20
231.3000031
 30
0.0
 11
3.7999880
 21
231.3000031
 31
0.0
 62
     4
  0
LINE
  8
VIEW
  6
CONTINUOUS
 62
     4
 10
-3.5000000
 20
265.2999878
 30
0.0
 11
-3.5000000
 21
237.8000031
 31
0.0
 62
     4
  0
LINE
  8
VIEW
  6
CONTINUOUS
 62
     4
 10
24.0000000
 20
230.8000031
 30
0.0
 11
3.7999880
 21
230.8000031
 31
0.0
 62
     4
  0
LINE
  8
VIEW
  6
CONTINUOUS
 62
     4
 10
-24.0000000
 20
230.8000031
 30
0.0
 11
-3.8000181
 21
230.8000031
 31
0.0
 62
     4
  0
LINE
  8
VIEW
  6
CONTINUOUS
 62
     4
 10
-3.8000181
 20
265.2999878
 30
0.0
 11
-3.8000181
 21
230.8000031
 31
0.0
 62
     4
  0
ARC
  8
VIEW
  6
CONTINUOUS
 62
     4
 10
0.0000000
 20
234.8000031
 30
0.0
 40
2.0000000
 50
90.0000000
 51
180.0000000
  0
LINE
  8
VIEW
  6
CONTINUOUS
 62
     4
 10
19.0000000
 20
230.8000031
 30
0.0
 11
19.0000000
 21
229.8000031
 31
0.0
 62
     4
  0
LINE
  8
VIEW
  6
CONTINUOUS
 62
     4
 10
18.7500000
 20
230.8000031
 30
0.0
 11
18.7500000
 21
229.8000031
 31
0.0
 62
     4
  0
LINE
  8
VIEW
  6
CONTINUOUS
 62
     4
 10
-19.0000000
 20
229.8000031
 30
0.0
 11
-19.0000000
 21
230.8000031
 31
0.0
 62
     4
  0
LINE
  8
VIEW
  6
CONTINUOUS
 62
     4
 10
19.0000000
 20
229.8000031
 30
0.0
 11
6.2764888
 21
229.8000031
 31
0.0
 62
     4
  0
LINE
  8
VIEW
  6
CONTINUOUS
 62
     4
 10
-14.6202097
 20
229.8000031
 30
0.0
 11
-19.0000000
 21
229.8000031
 31
0.0
 62
     4
  0
LINE
  8
VIEW
  6
CONTINUOUS
 62
     4
 10
18.7500000
 20
229.8000031
 30
0.0
 11
-18.7500000
 21
229.8000031
 31
0.0
 62
     4
  0
LINE
  8
VIEW
  6
CONTINUOUS
 62
     4
 10
-18.7500000
 20
229.8000031
 30
0.0
 11
-18.7500000
 21
230.8000031
 31
0.0
 62
     4
  0
ENDBLK
  0
BLOCK
  8
VIEW
  2
DXF238
 70
    64
 10
0.0
 20
0.0
 30
0.0
  3
DXF238
  0
LINE
  8
VIEW
  6
CONTINUOUS
 62
     4
 10
32.5000000
 20
393.7999878
 30
0.0
 11
-32.5000000
 21
393.7999878
 31
0.0
 62
     4
  0
LINE
  8
VIEW
  6
CONTINUOUS
 62
     4
 10
-37.5000000
 20
388.7999878
 30
0.0
 11
-37.5000000
 21
283.7999878
 31
0.0
 62
     4
  0
LINE
  8
VIEW
  6
CONTINUOUS
 62
     4
 10
37.5000000
 20
283.7999878
 30
0.0
 11
37.5000000
 21
388.7999878
 31
0.0
 62
     4
  0
LINE
  8
VIEW
  6
CONTINUOUS
 62
     4
 10
-32.5000000
 20
278.7999878
 30
0.0
 11
32.5000000
 21
278.7999878
 31
0.0
 62
     4
  0
ARC
  8
VIEW
  6
CONTINUOUS
 62
     4
 10
32.5000000
 20
388.7999878
 30
0.0
 40
5.0000000
 50
0.0000000
 51
90.0000000
  0
ARC
  8
VIEW
  6
CONTINUOUS
 62
     4
 10
32.5000000
 20
283.7999878
 30
0.0
 40
5.0000000
 50
270.0000000
 51
0.0000000
  0
ARC
  8
VIEW
  6
CONTINUOUS
 62
     4
 10
-32.5000000
 20
283.7999878
 30
0.0
 40
5.0000000
 50
180.0000000
 51
270.0000000
  0
ARC
  8
VIEW
  6
CONTINUOUS
 62
     4
 10
-32.5000000
 20
388.7999878
 30
0.0
 40
5.0000000
 50
90.0000000
 51
180.0000000
  0
ENDBLK
  0
BLOCK
  8
VIEW
  2
DXF239
 70
    64
 10
0.0
 20
0.0
 30
0.0
  3
DXF239
  0
LINE
  8
VIEW
  6
CONTINUOUS
 62
     2
 10
23.9529991
 20
354.7999878
 30
0.0
 11
29.9624004
 21
354.7999878
 31
0.0
 62
     2
  0
LINE
  8
VIEW
  6
CONTINUOUS
 62
     2
 10
29.9624004
 20
357.7999878
 30
0.0
 11
23.9529991
 21
357.7999878
 31
0.0
 62
     2
  0
ARC
  8
VIEW
  6
CONTINUOUS
 62
     2
 10
0.0000000
 20
356.2999878
 30
0.0
 40
30.0000000
 50
357.1340027
 51
2.8659840
  0
ARC
  8
VIEW
  6
CONTINUOUS
 62
     2
 10
0.0000000
 20
356.2999878
 30
0.0
 40
24.0000000
 50
356.4166870
 51
3.5833220
  0
ENDBLK
  0
BLOCK
  8
VIEW
  2
DXF241
 70
    64
 10
0.0
 20
0.0
 30
0.0
  3
DXF241
  0
LINE
  8
VIEW
  6
CONTINUOUS
 62
     2
 10
-24.3062096
 20
338.7156067
 30
0.0
 11
-19.6195107
 21
342.4769897
 31
0.0
 62
     2
  0
LINE
  8
VIEW
  6
CONTINUOUS
 62
     2
 10
-17.7417908
 20
340.1373901
 30
0.0
 11
-22.4284096
 21
336.3760071
 31
0.0
 62
     2
  0
ARC
  8
VIEW
  6
CONTINUOUS
 62
     2
 10
0.0000000
 20
356.2999878
 30
0.0
 40
30.0000000
 50
215.8840027
 51
221.6159973
  0
ARC
  8
VIEW
  6
CONTINUOUS
 62
     2
 10
0.0000000
 20
356.2999878
 30
0.0
 40
24.0000000
 50
215.1667023
 51
222.3332977
  0
ENDBLK
  0
BLOCK
  8
VIEW
  2
DXF242
 70
    64
 10
0.0
 20
0.0
 30
0.0
  3
DXF242
  0
ARC
  8
VIEW
  6
CONTINUOUS
 62
     4
 10
0.0000000
 20
222.8000031
 30
0.0
 40
5.0000000
 50
9.2068958
 51
170.7931061
  0
LINE
  8
VIEW
  6
CONTINUOUS
 62
     4
 10
-5.0000000
 20
223.6000061
 30
0.0
 11
-4.9356079
 21
223.6000061
 31
0.0
 62
     4
  0
LINE
  8
VIEW
  6
CONTINUOUS
 62
     4
 10
0.0000000
 20
228.5735016
 30
0.0
 11
-5.0000000
 21
225.6867065
 31
0.0
 62
     4
  0
LINE
  8
VIEW
  6
CONTINUOUS
 62
     4
 10
-5.0000000
 20
225.6867065
 30
0.0
 11
-5.0000000
 21
223.6000061
 31
0.0
 62
     4
  0
LINE
  8
VIEW
  6
CONTINUOUS
 62
     4
 10
5.0000000
 20
219.9132996
 30
0.0
 11
5.0000000
 21
222.0000000
 31
0.0
 62
     4
  0
LINE
  8
VIEW
  6
CONTINUOUS
 62
     4
 10
5.0000000
 20
225.6867065
 30
0.0
 11
0.0000000
 21
228.5735016
 31
0.0
 62
     4
  0
LINE
  8
VIEW
  6
CONTINUOUS
 62
     4
 10
0.0000000
 20
217.0265045
 30
0.0
 11
5.0000000
 21
219.9132996
 31
0.0
 62
     4
  0
LINE
  8
VIEW
  6
CONTINUOUS
 62
     4
 10
-5.0000000
 20
223.6000061
 30
0.0
 11
-5.0000000
 21
222.0000000
 31
0.0
 62
     4
  0
LINE
  8
VIEW
  6
CONTINUOUS
 62
     4
 10
-4.9356079
 20
223.6000061
 30
0.0
 11
4.9356079
 21
223.6000061
 31
0.0
 62
     4
  0
LINE
  8
VIEW
  6
CONTINUOUS
 62
     4
 10
5.0000000
 20
223.6000061
 30
0.0
 11
5.0000000
 21
225.6867065
 31
0.0
 62
     4
  0
LINE
  8
VIEW
  6
CONTINUOUS
 62
     4
 10
4.9356079
 20
222.0000000
 30
0.0
 11
-4.9356079
 21
222.0000000
 31
0.0
 62
     4
  0
LINE
  8
VIEW
  6
CONTINUOUS
 62
     4
 10
-4.9356079
 20
222.0000000
 30
0.0
 11
-5.0000000
 21
222.0000000
 31
0.0
 62
     4
  0
LINE
  8
VIEW
  6
CONTINUOUS
 62
     4
 10
-5.0000000
 20
222.0000000
 30
0.0
 11
-5.0000000
 21
219.9132996
 31
0.0
 62
     4
  0
LINE
  8
VIEW
  6
CONTINUOUS
 62
     4
 10
0.0000000
 20
217.0265045
 30
0.0
 11
-5.0000000
 21
219.9132996
 31
0.0
 62
     4
  0
ARC
  8
VIEW
  6
CONTINUOUS
 62
     4
 10
0.0000000
 20
222.8000031
 30
0.0
 40
5.0000000
 50
189.2068939
 51
350.7930908
  0
LINE
  8
VIEW
  6
CONTINUOUS
 62
     4
 10
5.0000000
 20
222.0000000
 30
0.0
 11
5.0000000
 21
223.6000061
 31
0.0
 62
     4
  0
ENDBLK
  0
BLOCK
  8
VIEW
  2
DXF243
 70
    64
 10
0.0
 20
0.0
 30
0.0
  3
DXF243
  0
LINE
  8
VIEW
  6
CONTINUOUS
 62
     4
 10
53.5000000
 20
283.7999878
 30
0.0
 11
54.4730797
 21
283.7999878
 31
0.0
 62
     4
  0
ARC
  8
VIEW
  6
CONTINUOUS
 62
     4
 10
47.1000099
 20
280.2804871
 30
0.0
 40
9.0000000
 50
0.0000000
 51
16.7528191
  0
LINE
  8
VIEW
  6
CONTINUOUS
 62
     4
 10
53.5000000
 20
276.7999878
 30
0.0
 11
54.4847984
 21
276.7999878
 31
0.0
 62
     4
  0
ARC
  8
VIEW
  6
CONTINUOUS
 62
     4
 10
47.1000099
 20
280.2804871
 30
0.0
 40
9.0000000
 50
343.5495911
 51
0.0000000
  0
ARC
  8
VIEW
  6
CONTINUOUS
 62
     4
 10
54.4730797
 20
282.5000000
 30
0.0
 40
1.3000000
 50
16.7528191
 51
90.0000000
  0
ARC
  8
VIEW
  6
CONTINUOUS
 62
     4
 10
54.4847984
 20
278.1000061
 30
0.0
 40
1.3000000
 50
270.0000000
 51
343.5495911
  0
ENDBLK
  0
BLOCK
  8
VIEW
  2
DXF244
 70
    64
 10
0.0
 20
0.0
 30
0.0
  3
DXF244
  0
LINE
  8
VIEW
  6
CONTINUOUS
 62
     2
 10
-29.9624901
 20
357.7999878
 30
0.0
 11
-23.9530907
 21
357.7999878
 31
0.0
 62
     2
  0
LINE
  8
VIEW
  6
CONTINUOUS
 62
     2
 10
-23.9530907
 20
354.7999878
 30
0.0
 11
-29.9624901
 21
354.7999878
 31
0.0
 62
     2
  0
ARC
  8
VIEW
  6
CONTINUOUS
 62
     2
 10
0.0000000
 20
356.2999878
 30
0.0
 40
30.0000000
 50
177.1340027
 51
182.8659973
  0
ARC
  8
VIEW
  6
CONTINUOUS
 62
     2
 10
0.0000000
 20
356.2999878
 30
0.0
 40
24.0000000
 50
176.4167023
 51
183.5832977
  0
ENDBLK
  0
BLOCK
  8
VIEW
  2
DXF245
 70
    64
 10
0.0
 20
0.0
 30
0.0
  3
DXF245
  0
LINE
  8
VIEW
  6
CONTINUOUS
 62
     4
 10
-26.6224098
 20
117.0000000
 30
0.0
 11
-26.6224098
 21
128.0104980
 31
0.0
 62
     4
  0
LINE
  8
VIEW
  6
CONTINUOUS
 62
     4
 10
26.6222801
 20
128.0104980
 30
0.0
 11
26.6222801
 21
117.0000000
 31
0.0
 62
     4
  0
LINE
  8
VIEW
  6
CONTINUOUS
 62
     4
 10
26.6222801
 20
117.0000000
 30
0.0
 11
17.0000000
 21
117.0000000
 31
0.0
 62
     4
  0
LINE
  8
VIEW
  6
CONTINUOUS
 62
     4
 10
-26.6224098
 20
117.0000000
 30
0.0
 11
-17.0000000
 21
117.0000000
 31
0.0
 62
     4
  0
LINE
  8
VIEW
  6
CONTINUOUS
 62
     4
 10
17.0000000
 20
137.0000000
 30
0.0
 11
17.0000000
 21
117.0000000
 31
0.0
 62
     4
  0
LINE
  8
VIEW
  6
CONTINUOUS
 62
     4
 10
-17.0000000
 20
137.0000000
 30
0.0
 11
-17.0000000
 21
117.0000000
 31
0.0
 62
     4
  0
LINE
  8
VIEW
  6
CONTINUOUS
 62
     4
 10
-22.0000000
 20
142.0000000
 30
0.0
 11
-52.5000000
 21
142.0000000
 31
0.0
 62
     4
  0
LINE
  8
VIEW
  6
CONTINUOUS
 62
     4
 10
-23.0576191
 20
124.3952026
 30
0.0
 11
-35.4884911
 21
141.4521027
 31
0.0
 62
     4
  0
LINE
  8
VIEW
  6
CONTINUOUS
 62
     4
 10
-23.4519997
 20
124.0923004
 30
0.0
 11
-37.4982910
 21
141.4521027
 31
0.0
 62
     4
  0
LINE
  8
VIEW
  6
CONTINUOUS
 62
     4
 10
-22.7695904
 20
141.2303925
 30
0.0
 11
-22.7695904
 21
124.3952026
 31
0.0
 62
     4
  0
LINE
  8
VIEW
  6
CONTINUOUS
 62
     4
 10
-52.5000000
 20
154.0000000
 30
0.0
 11
52.5000000
 21
154.0000000
 31
0.0
 62
     4
  0
LINE
  8
VIEW
  6
CONTINUOUS
 62
     4
 10
-38.2200012
 20
145.0000000
 30
0.0
 11
38.2200012
 21
145.0000000
 31
0.0
 62
     4
  0
LINE
  8
VIEW
  6
CONTINUOUS
 62
     4
 10
-39.4663086
 20
153.0348969
 30
0.0
 11
-39.2193909
 21
145.9651031
 31
0.0
 62
     4
  0
LINE
  8
VIEW
  6
CONTINUOUS
 62
     4
 10
-52.5000000
 20
142.0000000
 30
0.0
 11
-52.5000000
 21
154.0000000
 31
0.0
 62
     4
  0
ARC
  8
VIEW
  6
CONTINUOUS
 62
     4
 10
-38.6465111
 20
140.5229950
 30
0.0
 40
1.4769900
 50
38.9773407
 51
90.0000000
  0
ARC
  8
VIEW
  6
CONTINUOUS
 62
     4
 10
-22.0000000
 20
141.2303925
 30
0.0
 40
0.7695855
 50
90.0000000
 51
180.0000000
  0
ARC
  8
VIEW
  6
CONTINUOUS
 62
     4
 10
-40.4656982
 20
153.0000000
 30
0.0
 40
1.0000000
 50
2.0000000
 51
90.0000000
  0
ARC
  8
VIEW
  6
CONTINUOUS
 62
     4
 10
-38.2200012
 20
146.0000000
 30
0.0
 40
1.0000000
 50
182.0000000
 51
270.0000000
  0
ARC
  8
VIEW
  6
CONTINUOUS
 62
     4
 10
-22.0000000
 20
137.0000000
 30
0.0
 40
5.0000000
 50
0.0000000
 51
90.0000000
  0
LINE
  8
VIEW
  6
CONTINUOUS
 62
     4
 10
37.4982910
 20
141.4521027
 30
0.0
 11
23.4519997
 21
124.0923004
 31
0.0
 62
     4
  0
LINE
  8
VIEW
  6
CONTINUOUS
 62
     4
 10
35.4883995
 20
141.4521027
 30
0.0
 11
23.0575905
 21
124.3952026
 31
0.0
 62
     4
  0
LINE
  8
VIEW
  6
CONTINUOUS
 62
     4
 10
22.7695007
 20
124.3952026
 30
0.0
 11
22.7695007
 21
141.2303925
 31
0.0
 62
     4
  0
LINE
  8
VIEW
  6
CONTINUOUS
 62
     4
 10
22.0000000
 20
142.0000000
 30
0.0
 11
52.5000000
 21
142.0000000
 31
0.0
 62
     4
  0
LINE
  8
VIEW
  6
CONTINUOUS
 62
     4
 10
39.2193909
 20
145.9651031
 30
0.0
 11
39.4663086
 21
153.0348969
 31
0.0
 62
     4
  0
LINE
  8
VIEW
  6
CONTINUOUS
 62
     4
 10
52.5000000
 20
154.0000000
 30
0.0
 11
52.5000000
 21
142.0000000
 31
0.0
 62
     4
  0
ARC
  8
VIEW
  6
CONTINUOUS
 62
     4
 10
38.6464806
 20
140.5229950
 30
0.0
 40
1.4769900
 50
90.0000000
 51
141.0227051
  0
ARC
  8
VIEW
  6
CONTINUOUS
 62
     4
 10
22.0000000
 20
141.2303925
 30
0.0
 40
0.7695855
 50
0.0000000
 51
90.0000000
  0
ARC
  8
VIEW
  6
CONTINUOUS
 62
     4
 10
38.2200012
 20
146.0000000
 30
0.0
 40
1.0000000
 50
270.0000000
 51
358.0000000
  0
ARC
  8
VIEW
  6
CONTINUOUS
 62
     4
 10
22.0000000
 20
137.0000000
 30
0.0
 40
5.0000000
 50
90.0000000
 51
180.0000000
  0
LINE
  8
VIEW
  6
CONTINUOUS
 62
     4
 10
23.2586098
 20
124.0000000
 30
0.0
 11
23.1647892
 21
124.0000000
 31
0.0
 62
     4
  0
LINE
  8
VIEW
  6
CONTINUOUS
 62
     4
 10
-23.1647892
 20
124.0000000
 30
0.0
 11
-23.2586994
 21
124.0000000
 31
0.0
 62
     4
  0
ARC
  8
VIEW
  6
CONTINUOUS
 62
     4
 10
23.1647892
 20
124.3952026
 30
0.0
 40
0.3952397
 50
180.0000000
 51
270.0000000
  0
ARC
  8
VIEW
  6
CONTINUOUS
 62
     4
 10
23.2586098
 20
124.2487030
 30
0.0
 40
0.2487391
 50
270.0000000
 51
321.0226135
  0
ARC
  8
VIEW
  6
CONTINUOUS
 62
     4
 10
-23.2586994
 20
124.2487030
 30
0.0
 40
0.2487391
 50
218.9772949
 51
270.0000000
  0
ARC
  8
VIEW
  6
CONTINUOUS
 62
     4
 10
-23.1647892
 20
124.3952026
 30
0.0
 40
0.3952397
 50
270.0000000
 51
0.0000000
  0
ARC
  8
VIEW
  6
CONTINUOUS
 62
     4
 10
40.4656982
 20
153.0000000
 30
0.0
 40
1.0000000
 50
90.0000000
 51
178.0000000
  0
ENDBLK
  0
BLOCK
  8
VIEW
  2
DXF246
 70
    64
 10
0.0
 20
0.0
 30
0.0
  3
DXF246
  0
ARC
  8
VIEW
  6
CONTINUOUS
 62
     4
 10
-6.1929021
 20
214.4945068
 30
0.0
 40
3.0000000
 50
303.6702881
 51
5.6514821
  0
LINE
  8
VIEW
  6
CONTINUOUS
 62
     4
 10
-12.1928997
 20
203.4882965
 30
0.0
 11
-12.1928997
 21
204.6441040
 31
0.0
 62
     4
  0
LINE
  8
VIEW
  6
CONTINUOUS
 62
     4
 10
-8.5473022
 20
205.4851074
 30
0.0
 11
-2.7554929
 21
209.3433990
 31
0.0
 62
     4
  0
LINE
  8
VIEW
  6
CONTINUOUS
 62
     4
 10
-10.3214102
 20
208.1394958
 30
0.0
 11
-4.5296941
 21
211.9978027
 31
0.0
 62
     4
  0
LINE
  8
VIEW
  6
CONTINUOUS
 62
     4
 10
-8.9928894
 20
204.6528931
 30
0.0
 11
-8.9928894
 21
203.4882965
 31
0.0
 62
     4
  0
LINE
  8
VIEW
  6
CONTINUOUS
 62
     4
 10
-7.9928889
 20
202.4882965
 30
0.0
 11
-4.3500061
 21
202.4882965
 31
0.0
 62
     4
  0
LINE
  8
VIEW
  6
CONTINUOUS
 62
     4
 10
-7.9928889
 20
199.2882996
 30
0.0
 11
-4.3500061
 21
199.2882996
 31
0.0
 62
     4
  0
ARC
  8
VIEW
  6
CONTINUOUS
 62
     4
 10
-7.9928889
 20
203.4882965
 30
0.0
 40
1.0000000
 50
180.0000000
 51
270.0000000
  0
ARC
  8
VIEW
  6
CONTINUOUS
 62
     4
 10
-7.9928889
 20
204.6528931
 30
0.0
 40
1.0000000
 50
123.6703033
 51
180.0000000
  0
ARC
  8
VIEW
  6
CONTINUOUS
 62
     4
 10
-6.1929021
 20
214.5032959
 30
0.0
 40
6.1999998
 50
303.6702881
 51
2.7428570
  0
ARC
  8
VIEW
  6
CONTINUOUS
 62
     4
 10
-7.9928889
 20
203.4882965
 30
0.0
 40
4.1999998
 50
180.0000000
 51
270.0000000
  0
ARC
  8
VIEW
  6
CONTINUOUS
 62
     4
 10
-7.9928889
 20
204.6441040
 30
0.0
 40
4.1999998
 50
123.6703033
 51
180.0000000
  0
ENDBLK
  0
BLOCK
  8
VIEW
  2
DXF247
 70
    64
 10
0.0
 20
0.0
 30
0.0
  3
DXF247
  0
ARC
  8
VIEW
  6
CONTINUOUS
 62
     4
 10
6.1939998
 20
214.5182037
 30
0.0
 40
3.0000000
 50
174.3484955
 51
236.3296967
  0
LINE
  8
VIEW
  6
CONTINUOUS
 62
     4
 10
12.1940002
 20
203.5119019
 30
0.0
 11
12.1940002
 21
204.6676941
 31
0.0
 62
     4
  0
LINE
  8
VIEW
  6
CONTINUOUS
 62
     4
 10
8.5484009
 20
205.5086975
 30
0.0
 11
2.7565920
 21
209.3670959
 31
0.0
 62
     4
  0
LINE
  8
VIEW
  6
CONTINUOUS
 62
     4
 10
10.3225098
 20
208.1631927
 30
0.0
 11
4.5307922
 21
212.0214996
 31
0.0
 62
     4
  0
LINE
  8
VIEW
  6
CONTINUOUS
 62
     4
 10
8.9939880
 20
204.6764984
 30
0.0
 11
8.9939880
 21
203.5119019
 31
0.0
 62
     4
  0
LINE
  8
VIEW
  6
CONTINUOUS
 62
     4
 10
7.9939880
 20
202.5119019
 30
0.0
 11
4.3500061
 21
202.5119019
 31
0.0
 62
     4
  0
LINE
  8
VIEW
  6
CONTINUOUS
 62
     4
 10
7.9939880
 20
199.3119049
 30
0.0
 11
4.3499990
 21
199.3119049
 31
0.0
 62
     4
  0
ARC
  8
VIEW
  6
CONTINUOUS
 62
     4
 10
7.9939880
 20
203.5119019
 30
0.0
 40
1.0000000
 50
270.0000000
 51
0.0000000
  0
ARC
  8
VIEW
  6
CONTINUOUS
 62
     4
 10
7.9939880
 20
204.6764984
 30
0.0
 40
1.0000000
 50
0.0000000
 51
56.3297005
  0
ARC
  8
VIEW
  6
CONTINUOUS
 62
     4
 10
6.1939998
 20
214.5269928
 30
0.0
 40
6.1999998
 50
177.4759064
 51
236.3296967
  0
ARC
  8
VIEW
  6
CONTINUOUS
 62
     4
 10
7.9939880
 20
203.5119019
 30
0.0
 40
4.1999998
 50
270.0000000
 51
0.0000000
  0
ARC
  8
VIEW
  6
CONTINUOUS
 62
     4
 10
7.9939880
 20
204.6676941
 30
0.0
 40
4.1999998
 50
0.0000000
 51
56.3297005
  0
ENDBLK
  0
BLOCK
  8
VIEW
  2
DXF248
 70
    64
 10
0.0
 20
0.0
 30
0.0
  3
DXF248
  0
ARC
  8
VIEW
  6
CONTINUOUS
 62
     4
 10
36.3999901
 20
439.8482056
 30
0.0
 40
12.6517897
 50
70.8515472
 51
109.1484985
  0
LINE
  8
VIEW
  6
CONTINUOUS
 62
     4
 10
32.2443810
 20
451.7811890
 30
0.0
 11
40.5434914
 21
451.7811890
 31
0.0
 62
     4
  0
LINE
  8
VIEW
  6
CONTINUOUS
 62
     4
 10
32.2500000
 20
451.7999878
 30
0.0
 11
32.2500000
 21
450.1000061
 31
0.0
 62
     4
  0
LINE
  8
VIEW
  6
CONTINUOUS
 62
     4
 10
40.5499916
 20
450.1000061
 30
0.0
 11
40.5499916
 21
451.7999878
 31
0.0
 62
     4
  0
ENDBLK
  0
BLOCK
  8
VIEW
  2
DXF249
 70
    64
 10
0.0
 20
0.0
 30
0.0
  3
DXF249
  0
LINE
  8
VIEW
  6
CONTINUOUS
 62
     4
 10
-71.5000000
 20
271.2999878
 30
0.0
 11
71.5000000
 21
271.2999878
 31
0.0
 62
     4
  0
LINE
  8
VIEW
  6
CONTINUOUS
 62
     4
 10
-56.0223083
 20
281.5000000
 30
0.0
 11
-71.5000000
 21
281.5000000
 31
0.0
 62
     4
  0
LINE
  8
VIEW
  6
CONTINUOUS
 62
     4
 10
71.5000000
 20
281.5000000
 30
0.0
 11
56.0169983
 21
281.5000000
 31
0.0
 62
     4
  0
LINE
  8
VIEW
  6
CONTINUOUS
 62
     4
 10
71.5000000
 20
271.2999878
 30
0.0
 11
71.5000000
 21
281.5000000
 31
0.0
 62
     4
  0
LINE
  8
VIEW
  6
CONTINUOUS
 62
     4
 10
-71.5000000
 20
281.5000000
 30
0.0
 11
-71.5000000
 21
271.2999878
 31
0.0
 62
     4
  0
ENDBLK
  0
BLOCK
  8
VIEW
  2
DXF250
 70
    64
 10
0.0
 20
0.0
 30
0.0
  3
DXF250
  0
ARC
  8
VIEW
  6
CONTINUOUS
 62
     4
 10
-42.5000000
 20
445.2999878
 30
0.0
 40
4.0000000
 50
90.0000000
 51
180.0000000
  0
LINE
  8
VIEW
  6
CONTINUOUS
 62
     4
 10
46.5000000
 20
445.2999878
 30
0.0
 11
46.5000000
 21
406.2999878
 31
0.0
 62
     4
  0
LINE
  8
VIEW
  6
CONTINUOUS
 62
     4
 10
-42.5000000
 20
449.2999878
 30
0.0
 11
42.5000000
 21
449.2999878
 31
0.0
 62
     4
  0
LINE
  8
VIEW
  6
CONTINUOUS
 62
     4
 10
-46.5000000
 20
406.2999878
 30
0.0
 11
-46.5000000
 21
445.2999878
 31
0.0
 62
     4
  0
ARC
  8
VIEW
  6
CONTINUOUS
 62
     4
 10
42.5000000
 20
445.2999878
 30
0.0
 40
4.0000000
 50
0.0000000
 51
90.0000000
  0
LINE
  8
VIEW
  6
CONTINUOUS
 62
     4
 10
-30.3999901
 20
450.1000061
 30
0.0
 11
-42.3999901
 21
450.1000061
 31
0.0
 62
     4
  0
ARC
  8
VIEW
  6
CONTINUOUS
 62
     4
 10
-43.3949013
 20
450.2012939
 30
0.0
 40
1.0000000
 50
284.0649109
 51
354.1857910
  0
ARC
  8
VIEW
  6
CONTINUOUS
 62
     4
 10
-29.6000099
 20
450.1000061
 30
0.0
 40
0.8000000
 50
180.0000000
 51
270.0000000
  0
LINE
  8
VIEW
  6
CONTINUOUS
 62
     4
 10
30.3999901
 20
450.1000061
 30
0.0
 11
42.3999901
 21
450.1000061
 31
0.0
 62
     4
  0
ARC
  8
VIEW
  6
CONTINUOUS
 62
     4
 10
43.3945885
 20
450.2037048
 30
0.0
 40
1.0000000
 50
185.9501038
 51
270.9385071
  0
ARC
  8
VIEW
  6
CONTINUOUS
 62
     4
 10
29.6000099
 20
450.1000061
 30
0.0
 40
0.8000000
 50
270.0000000
 51
0.0000000
  0
ENDBLK
  0
BLOCK
  8
VIEW
  2
DXF251
 70
    64
 10
0.0
 20
0.0
 30
0.0
  3
DXF251
  0
ARC
  8
VIEW
  6
CONTINUOUS
 62
     4
 10
-36.3999901
 20
439.8482056
 30
0.0
 40
12.6517897
 50
70.8515472
 51
109.1484985
  0
LINE
  8
VIEW
  6
CONTINUOUS
 62
     4
 10
-40.5455017
 20
451.7840881
 30
0.0
 11
-32.2565002
 21
451.7840881
 31
0.0
 62
     4
  0
LINE
  8
VIEW
  6
CONTINUOUS
 62
     4
 10
-32.2500000
 20
450.1000061
 30
0.0
 11
-32.2500000
 21
451.7999878
 31
0.0
 62
     4
  0
LINE
  8
VIEW
  6
CONTINUOUS
 62
     4
 10
-40.5500183
 20
451.7999878
 30
0.0
 11
-40.5500183
 21
450.1000061
 31
0.0
 62
     4
  0
ENDBLK
  0
BLOCK
  8
WORKLAYER
  2
DXF252
 70
    64
 10
0.0
 20
0.0
 30
0.0
  3
DXF252
  0
LINE
  8
WORKLAYER
  6
CONTINUOUS
 62
     4
 10
-9.8000135
 20
177.5843964
 30
0.0
 11
9.7999887
 21
177.5843964
 31
0.0
 62
     4
  0
LINE
  8
WORKLAYER
  6
CONTINUOUS
 62
     4
 10
3.5499880
 20
205.5843964
 30
0.0
 11
-3.5500140
 21
205.5843964
 31
0.0
 62
     4
  0
LINE
  8
WORKLAYER
  6
CONTINUOUS
 62
     4
 10
-9.8000135
 20
196.1378021
 30
0.0
 11
-9.8000135
 21
177.5843964
 31
0.0
 62
     4
  0
ARC
  8
WORKLAYER
  6
CONTINUOUS
 62
     4
 10
-0.0000072
 20
189.9832001
 30
0.0
 40
16.0000000
 50
102.8191986
 51
115.9445038
  0
LINE
  8
WORKLAYER
  6
CONTINUOUS
 62
     4
 10
-9.8000135
 20
196.1378021
 30
0.0
 11
-4.3500061
 21
199.2843933
 31
0.0
 62
     4
  0
ARC
  8
WORKLAYER
  6
CONTINUOUS
 62
     4
 10
-0.0000072
 20
217.8856049
 30
0.0
 40
16.0000000
 50
244.0554962
 51
254.2241058
  0
LINE
  8
WORKLAYER
  6
CONTINUOUS
 62
     4
 10
-7.0000148
 20
204.3706970
 30
0.0
 11
-7.0000148
 21
203.4980927
 31
0.0
 62
     4
  0
LINE
  8
WORKLAYER
  6
CONTINUOUS
 62
     4
 10
-4.3500061
 20
202.4882965
 30
0.0
 11
-4.3500061
 21
199.2843933
 31
0.0
 62
     4
  0
ARC
  8
WORKLAYER
  6
CONTINUOUS
 62
     4
 10
-0.0000072
 20
189.9832001
 30
0.0
 40
16.0000000
 50
64.0555191
 51
77.1808167
  0
LINE
  8
WORKLAYER
  6
CONTINUOUS
 62
     4
 10
9.7999887
 20
196.1378021
 30
0.0
 11
4.3499990
 21
199.2843933
 31
0.0
 62
     4
  0
ARC
  8
WORKLAYER
  6
CONTINUOUS
 62
     4
 10
-0.0000072
 20
217.8856049
 30
0.0
 40
16.0000000
 50
285.7759094
 51
295.9444885
  0
LINE
  8
WORKLAYER
  6
CONTINUOUS
 62
     4
 10
6.9999928
 20
204.3706970
 30
0.0
 11
6.9999928
 21
203.4980927
 31
0.0
 62
     4
  0
LINE
  8
WORKLAYER
  6
CONTINUOUS
 62
     4
 10
4.3499990
 20
202.4882965
 30
0.0
 11
4.3499990
 21
199.2843933
 31
0.0
 62
     4
  0
LINE
  8
WORKLAYER
  6
CONTINUOUS
 62
     4
 10
9.7999887
 20
196.1378021
 30
0.0
 11
9.7999887
 21
177.5843964
 31
0.0
 62
     4
  0
LINE
  8
WORKLAYER
  6
CONTINUOUS
 62
     4
 10
-4.3500061
 20
199.2843933
 30
0.0
 11
4.3499990
 21
199.2843933
 31
0.0
 62
     4
  0
LINE
  8
WORKLAYER
  6
CONTINUOUS
 62
     4
 10
-4.3500061
 20
202.4882965
 30
0.0
 11
4.3499990
 21
202.4882965
 31
0.0
 62
     4
  0
LINE
  8
WORKLAYER
  6
CONTINUOUS
 62
     3
 10
-7.0000148
 20
204.3706970
 30
0.0
 11
6.9999928
 21
204.3706970
 31
0.0
 62
     3
  0
LINE
  8
WORKLAYER
  6
CONTINUOUS
 62
     3
 10
6.9999928
 20
203.4980927
 30
0.0
 11
-7.0000148
 21
203.4980927
 31
0.0
 62
     3
  0
ARC
  8
WORKLAYER
  6
CONTINUOUS
 62
     4
 10
-0.0000072
 20
186.8289032
 30
0.0
 40
10.5197802
 50
62.2386894
 51
117.7612991
  0
LINE
  8
WORKLAYER
  6
CONTINUOUS
 62
     4
 10
-4.9000049
 20
196.1378021
 30
0.0
 11
-4.9000049
 21
177.5843964
 31
0.0
 62
     4
  0
LINE
  8
WORKLAYER
  6
CONTINUOUS
 62
     4
 10
4.8999872
 20
196.1378021
 30
0.0
 11
4.8999872
 21
177.5843964
 31
0.0
 62
     4
  0
ARC
  8
WORKLAYER
  6
CONTINUOUS
 62
     4
 10
-7.3500061
 20
191.8943024
 30
0.0
 40
4.9000049
 50
60.0000000
 51
120.0000000
  0
ARC
  8
WORKLAYER
  6
CONTINUOUS
 62
     4
 10
7.3499990
 20
191.8943024
 30
0.0
 40
4.9000049
 50
60.0000000
 51
120.0000000
  0
ENDBLK
  0
BLOCK
  8
VIEW
  2
DXF255
 70
    64
 10
0.0
 20
0.0
 30
0.0
  3
DXF255
  0
LINE
  8
VIEW
  6
CONTINUOUS
 62
     4
 10
222.0558014
 20
393.7999878
 30
0.0
 11
222.6557007
 21
393.7999878
 31
0.0
 62
     4
  0
LINE
  8
VIEW
  6
CONTINUOUS
 62
     4
 10
222.0558014
 20
278.7999878
 30
0.0
 11
222.6557007
 21
278.7999878
 31
0.0
 62
     4
  0
LINE
  8
VIEW
  6
CONTINUOUS
 62
     4
 10
221.3558044
 20
285.4500122
 30
0.0
 11
221.3558044
 21
282.1499939
 31
0.0
 62
     4
  0
LINE
  8
VIEW
  6
CONTINUOUS
 62
     4
 10
222.0558014
 20
393.7999878
 30
0.0
 11
222.0558014
 21
278.7999878
 31
0.0
 62
     4
  0
LINE
  8
VIEW
  6
CONTINUOUS
 62
     4
 10
221.3558044
 20
390.4500122
 30
0.0
 11
221.3558044
 21
387.1499939
 31
0.0
 62
     4
  0
ARC
  8
VIEW
  6
CONTINUOUS
 62
     4
 10
221.7057953
 20
285.4500122
 30
0.0
 40
0.3500000
 50
90.0000000
 51
180.0000000
  0
ARC
  8
VIEW
  6
CONTINUOUS
 62
     4
 10
221.7057953
 20
285.4500122
 30
0.0
 40
0.3500000
 50
0.0000000
 51
90.0000000
  0
ARC
  8
VIEW
  6
CONTINUOUS
 62
     4
 10
221.7057953
 20
282.1499939
 30
0.0
 40
0.3500000
 50
180.0000000
 51
0.0000000
  0
ARC
  8
VIEW
  6
CONTINUOUS
 62
     4
 10
221.7057953
 20
390.4500122
 30
0.0
 40
0.3500000
 50
0.0000000
 51
180.0000000
  0
ARC
  8
VIEW
  6
CONTINUOUS
 62
     4
 10
221.7057953
 20
387.1499939
 30
0.0
 40
0.3500000
 50
180.0000000
 51
0.0000000
  0
ENDBLK
  0
BLOCK
  8
VIEW
  2
DXF256
 70
    64
 10
0.0
 20
0.0
 30
0.0
  3
DXF256
  0
LINE
  8
VIEW
  6
CONTINUOUS
 62
     4
 10
227.0610046
 20
117.0000000
 30
0.0
 11
274.2074890
 21
117.0000000
 31
0.0
 62
     4
  0
LINE
  8
VIEW
  6
CONTINUOUS
 62
     4
 10
264.5544128
 20
124.0000000
 30
0.0
 11
264.2969971
 21
124.0000000
 31
0.0
 62
     4
  0
LINE
  8
VIEW
  6
CONTINUOUS
 62
     4
 10
263.3121033
 20
125.8466034
 30
0.0
 11
269.1881104
 21
140.2879028
 31
0.0
 62
     4
  0
LINE
  8
VIEW
  6
CONTINUOUS
 62
     4
 10
247.9656982
 20
125.9275970
 30
0.0
 11
246.1416016
 21
140.2879028
 31
0.0
 62
     4
  0
LINE
  8
VIEW
  6
CONTINUOUS
 62
     4
 10
274.2074890
 20
117.0000000
 30
0.0
 11
274.2074890
 21
142.0000000
 31
0.0
 62
     4
  0
LINE
  8
VIEW
  6
CONTINUOUS
 62
     4
 10
227.0610046
 20
117.0000000
 30
0.0
 11
227.0610046
 21
142.0000000
 31
0.0
 62
     4
  0
LINE
  8
VIEW
  6
CONTINUOUS
 62
     4
 10
248.2106018
 20
139.5204926
 30
0.0
 11
248.2106018
 21
125.9431000
 31
0.0
 62
     4
  0
LINE
  8
VIEW
  6
CONTINUOUS
 62
     4
 10
242.7723999
 20
139.3204956
 30
0.0
 11
244.5700073
 21
125.4912033
 31
0.0
 62
     4
  0
LINE
  8
VIEW
  6
CONTINUOUS
 62
     4
 10
262.5607910
 20
125.7361984
 30
0.0
 11
262.5607910
 21
139.8022003
 31
0.0
 62
     4
  0
LINE
  8
VIEW
  6
CONTINUOUS
 62
     4
 10
274.2074890
 20
142.0000000
 30
0.0
 11
227.0610046
 21
142.0000000
 31
0.0
 62
     4
  0
LINE
  8
VIEW
  6
CONTINUOUS
 62
     4
 10
273.0520020
 20
141.2474976
 30
0.0
 11
265.7810059
 21
124.7988968
 31
0.0
 62
     4
  0
LINE
  8
VIEW
  6
CONTINUOUS
 62
     4
 10
234.3383942
 20
142.0000000
 30
0.0
 11
234.3383942
 21
117.0000000
 31
0.0
 62
     4
  0
ARC
  8
VIEW
  6
CONTINUOUS
 62
     4
 10
264.5544128
 20
125.3411026
 30
0.0
 40
1.3411200
 50
270.0000000
 51
336.1523132
  0
ARC
  8
VIEW
  6
CONTINUOUS
 62
     4
 10
246.2675934
 20
125.7118988
 30
0.0
 40
1.7118640
 50
187.4058990
 51
270.0000000
  0
ARC
  8
VIEW
  6
CONTINUOUS
 62
     4
 10
264.2969971
 20
125.7361984
 30
0.0
 40
1.7362289
 50
180.0000000
 51
270.0000000
  0
ARC
  8
VIEW
  6
CONTINUOUS
 62
     4
 10
246.2675934
 20
125.9431000
 30
0.0
 40
1.9430749
 50
270.0000000
 51
0.0000000
  0
ARC
  8
VIEW
  6
CONTINUOUS
 62
     4
 10
250.6903076
 20
139.5204926
 30
0.0
 40
2.4795189
 50
90.0000000
 51
180.0000000
  0
ARC
  8
VIEW
  6
CONTINUOUS
 62
     4
 10
239.7221069
 20
138.9239960
 30
0.0
 40
3.0759971
 50
7.4059162
 51
90.0000000
  0
ARC
  8
VIEW
  6
CONTINUOUS
 62
     4
 10
260.3630066
 20
139.8022003
 30
0.0
 40
2.1977861
 50
0.0000000
 51
90.0000000
  0
ARC
  8
VIEW
  6
CONTINUOUS
 62
     4
 10
274.2074890
 20
140.7368011
 30
0.0
 40
1.2632470
 50
90.0000000
 51
156.1522980
  0
LINE
  8
VIEW
  6
CONTINUOUS
 62
     4
 10
227.0610046
 20
145.0000000
 30
0.0
 11
243.0195007
 21
145.0000000
 31
0.0
 62
     4
  0
LINE
  8
VIEW
  6
CONTINUOUS
 62
     4
 10
243.0195007
 20
145.0000000
 30
0.0
 11
246.6557007
 21
154.0000000
 31
0.0
 62
     4
  0
LINE
  8
VIEW
  6
CONTINUOUS
 62
     4
 10
227.0610046
 20
142.0000000
 30
0.0
 11
227.0610046
 21
145.0000000
 31
0.0
 62
     4
  0
LINE
  8
VIEW
  6
CONTINUOUS
 62
     4
 10
274.2074890
 20
142.0000000
 30
0.0
 11
279.0556946
 21
154.0000000
 31
0.0
 62
     4
  0
ENDBLK
  0
BLOCK
  8
VIEW
  2
DXF257
 70
    64
 10
0.0
 20
0.0
 30
0.0
  3
DXF257
  0
LINE
  8
VIEW
  6
CONTINUOUS
 62
     4
 10
226.4557953
 20
263.5499878
 30
0.0
 11
225.7167053
 21
263.5499878
 31
0.0
 62
     4
  0
LINE
  8
VIEW
  6
CONTINUOUS
 62
     4
 10
226.4557953
 20
258.0499878
 30
0.0
 11
225.7167053
 21
258.0499878
 31
0.0
 62
     4
  0
ARC
  8
VIEW
  6
CONTINUOUS
 62
     4
 10
231.4557953
 20
260.7999878
 30
0.0
 40
7.0000000
 50
180.0000000
 51
196.9577942
  0
ARC
  8
VIEW
  6
CONTINUOUS
 62
     4
 10
231.4557953
 20
260.7999878
 30
0.0
 40
7.0000000
 50
163.0422058
 51
180.0000000
  0
ARC
  8
VIEW
  6
CONTINUOUS
 62
     4
 10
225.7167053
 20
262.5499878
 30
0.0
 40
1.0000000
 50
90.0000000
 51
163.0422058
  0
ARC
  8
VIEW
  6
CONTINUOUS
 62
     4
 10
225.7167053
 20
259.0499878
 30
0.0
 40
1.0000000
 50
196.9577942
 51
270.0000000
  0
ENDBLK
  0
BLOCK
  8
VIEW
  2
DXF258
 70
    64
 10
0.0
 20
0.0
 30
0.0
  3
DXF258
  0
LINE
  8
VIEW
  6
CONTINUOUS
 62
     4
 10
226.6557007
 20
265.2999878
 30
0.0
 11
226.6557007
 21
233.8000031
 31
0.0
 62
     4
  0
LINE
  8
VIEW
  6
CONTINUOUS
 62
     4
 10
226.4557953
 20
238.8000031
 30
0.0
 11
226.4557953
 21
264.2999878
 31
0.0
 62
     4
  0
LINE
  8
VIEW
  6
CONTINUOUS
 62
     4
 10
229.6557007
 20
230.8000031
 30
0.0
 11
243.9739075
 21
230.8000031
 31
0.0
 62
     4
  0
ARC
  8
VIEW
  6
CONTINUOUS
 62
     4
 10
227.4557953
 20
238.8000031
 30
0.0
 40
1.0000000
 50
180.0000000
 51
216.8699036
  0
ARC
  8
VIEW
  6
CONTINUOUS
 62
     4
 10
227.4557953
 20
264.2999878
 30
0.0
 40
1.0000000
 50
143.1300964
 51
180.0000000
  0
ARC
  8
VIEW
  6
CONTINUOUS
 62
     4
 10
229.6557007
 20
233.8000031
 30
0.0
 40
3.0000000
 50
180.0000000
 51
270.0000000
  0
ENDBLK
  0
BLOCK
  8
VIEW
  2
DXF259
 70
    64
 10
0.0
 20
0.0
 30
0.0
  3
DXF259
  0
LINE
  8
VIEW
  6
CONTINUOUS
 62
     4
 10
226.4557953
 20
245.0500031
 30
0.0
 11
225.7167053
 21
245.0500031
 31
0.0
 62
     4
  0
LINE
  8
VIEW
  6
CONTINUOUS
 62
     4
 10
226.4557953
 20
239.5500031
 30
0.0
 11
225.7167053
 21
239.5500031
 31
0.0
 62
     4
  0
ARC
  8
VIEW
  6
CONTINUOUS
 62
     4
 10
231.4557953
 20
242.3000031
 30
0.0
 40
7.0000000
 50
180.0000000
 51
196.9577942
  0
ARC
  8
VIEW
  6
CONTINUOUS
 62
     4
 10
231.4557953
 20
242.3000031
 30
0.0
 40
7.0000000
 50
163.0422058
 51
180.0000000
  0
ARC
  8
VIEW
  6
CONTINUOUS
 62
     4
 10
225.7167053
 20
240.5500031
 30
0.0
 40
1.0000000
 50
196.9577942
 51
270.0000000
  0
ARC
  8
VIEW
  6
CONTINUOUS
 62
     4
 10
225.7167053
 20
244.0500031
 30
0.0
 40
1.0000000
 50
90.0000000
 51
163.0422058
  0
ENDBLK
  0
BLOCK
  8
VIEW
  2
DXF260
 70
    64
 10
0.0
 20
0.0
 30
0.0
  3
DXF260
  0
ARC
  8
VIEW
  6
CONTINUOUS
 62
     4
 10
408.6557007
 20
261.3345947
 30
0.0
 40
6.0000000
 50
280.0000000
 51
0.0000000
  0
LINE
  8
VIEW
  6
CONTINUOUS
 62
     4
 10
302.7861938
 20
236.5744019
 30
0.0
 11
404.4476013
 21
254.5000000
 31
0.0
 62
     4
  0
LINE
  8
VIEW
  6
CONTINUOUS
 62
     4
 10
407.2499084
 20
254.9940948
 30
0.0
 11
409.6976013
 21
255.4257050
 31
0.0
 62
     4
  0
LINE
  8
VIEW
  6
CONTINUOUS
 62
     4
 10
395.6557007
 20
270.2999878
 30
0.0
 11
395.6557007
 21
261.7999878
 31
0.0
 62
     4
  0
LINE
  8
VIEW
  6
CONTINUOUS
 62
     4
 10
311.6557922
 20
268.2999878
 30
0.0
 11
395.6557007
 21
268.2999878
 31
0.0
 62
     4
  0
LINE
  8
VIEW
  6
CONTINUOUS
 62
     4
 10
413.6557007
 20
260.7999878
 30
0.0
 11
396.6557007
 21
260.7999878
 31
0.0
 62
     4
  0
LINE
  8
VIEW
  6
CONTINUOUS
 62
     4
 10
414.6557007
 20
270.2999878
 30
0.0
 11
414.6557007
 21
261.3345947
 31
0.0
 62
     4
  0
LINE
  8
VIEW
  6
CONTINUOUS
 62
     4
 10
396.6557007
 20
271.2999878
 30
0.0
 11
413.6557007
 21
271.2999878
 31
0.0
 62
     4
  0
ARC
  8
VIEW
  6
CONTINUOUS
 62
     4
 10
396.6557007
 20
270.2999878
 30
0.0
 40
1.0000000
 50
90.0000000
 51
180.0000000
  0
ARC
  8
VIEW
  6
CONTINUOUS
 62
     4
 10
413.6557007
 20
270.2999878
 30
0.0
 40
1.0000000
 50
0.0000000
 51
90.0000000
  0
ARC
  8
VIEW
  6
CONTINUOUS
 62
     4
 10
413.6557007
 20
261.7999878
 30
0.0
 40
1.0000000
 50
270.0000000
 51
0.0000000
  0
ARC
  8
VIEW
  6
CONTINUOUS
 62
     4
 10
396.6557007
 20
261.7999878
 30
0.0
 40
1.0000000
 50
180.0000000
 51
270.0000000
  0
LINE
  8
VIEW
  6
CONTINUOUS
 62
     4
 10
293.6557922
 20
271.2999878
 30
0.0
 11
285.7091064
 21
271.2999878
 31
0.0
 62
     4
  0
LINE
  8
VIEW
  6
CONTINUOUS
 62
     4
 10
292.6557922
 20
261.7999878
 30
0.0
 11
292.6557922
 21
270.2999878
 31
0.0
 62
     4
  0
LINE
  8
VIEW
  6
CONTINUOUS
 62
     4
 10
310.6557922
 20
260.7999878
 30
0.0
 11
293.6557922
 21
260.7999878
 31
0.0
 62
     4
  0
LINE
  8
VIEW
  6
CONTINUOUS
 62
     4
 10
311.6557922
 20
270.2999878
 30
0.0
 11
311.6557922
 21
261.7999878
 31
0.0
 62
     4
  0
LINE
  8
VIEW
  6
CONTINUOUS
 62
     4
 10
293.6557922
 20
271.2999878
 30
0.0
 11
310.6557922
 21
271.2999878
 31
0.0
 62
     4
  0
ARC
  8
VIEW
  6
CONTINUOUS
 62
     4
 10
285.7091064
 20
274.2999878
 30
0.0
 40
3.0000000
 50
243.7039032
 51
270.0000000
  0
ARC
  8
VIEW
  6
CONTINUOUS
 62
     4
 10
310.6557922
 20
261.7999878
 30
0.0
 40
1.0000000
 50
270.0000000
 51
0.0000000
  0
ARC
  8
VIEW
  6
CONTINUOUS
 62
     4
 10
310.6557922
 20
270.2999878
 30
0.0
 40
1.0000000
 50
0.0000000
 51
90.0000000
  0
ARC
  8
VIEW
  6
CONTINUOUS
 62
     4
 10
293.6557922
 20
270.2999878
 30
0.0
 40
1.0000000
 50
90.0000000
 51
180.0000000
  0
ARC
  8
VIEW
  6
CONTINUOUS
 62
     4
 10
293.6557922
 20
261.7999878
 30
0.0
 40
1.0000000
 50
180.0000000
 51
270.0000000
  0
LINE
  8
VIEW
  6
CONTINUOUS
 62
     4
 10
242.8054962
 20
264.2557983
 30
0.0
 11
246.6557007
 21
154.0000000
 31
0.0
 62
     4
  0
LINE
  8
VIEW
  6
CONTINUOUS
 62
     4
 10
279.0556946
 20
154.0000000
 30
0.0
 11
246.6557007
 21
154.0000000
 31
0.0
 62
     4
  0
LINE
  8
VIEW
  6
CONTINUOUS
 62
     4
 10
279.0556946
 20
154.0000000
 30
0.0
 11
282.1615906
 21
213.2626038
 31
0.0
 62
     4
  0
ARC
  8
VIEW
  6
CONTINUOUS
 62
     4
 10
307.1274109
 20
211.9541931
 30
0.0
 40
25.0000000
 50
100.0000000
 51
177.0000000
  0
LINE
  8
VIEW
  6
CONTINUOUS
 62
     4
 10
242.8040009
 20
264.2999878
 30
0.0
 11
250.6557007
 21
264.2999878
 31
0.0
 62
     4
  0
LINE
  8
VIEW
  6
CONTINUOUS
 62
     4
 10
250.6557007
 20
265.5000000
 30
0.0
 11
250.6557007
 21
264.2999878
 31
0.0
 62
     4
  0
ARC
  8
VIEW
  6
CONTINUOUS
 62
     4
 10
241.2064972
 20
264.2000122
 30
0.0
 40
1.6000000
 50
2.0000000
 51
43.4325409
  0
ENDBLK
  0
BLOCK
  8
VIEW
  2
DXF261
 70
    64
 10
0.0
 20
0.0
 30
0.0
  3
DXF261
  0
LINE
  8
VIEW
  6
CONTINUOUS
 62
     4
 10
286.6557922
 20
283.6000061
 30
0.0
 11
286.6557922
 21
405.2999878
 31
0.0
 62
     4
  0
LINE
  8
VIEW
  6
CONTINUOUS
 62
     4
 10
286.6557922
 20
405.2999878
 30
0.0
 11
286.6557922
 21
406.2999878
 31
0.0
 62
     4
  0
LINE
  8
VIEW
  6
CONTINUOUS
 62
     4
 10
223.6557007
 20
265.2999878
 30
0.0
 11
250.4557953
 21
265.2999878
 31
0.0
 62
     4
  0
LINE
  8
VIEW
  6
CONTINUOUS
 62
     4
 10
234.6557007
 20
405.2999878
 30
0.0
 11
286.6557922
 21
405.2999878
 31
0.0
 62
     4
  0
LINE
  8
VIEW
  6
CONTINUOUS
 62
     4
 10
277.2940063
 20
278.0000000
 30
0.0
 11
283.6557922
 21
278.0000000
 31
0.0
 62
     4
  0
LINE
  8
VIEW
  6
CONTINUOUS
 62
     4
 10
222.6557007
 20
265.2999878
 30
0.0
 11
223.6557007
 21
265.2999878
 31
0.0
 62
     4
  0
LINE
  8
VIEW
  6
CONTINUOUS
 62
     4
 10
286.6557922
 20
406.2999878
 30
0.0
 11
234.6557007
 21
406.2999878
 31
0.0
 62
     4
  0
LINE
  8
VIEW
  6
CONTINUOUS
 62
     4
 10
222.6557007
 20
394.2999878
 30
0.0
 11
222.6557007
 21
265.2999878
 31
0.0
 62
     4
  0
LINE
  8
VIEW
  6
CONTINUOUS
 62
     4
 10
223.6557007
 20
265.2999878
 30
0.0
 11
223.6557007
 21
394.2999878
 31
0.0
 62
     4
  0
LINE
  8
VIEW
  6
CONTINUOUS
 62
     4
 10
250.6557007
 20
265.5000000
 30
0.0
 11
250.6557007
 21
271.1000061
 31
0.0
 62
     4
  0
LINE
  8
VIEW
  6
CONTINUOUS
 62
     4
 10
250.8558044
 20
271.2999878
 30
0.0
 11
283.6557922
 21
271.2999878
 31
0.0
 62
     4
  0
LINE
  8
VIEW
  6
CONTINUOUS
 62
     4
 10
285.6557922
 20
282.6000061
 30
0.0
 11
277.2940063
 21
282.6000061
 31
0.0
 62
     4
  0
LINE
  8
VIEW
  6
CONTINUOUS
 62
     4
 10
284.6557922
 20
277.0000000
 30
0.0
 11
284.6557922
 21
272.2999878
 31
0.0
 62
     4
  0
LINE
  8
VIEW
  6
CONTINUOUS
 62
     4
 10
250.6557007
 20
265.5000000
 30
0.0
 11
250.4557953
 21
265.2999878
 31
0.0
 62
     4
  0
LINE
  8
VIEW
  6
CONTINUOUS
 62
     4
 10
281.6116943
 20
278.0000000
 30
0.0
 11
280.3792114
 21
282.6000061
 31
0.0
 62
     4
  0
ARC
  8
VIEW
  6
CONTINUOUS
 62
     4
 10
234.6557007
 20
394.2999878
 30
0.0
 40
12.0000000
 50
90.0000000
 51
180.0000000
  0
ARC
  8
VIEW
  6
CONTINUOUS
 62
     4
 10
234.6557007
 20
394.2999878
 30
0.0
 40
11.0000000
 50
90.0000000
 51
180.0000000
  0
ARC
  8
VIEW
  6
CONTINUOUS
 62
     4
 10
283.6557922
 20
277.0000000
 30
0.0
 40
1.0000000
 50
0.0000000
 51
90.0000000
  0
ARC
  8
VIEW
  6
CONTINUOUS
 62
     4
 10
283.6557922
 20
272.2999878
 30
0.0
 40
1.0000000
 50
270.0000000
 51
0.0000000
  0
ARC
  8
VIEW
  6
CONTINUOUS
 62
     4
 10
285.6557922
 20
283.6000061
 30
0.0
 40
1.0000000
 50
270.0000000
 51
0.0000000
  0
ENDBLK
  0
BLOCK
  8
VIEW
  2
DXF262
 70
    64
 10
0.0
 20
0.0
 30
0.0
  3
DXF262
  0
LINE
  8
VIEW
  6
CONTINUOUS
 62
     4
 10
217.2557068
 20
360.4500122
 30
0.0
 11
218.9557953
 21
360.4500122
 31
0.0
 62
     4
  0
LINE
  8
VIEW
  6
CONTINUOUS
 62
     4
 10
220.1557007
 20
351.2999878
 30
0.0
 11
222.0558014
 21
351.2999878
 31
0.0
 62
     4
  0
LINE
  8
VIEW
  6
CONTINUOUS
 62
     4
 10
222.0558014
 20
361.2999878
 30
0.0
 11
220.1557007
 21
361.2999878
 31
0.0
 62
     4
  0
LINE
  8
VIEW
  6
CONTINUOUS
 62
     4
 10
217.2557068
 20
352.1499939
 30
0.0
 11
217.2557068
 21
360.4500122
 31
0.0
 62
     4
  0
LINE
  8
VIEW
  6
CONTINUOUS
 62
     4
 10
218.9557953
 20
352.1499939
 30
0.0
 11
217.2557068
 21
352.1499939
 31
0.0
 62
     4
  0
LINE
  8
VIEW
  6
CONTINUOUS
 62
     4
 10
218.9557953
 20
361.7999878
 30
0.0
 11
218.9557953
 21
331.2999878
 31
0.0
 62
     4
  0
LINE
  8
VIEW
  6
CONTINUOUS
 62
     4
 10
220.1557007
 20
361.7999878
 30
0.0
 11
218.9557953
 21
361.7999878
 31
0.0
 62
     4
  0
LINE
  8
VIEW
  6
CONTINUOUS
 62
     4
 10
220.1557007
 20
331.2999878
 30
0.0
 11
220.1557007
 21
361.7999878
 31
0.0
 62
     4
  0
LINE
  8
VIEW
  6
CONTINUOUS
 62
     4
 10
218.9557953
 20
331.2999878
 30
0.0
 11
220.1557007
 21
331.2999878
 31
0.0
 62
     4
  0
ARC
  8
VIEW
  6
CONTINUOUS
 62
     4
 10
227.6197968
 20
356.2999878
 30
0.0
 40
11.1640596
 50
180.0000000
 51
201.8222961
  0
ARC
  8
VIEW
  6
CONTINUOUS
 62
     4
 10
227.6197968
 20
356.2999878
 30
0.0
 40
11.1640596
 50
158.1777039
 51
180.0000000
  0
ENDBLK
  0
BLOCK
  8
VIEW
  2
DXF263
 70
    64
 10
0.0
 20
0.0
 30
0.0
  3
DXF263
  0
LINE
  8
VIEW
  6
CONTINUOUS
 62
     4
 10
237.1557007
 20
228.5735016
 30
0.0
 11
232.6024017
 21
228.5735016
 31
0.0
 62
     4
  0
LINE
  8
VIEW
  6
CONTINUOUS
 62
     4
 10
232.6024017
 20
217.0265045
 30
0.0
 11
232.4945984
 21
217.2129059
 31
0.0
 62
     4
  0
LINE
  8
VIEW
  6
CONTINUOUS
 62
     4
 10
237.1557007
 20
217.0265045
 30
0.0
 11
232.6024017
 21
217.0265045
 31
0.0
 62
     4
  0
LINE
  8
VIEW
  6
CONTINUOUS
 62
     4
 10
232.6024017
 20
228.5735016
 30
0.0
 11
232.4945984
 21
228.3871002
 31
0.0
 62
     4
  0
LINE
  8
VIEW
  6
CONTINUOUS
 62
     4
 10
237.1557007
 20
225.6867065
 30
0.0
 11
232.6024017
 21
225.6867065
 31
0.0
 62
     4
  0
LINE
  8
VIEW
  6
CONTINUOUS
 62
     4
 10
237.1557007
 20
219.9132996
 30
0.0
 11
232.6024017
 21
219.9132996
 31
0.0
 62
     4
  0
LINE
  8
VIEW
  6
CONTINUOUS
 62
     4
 10
232.1557007
 20
222.0000000
 30
0.0
 11
232.1557007
 21
218.4779053
 31
0.0
 62
     4
  0
LINE
  8
VIEW
  6
CONTINUOUS
 62
     4
 10
232.1557007
 20
227.1221008
 30
0.0
 11
232.1557007
 21
223.6000061
 31
0.0
 62
     4
  0
LINE
  8
VIEW
  6
CONTINUOUS
 62
     4
 10
234.1557007
 20
223.6000061
 30
0.0
 11
232.1893005
 21
223.6000061
 31
0.0
 62
     4
  0
LINE
  8
VIEW
  6
CONTINUOUS
 62
     4
 10
234.1557007
 20
222.0000000
 30
0.0
 11
234.1557007
 21
223.6000061
 31
0.0
 62
     4
  0
LINE
  8
VIEW
  6
CONTINUOUS
 62
     4
 10
232.1893005
 20
222.0000000
 30
0.0
 11
234.1557007
 21
222.0000000
 31
0.0
 62
     4
  0
ARC
  8
VIEW
  6
CONTINUOUS
 62
     4
 10
241.7091064
 20
222.8000031
 30
0.0
 40
9.5534182
 50
162.4120026
 51
175.1963959
  0
ARC
  8
VIEW
  6
CONTINUOUS
 62
     4
 10
234.6856995
 20
218.4779053
 30
0.0
 40
2.5299540
 50
145.4349060
 51
210.0000000
  0
ARC
  8
VIEW
  6
CONTINUOUS
 62
     4
 10
234.6856995
 20
227.1221008
 30
0.0
 40
2.5299540
 50
180.0000000
 51
214.5650940
  0
ARC
  8
VIEW
  6
CONTINUOUS
 62
     4
 10
234.6856995
 20
227.1221008
 30
0.0
 40
2.5299540
 50
150.0000000
 51
180.0000000
  0
ARC
  8
VIEW
  6
CONTINUOUS
 62
     4
 10
241.7091064
 20
222.8000031
 30
0.0
 40
9.5534182
 50
184.8036041
 51
197.5879974
  0
ENDBLK
  0
BLOCK
  8
VIEW
  2
DXF264
 70
    64
 10
0.0
 20
0.0
 30
0.0
  3
DXF264
  0
LINE
  8
VIEW
  6
CONTINUOUS
 62
     4
 10
237.1557007
 20
214.8000031
 30
0.0
 11
237.1557007
 21
229.8000031
 31
0.0
 62
     4
  0
LINE
  8
VIEW
  6
CONTINUOUS
 62
     4
 10
244.5325012
 20
214.8000031
 30
0.0
 11
237.1557007
 21
214.8000031
 31
0.0
 62
     4
  0
LINE
  8
VIEW
  6
CONTINUOUS
 62
     4
 10
241.1557007
 20
230.8000031
 30
0.0
 11
241.1557007
 21
229.8000031
 31
0.0
 62
     4
  0
LINE
  8
VIEW
  6
CONTINUOUS
 62
     4
 10
244.0164948
 20
229.8000031
 30
0.0
 11
231.9057007
 21
229.8000031
 31
0.0
 62
     4
  0
LINE
  8
VIEW
  6
CONTINUOUS
 62
     4
 10
231.9057007
 20
229.8000031
 30
0.0
 11
231.9057007
 21
230.8000031
 31
0.0
 62
     4
  0
ENDBLK
  0
BLOCK
  8
VIEW
  2
DXF265
 70
    64
 10
0.0
 20
0.0
 30
0.0
  3
DXF265
  0
LINE
  8
VIEW
  6
CONTINUOUS
 62
     4
 10
273.2062073
 20
281.7496033
 30
0.0
 11
276.1054077
 21
278.8504028
 31
0.0
 62
     4
  0
LINE
  8
VIEW
  6
CONTINUOUS
 62
     4
 10
273.2062073
 20
278.8504028
 30
0.0
 11
276.1054077
 21
281.7496033
 31
0.0
 62
     4
  0
CIRCLE
  8
VIEW
  6
CONTINUOUS
 62
     4
 10
274.6557922
 20
280.2999878
 30
0.0
 40
3.5000000
  0
ENDBLK
  0
BLOCK
  8
VIEW
  2
DXF266
 70
    64
 10
0.0
 20
0.0
 30
0.0
  3
DXF266
  0
LINE
  8
VIEW
  6
CONTINUOUS
 62
     4
 10
239.6557007
 20
214.8000031
 30
0.0
 11
239.6557007
 21
199.3000031
 31
0.0
 62
     4
  0
LINE
  8
VIEW
  6
CONTINUOUS
 62
     4
 10
239.6557007
 20
199.3000031
 30
0.0
 11
245.0789032
 21
199.3000031
 31
0.0
 62
     4
  0
ENDBLK
  0
BLOCK
  8
VIEW
  2
DXF267
 70
    64
 10
0.0
 20
0.0
 30
0.0
  3
DXF267
  0
ARC
  8
VIEW
  6
CONTINUOUS
 62
     4
 10
315.6557922
 20
441.4359131
 30
0.0
 40
11.1640596
 50
68.1777420
 51
111.8223038
  0
LINE
  8
VIEW
  6
CONTINUOUS
 62
     4
 10
311.5057068
 20
450.1000061
 30
0.0
 11
311.5057068
 21
451.7999878
 31
0.0
 62
     4
  0
LINE
  8
VIEW
  6
CONTINUOUS
 62
     4
 10
311.5057068
 20
451.7999878
 30
0.0
 11
319.8056946
 21
451.7999878
 31
0.0
 62
     4
  0
LINE
  8
VIEW
  6
CONTINUOUS
 62
     4
 10
319.8056946
 20
450.1000061
 30
0.0
 11
319.8056946
 21
451.7999878
 31
0.0
 62
     4
  0
LINE
  8
VIEW
  6
CONTINUOUS
 62
     4
 10
319.8056946
 20
451.7999878
 30
0.0
 11
311.5057068
 21
451.7999878
 31
0.0
 62
     4
  0
LINE
  8
VIEW
  6
CONTINUOUS
 62
     4
 10
311.5057068
 20
451.7999878
 30
0.0
 11
311.5057068
 21
450.1000061
 31
0.0
 62
     4
  0
ENDBLK
  0
BLOCK
  8
VIEW
  2
DXF268
 70
    64
 10
0.0
 20
0.0
 30
0.0
  3
DXF268
  0
ARC
  8
VIEW
  6
CONTINUOUS
 62
     4
 10
411.8942871
 20
352.3999939
 30
0.0
 40
5.3615379
 50
319.2471008
 51
40.7528687
  0
LINE
  8
VIEW
  6
CONTINUOUS
 62
     4
 10
415.9558105
 20
355.8999939
 30
0.0
 11
414.6557007
 21
355.8999939
 31
0.0
 62
     4
  0
LINE
  8
VIEW
  6
CONTINUOUS
 62
     4
 10
414.6557007
 20
348.8999939
 30
0.0
 11
415.9558105
 21
348.8999939
 31
0.0
 62
     4
  0
ENDBLK
  0
BLOCK
  8
VIEW
  2
DXF269
 70
    64
 10
0.0
 20
0.0
 30
0.0
  3
DXF269
  0
ARC
  8
VIEW
  6
CONTINUOUS
 62
     4
 10
316.6557922
 20
429.2999878
 30
0.0
 40
15.0000000
 50
0.0000000
 51
90.0000000
  0
LINE
  8
VIEW
  6
CONTINUOUS
 62
     4
 10
331.6557922
 20
404.2999878
 30
0.0
 11
331.6557922
 21
429.2999878
 31
0.0
 62
     4
  0
LINE
  8
VIEW
  6
CONTINUOUS
 62
     4
 10
316.6557922
 20
444.2999878
 30
0.0
 11
315.6557922
 21
444.2999878
 31
0.0
 62
     4
  0
LINE
  8
VIEW
  6
CONTINUOUS
 62
     4
 10
299.6557922
 20
404.2999878
 30
0.0
 11
299.6557922
 21
428.2999878
 31
0.0
 62
     4
  0
LINE
  8
VIEW
  6
CONTINUOUS
 62
     4
 10
326.4345093
 20
430.4953003
 30
0.0
 11
323.4345093
 21
430.4953003
 31
0.0
 62
     4
  0
LINE
  8
VIEW
  6
CONTINUOUS
 62
     4
 10
326.4635925
 20
426.2524109
 30
0.0
 11
323.4635925
 21
426.2524109
 31
0.0
 62
     4
  0
ARC
  8
VIEW
  6
CONTINUOUS
 62
     4
 10
315.6557922
 20
428.2999878
 30
0.0
 40
11.0000000
 50
11.5117598
 51
349.2721863
  0
ARC
  8
VIEW
  6
CONTINUOUS
 62
     4
 10
315.6557922
 20
428.2999878
 30
0.0
 40
16.0000000
 50
90.0000000
 51
180.0000000
  0
ENDBLK
  0
BLOCK
  8
VIEW
  2
DXF270
 70
    64
 10
0.0
 20
0.0
 30
0.0
  3
DXF270
  0
LINE
  8
VIEW
  6
CONTINUOUS
 62
     4
 10
286.6557922
 20
271.5499878
 30
0.0
 11
286.6557922
 21
404.0599976
 31
0.0
 62
     4
  0
LINE
  8
VIEW
  6
CONTINUOUS
 62
     4
 10
286.8956909
 20
404.2999878
 30
0.0
 11
291.6557922
 21
404.2999878
 31
0.0
 62
     4
  0
LINE
  8
VIEW
  6
CONTINUOUS
 62
     4
 10
291.6557922
 20
404.2999878
 30
0.0
 11
291.6557922
 21
271.2999878
 31
0.0
 62
     4
  0
LINE
  8
VIEW
  6
CONTINUOUS
 62
     4
 10
291.6557922
 20
271.2999878
 30
0.0
 11
286.9057922
 21
271.2999878
 31
0.0
 62
     4
  0
ARC
  8
VIEW
  6
CONTINUOUS
 62
     4
 10
286.9057922
 20
271.5499878
 30
0.0
 40
0.2500000
 50
180.0000000
 51
270.0000000
  0
LINE
  8
VIEW
  6
CONTINUOUS
 62
     4
 10
291.6557922
 20
404.2999878
 30
0.0
 11
292.6557922
 21
404.2999878
 31
0.0
 62
     4
  0
LINE
  8
VIEW
  6
CONTINUOUS
 62
     4
 10
292.6557922
 20
271.2999878
 30
0.0
 11
291.6557922
 21
271.2999878
 31
0.0
 62
     4
  0
ARC
  8
VIEW
  6
CONTINUOUS
 62
     4
 10
286.8956909
 20
404.0599976
 30
0.0
 40
0.2400000
 50
90.0000000
 51
180.0000000
  0
ENDBLK
  0
BLOCK
  8
VIEW
  2
DXF271
 70
    64
 10
0.0
 20
0.0
 30
0.0
  3
DXF271
  0
LINE
  8
VIEW
  6
CONTINUOUS
 62
     4
 10
414.6557007
 20
404.2999878
 30
0.0
 11
414.6557007
 21
281.5000000
 31
0.0
 62
     4
  0
LINE
  8
VIEW
  6
CONTINUOUS
 62
     4
 10
292.6557922
 20
404.2999878
 30
0.0
 11
292.6557922
 21
271.2999878
 31
0.0
 62
     4
  0
LINE
  8
VIEW
  6
CONTINUOUS
 62
     4
 10
292.6557922
 20
404.2999878
 30
0.0
 11
414.6557007
 21
404.2999878
 31
0.0
 62
     4
  0
LINE
  8
VIEW
  6
CONTINUOUS
 62
     4
 10
292.6557922
 20
271.2999878
 30
0.0
 11
311.6557922
 21
271.2999878
 31
0.0
 62
     4
  0
LINE
  8
VIEW
  6
CONTINUOUS
 62
     4
 10
395.6557007
 20
271.2999878
 30
0.0
 11
414.6557007
 21
271.2999878
 31
0.0
 62
     4
  0
LINE
  8
VIEW
  6
CONTINUOUS
 62
     4
 10
414.6557007
 20
271.2999878
 30
0.0
 11
414.6557007
 21
281.5000000
 31
0.0
 62
     4
  0
LINE
  8
VIEW
  6
CONTINUOUS
 62
     4
 10
311.6557922
 20
271.2999878
 30
0.0
 11
314.3692932
 21
276.0000000
 31
0.0
 62
     4
  0
LINE
  8
VIEW
  6
CONTINUOUS
 62
     4
 10
314.3692932
 20
276.0000000
 30
0.0
 11
392.9421997
 21
276.0000000
 31
0.0
 62
     4
  0
LINE
  8
VIEW
  6
CONTINUOUS
 62
     4
 10
392.9421997
 20
276.0000000
 30
0.0
 11
395.6557007
 21
271.2999878
 31
0.0
 62
     4
  0
LINE
  8
VIEW
  6
CONTINUOUS
 62
     4
 10
298.6557922
 20
368.2156067
 30
0.0
 11
298.6557922
 21
313.1000061
 31
0.0
 62
     4
  0
LINE
  8
VIEW
  6
CONTINUOUS
 62
     4
 10
414.6557007
 20
281.5000000
 30
0.0
 11
292.6557922
 21
281.5000000
 31
0.0
 62
     4
  0
LINE
  8
VIEW
  6
CONTINUOUS
 62
     4
 10
301.6557922
 20
394.1000061
 30
0.0
 11
403.9558105
 21
394.1000061
 31
0.0
 62
     4
  0
LINE
  8
VIEW
  6
CONTINUOUS
 62
     4
 10
406.9558105
 20
397.1000061
 30
0.0
 11
406.9558105
 21
403.6000061
 31
0.0
 62
     4
  0
LINE
  8
VIEW
  6
CONTINUOUS
 62
     4
 10
406.9558105
 20
403.6000061
 30
0.0
 11
414.6557007
 21
403.6000061
 31
0.0
 62
     4
  0
LINE
  8
VIEW
  6
CONTINUOUS
 62
     4
 10
292.6557922
 20
305.5000000
 30
0.0
 11
302.2557068
 21
305.5000000
 31
0.0
 62
     4
  0
LINE
  8
VIEW
  6
CONTINUOUS
 62
     4
 10
302.2557068
 20
305.5000000
 30
0.0
 11
302.2557068
 21
313.1000061
 31
0.0
 62
     4
  0
LINE
  8
VIEW
  6
CONTINUOUS
 62
     4
 10
302.2557068
 20
313.1000061
 30
0.0
 11
292.6557922
 21
313.1000061
 31
0.0
 62
     4
  0
LINE
  8
VIEW
  6
CONTINUOUS
 62
     4
 10
292.6557922
 20
368.2000122
 30
0.0
 11
302.2557068
 21
368.2000122
 31
0.0
 62
     4
  0
LINE
  8
VIEW
  6
CONTINUOUS
 62
     4
 10
302.2557068
 20
368.2000122
 30
0.0
 11
302.2557068
 21
375.7999878
 31
0.0
 62
     4
  0
LINE
  8
VIEW
  6
CONTINUOUS
 62
     4
 10
302.2557068
 20
375.7999878
 30
0.0
 11
292.6557922
 21
375.7999878
 31
0.0
 62
     4
  0
LINE
  8
VIEW
  6
CONTINUOUS
 62
     4
 10
298.6557922
 20
305.5000000
 30
0.0
 11
298.6557922
 21
285.0000000
 31
0.0
 62
     4
  0
LINE
  8
VIEW
  6
CONTINUOUS
 62
     4
 10
298.6557922
 20
375.7999878
 30
0.0
 11
298.6557922
 21
404.2999878
 31
0.0
 62
     4
  0
LINE
  8
VIEW
  6
CONTINUOUS
 62
     4
 10
311.6557922
 20
271.2999878
 30
0.0
 11
311.6557922
 21
281.2999878
 31
0.0
 62
     4
  0
LINE
  8
VIEW
  6
CONTINUOUS
 62
     4
 10
395.6557007
 20
271.2999878
 30
0.0
 11
395.6557007
 21
281.5000000
 31
0.0
 62
     4
  0
ARC
  8
VIEW
  6
CONTINUOUS
 62
     4
 10
403.9558105
 20
397.1000061
 30
0.0
 40
3.0000000
 50
270.0000000
 51
0.0000000
  0
ARC
  8
VIEW
  6
CONTINUOUS
 62
     4
 10
301.6557922
 20
397.1000061
 30
0.0
 40
3.0000000
 50
180.0000000
 51
270.0000000
  0
CIRCLE
  8
VIEW
  6
CONTINUOUS
 62
     4
 10
389.5557861
 20
398.8999939
 30
0.0
 40
2.5000000
  0
ENDBLK
  0
BLOCK
  8
VIEW
  2
DXF272
 70
    64
 10
0.0
 20
0.0
 30
0.0
  3
DXF272
  0
ARC
  8
VIEW
  6
CONTINUOUS
 62
     4
 10
411.8942871
 20
287.0000000
 30
0.0
 40
5.3615379
 50
319.2471008
 51
40.7528687
  0
LINE
  8
VIEW
  6
CONTINUOUS
 62
     4
 10
414.6557007
 20
283.5000000
 30
0.0
 11
415.9558105
 21
283.5000000
 31
0.0
 62
     4
  0
LINE
  8
VIEW
  6
CONTINUOUS
 62
     4
 10
415.9558105
 20
290.5000000
 30
0.0
 11
414.6557007
 21
290.5000000
 31
0.0
 62
     4
  0
ENDBLK
  0
BLOCK
  8
0
  2
DXF273
 70
    64
 10
0.0
 20
0.0
 30
0.0
  3
DXF273
  0
LINE
  8
0
  6
CONTINUOUS
 62
     4
 10
409.1557007
 20
256.7999878
 30
0.0
 11
409.7745056
 21
257.1571960
 31
0.0
 62
     4
  0
LINE
  8
0
  6
CONTINUOUS
 62
     4
 10
401.1557007
 20
256.7999878
 30
0.0
 11
409.1557007
 21
256.7999878
 31
0.0
 62
     4
  0
LINE
  8
0
  6
CONTINUOUS
 62
     4
 10
401.1557007
 20
256.7999878
 30
0.0
 11
400.5368958
 21
257.1571960
 31
0.0
 62
     4
  0
ARC
  8
0
  6
CONTINUOUS
 62
     4
 10
405.1557007
 20
263.7282104
 30
0.0
 40
6.9282041
 50
250.5287933
 51
289.4711914
  0
ARC
  8
0
  6
CONTINUOUS
 62
     4
 10
401.1557007
 20
260.6047058
 30
0.0
 40
3.8047581
 50
270.0000000
 51
296.3810120
  0
ARC
  8
0
  6
CONTINUOUS
 62
     4
 10
409.1557007
 20
260.6047058
 30
0.0
 40
3.8047581
 50
243.6190033
 51
270.0000000
  0
LINE
  8
0
  6
CONTINUOUS
 62
     4
 10
409.1557007
 20
260.7999878
 30
0.0
 11
409.7745056
 21
260.4428101
 31
0.0
 62
     4
  0
LINE
  8
0
  6
CONTINUOUS
 62
     4
 10
401.1557007
 20
260.7999878
 30
0.0
 11
409.1557007
 21
260.7999878
 31
0.0
 62
     4
  0
LINE
  8
0
  6
CONTINUOUS
 62
     4
 10
409.7745056
 20
260.4428101
 30
0.0
 11
409.7745056
 21
257.1571960
 31
0.0
 62
     4
  0
LINE
  8
0
  6
CONTINUOUS
 62
     4
 10
400.5368958
 20
260.4428101
 30
0.0
 11
400.5368958
 21
257.1571960
 31
0.0
 62
     4
  0
LINE
  8
0
  6
CONTINUOUS
 62
     4
 10
401.1557007
 20
260.7999878
 30
0.0
 11
400.5368958
 21
260.4428101
 31
0.0
 62
     4
  0
ARC
  8
0
  6
CONTINUOUS
 62
     4
 10
405.1557007
 20
253.8717957
 30
0.0
 40
6.9282041
 50
70.5288086
 51
109.4711990
  0
LINE
  8
0
  6
CONTINUOUS
 62
     4
 10
402.8464050
 20
260.4038086
 30
0.0
 11
402.8464050
 21
257.1961975
 31
0.0
 62
     4
  0
LINE
  8
0
  6
CONTINUOUS
 62
     4
 10
407.4650879
 20
260.4038086
 30
0.0
 11
407.4650879
 21
257.1962891
 31
0.0
 62
     4
  0
ARC
  8
0
  6
CONTINUOUS
 62
     4
 10
401.1557007
 20
256.9953003
 30
0.0
 40
3.8047581
 50
63.6189919
 51
90.0000000
  0
ARC
  8
0
  6
CONTINUOUS
 62
     4
 10
409.1557007
 20
256.9953003
 30
0.0
 40
3.8047581
 50
90.0000000
 51
116.3809967
  0
ENDBLK
  0
BLOCK
  8
VIEW
  2
DXF274
 70
    64
 10
0.0
 20
0.0
 30
0.0
  3
DXF274
  0
ARC
  8
VIEW
  6
CONTINUOUS
 62
     4
 10
411.8942871
 20
307.7000122
 30
0.0
 40
5.3615379
 50
319.2471008
 51
40.7528687
  0
LINE
  8
VIEW
  6
CONTINUOUS
 62
     4
 10
414.6557007
 20
304.2000122
 30
0.0
 11
415.9558105
 21
304.2000122
 31
0.0
 62
     4
  0
LINE
  8
VIEW
  6
CONTINUOUS
 62
     4
 10
415.9558105
 20
311.2000122
 30
0.0
 11
414.6557007
 21
311.2000122
 31
0.0
 62
     4
  0
ENDBLK
  0
BLOCK
  8
VIEW
  2
DXF275
 70
    64
 10
0.0
 20
0.0
 30
0.0
  3
DXF275
  0
LINE
  8
VIEW
  6
CONTINUOUS
 62
     4
 10
296.4558105
 20
449.2999878
 30
0.0
 11
334.8558044
 21
449.2999878
 31
0.0
 62
     4
  0
LINE
  8
VIEW
  6
CONTINUOUS
 62
     4
 10
309.6557922
 20
449.7999878
 30
0.0
 11
309.6557922
 21
450.1000061
 31
0.0
 62
     4
  0
LINE
  8
VIEW
  6
CONTINUOUS
 62
     4
 10
309.6557922
 20
450.1000061
 30
0.0
 11
321.6557922
 21
450.1000061
 31
0.0
 62
     4
  0
LINE
  8
VIEW
  6
CONTINUOUS
 62
     4
 10
321.6557922
 20
450.1000061
 30
0.0
 11
321.6557922
 21
449.7999878
 31
0.0
 62
     4
  0
ARC
  8
VIEW
  6
CONTINUOUS
 62
     4
 10
334.8558044
 20
445.2999878
 30
0.0
 40
4.0000000
 50
0.0000000
 51
90.0000000
  0
ARC
  8
VIEW
  6
CONTINUOUS
 62
     4
 10
309.1557922
 20
449.7999878
 30
0.0
 40
0.5000000
 50
270.0000000
 51
0.0000000
  0
ARC
  8
VIEW
  6
CONTINUOUS
 62
     4
 10
322.1557922
 20
449.7999878
 30
0.0
 40
0.5000000
 50
180.0000000
 51
270.0000000
  0
LINE
  8
VIEW
  6
CONTINUOUS
 62
     4
 10
292.4558105
 20
404.2999878
 30
0.0
 11
292.4558105
 21
445.2999878
 31
0.0
 62
     4
  0
LINE
  8
VIEW
  6
CONTINUOUS
 62
     4
 10
338.8558044
 20
445.2999878
 30
0.0
 11
338.8558044
 21
404.2999878
 31
0.0
 62
     4
  0
ARC
  8
VIEW
  6
CONTINUOUS
 62
     4
 10
296.4558105
 20
445.2999878
 30
0.0
 40
4.0000000
 50
90.0000000
 51
180.0000000
  0
ENDBLK
  0
BLOCK
  8
0
  2
DXF276
 70
    64
 10
0.0
 20
0.0
 30
0.0
  3
DXF276
  0
LINE
  8
0
  6
CONTINUOUS
 62
     4
 10
409.1557007
 20
285.0000000
 30
0.0
 11
409.7745056
 21
284.6427002
 31
0.0
 62
     4
  0
LINE
  8
0
  6
CONTINUOUS
 62
     4
 10
407.6557007
 20
256.7999878
 30
0.0
 11
407.6557007
 21
255.3999939
 31
0.0
 62
     4
  0
LINE
  8
0
  6
CONTINUOUS
 62
     4
 10
402.6557007
 20
256.7999878
 30
0.0
 11
402.6557007
 21
255.3999939
 31
0.0
 62
     4
  0
LINE
  8
0
  6
CONTINUOUS
 62
     4
 10
402.6557007
 20
255.3999939
 30
0.0
 11
403.5557861
 21
254.5000000
 31
0.0
 62
     4
  0
LINE
  8
0
  6
CONTINUOUS
 62
     4
 10
400.5369873
 20
281.5000000
 30
0.0
 11
409.7745056
 21
281.5000000
 31
0.0
 62
     4
  0
LINE
  8
0
  6
CONTINUOUS
 62
     4
 10
403.5557861
 20
254.5000000
 30
0.0
 11
406.7557983
 21
254.5000000
 31
0.0
 62
     4
  0
LINE
  8
0
  6
CONTINUOUS
 62
     4
 10
406.7557983
 20
254.5000000
 30
0.0
 11
407.6557007
 21
255.3999939
 31
0.0
 62
     4
  0
LINE
  8
0
  6
CONTINUOUS
 62
     4
 10
401.1557922
 20
285.0000000
 30
0.0
 11
409.1557007
 21
285.0000000
 31
0.0
 62
     4
  0
LINE
  8
0
  6
CONTINUOUS
 62
     4
 10
409.7745056
 20
284.6427002
 30
0.0
 11
409.7745056
 21
281.5000000
 31
0.0
 62
     4
  0
LINE
  8
0
  6
CONTINUOUS
 62
     4
 10
400.5369873
 20
284.6427002
 30
0.0
 11
400.5369873
 21
281.5000000
 31
0.0
 62
     4
  0
LINE
  8
0
  6
CONTINUOUS
 62
     4
 10
401.1557922
 20
285.0000000
 30
0.0
 11
400.5369873
 21
284.6427002
 31
0.0
 62
     4
  0
ARC
  8
0
  6
CONTINUOUS
 62
     4
 10
405.1557007
 20
278.0718079
 30
0.0
 40
6.9282041
 50
70.5288086
 51
109.4711990
  0
LINE
  8
0
  6
CONTINUOUS
 62
     4
 10
402.8464050
 20
284.6036987
 30
0.0
 11
402.8464050
 21
281.5000000
 31
0.0
 62
     4
  0
LINE
  8
0
  6
CONTINUOUS
 62
     4
 10
407.4652100
 20
284.6036987
 30
0.0
 11
407.4652100
 21
281.5000000
 31
0.0
 62
     4
  0
ARC
  8
0
  6
CONTINUOUS
 62
     4
 10
401.1557922
 20
281.1951904
 30
0.0
 40
3.8047581
 50
63.6189919
 51
90.0000000
  0
ARC
  8
0
  6
CONTINUOUS
 62
     4
 10
409.1557007
 20
281.1951904
 30
0.0
 40
3.8047581
 50
90.0000000
 51
116.3809967
  0
LINE
  8
0
  6
CONTINUOUS
 62
     4
 10
403.5557861
 20
256.7999878
 30
0.0
 11
403.5557861
 21
254.5000000
 31
0.0
 62
     4
  0
LINE
  8
0
  6
CONTINUOUS
 62
     4
 10
406.7557983
 20
256.7999878
 30
0.0
 11
406.7557983
 21
254.5000000
 31
0.0
 62
     4
  0
LINE
  8
0
  6
CONTINUOUS
 62
     4
 10
402.6557007
 20
255.3999939
 30
0.0
 11
407.6557007
 21
255.3999939
 31
0.0
 62
     4
  0
ENDBLK
  0
BLOCK
  8
0
  2
DXF277
 70
    64
 10
0.0
 20
0.0
 30
0.0
  3
DXF277
  0
LINE
  8
0
  6
CONTINUOUS
 62
     4
 10
306.1557922
 20
285.0000000
 30
0.0
 11
306.7745056
 21
284.6427002
 31
0.0
 62
     4
  0
LINE
  8
0
  6
CONTINUOUS
 62
     4
 10
304.6557922
 20
256.7999878
 30
0.0
 11
304.6557922
 21
255.3999939
 31
0.0
 62
     4
  0
LINE
  8
0
  6
CONTINUOUS
 62
     4
 10
299.6557922
 20
256.7999878
 30
0.0
 11
299.6557922
 21
255.3999939
 31
0.0
 62
     4
  0
LINE
  8
0
  6
CONTINUOUS
 62
     4
 10
299.6557922
 20
255.3999939
 30
0.0
 11
300.5557861
 21
254.5000000
 31
0.0
 62
     4
  0
LINE
  8
0
  6
CONTINUOUS
 62
     4
 10
297.5369873
 20
281.5000000
 30
0.0
 11
306.7745056
 21
281.5000000
 31
0.0
 62
     4
  0
LINE
  8
0
  6
CONTINUOUS
 62
     4
 10
300.5557861
 20
254.5000000
 30
0.0
 11
303.7557983
 21
254.5000000
 31
0.0
 62
     4
  0
LINE
  8
0
  6
CONTINUOUS
 62
     4
 10
303.7557983
 20
254.5000000
 30
0.0
 11
304.6557922
 21
255.3999939
 31
0.0
 62
     4
  0
LINE
  8
0
  6
CONTINUOUS
 62
     4
 10
298.1557922
 20
285.0000000
 30
0.0
 11
306.1557922
 21
285.0000000
 31
0.0
 62
     4
  0
LINE
  8
0
  6
CONTINUOUS
 62
     4
 10
306.7745056
 20
284.6427002
 30
0.0
 11
306.7745056
 21
281.5000000
 31
0.0
 62
     4
  0
LINE
  8
0
  6
CONTINUOUS
 62
     4
 10
297.5369873
 20
284.6427002
 30
0.0
 11
297.5369873
 21
281.5000000
 31
0.0
 62
     4
  0
LINE
  8
0
  6
CONTINUOUS
 62
     4
 10
298.1557922
 20
285.0000000
 30
0.0
 11
297.5369873
 21
284.6427002
 31
0.0
 62
     4
  0
ARC
  8
0
  6
CONTINUOUS
 62
     4
 10
302.1557922
 20
278.0718079
 30
0.0
 40
6.9282041
 50
70.5288086
 51
109.4711990
  0
LINE
  8
0
  6
CONTINUOUS
 62
     4
 10
299.8464050
 20
284.6036987
 30
0.0
 11
299.8464050
 21
281.5000000
 31
0.0
 62
     4
  0
LINE
  8
0
  6
CONTINUOUS
 62
     4
 10
304.4652100
 20
284.6036987
 30
0.0
 11
304.4652100
 21
281.5000000
 31
0.0
 62
     4
  0
ARC
  8
0
  6
CONTINUOUS
 62
     4
 10
298.1557922
 20
281.1951904
 30
0.0
 40
3.8047581
 50
63.6189919
 51
90.0000000
  0
ARC
  8
0
  6
CONTINUOUS
 62
     4
 10
306.1557922
 20
281.1951904
 30
0.0
 40
3.8047581
 50
90.0000000
 51
116.3809967
  0
LINE
  8
0
  6
CONTINUOUS
 62
     4
 10
300.5557861
 20
256.7999878
 30
0.0
 11
300.5557861
 21
254.5000000
 31
0.0
 62
     4
  0
LINE
  8
0
  6
CONTINUOUS
 62
     4
 10
303.7557983
 20
256.7999878
 30
0.0
 11
303.7557983
 21
254.5000000
 31
0.0
 62
     4
  0
LINE
  8
0
  6
CONTINUOUS
 62
     4
 10
299.6557922
 20
255.3999939
 30
0.0
 11
304.6557922
 21
255.3999939
 31
0.0
 62
     4
  0
ENDBLK
  0
BLOCK
  8
0
  2
DXF278
 70
    64
 10
0.0
 20
0.0
 30
0.0
  3
DXF278
  0
LINE
  8
0
  6
CONTINUOUS
 62
     4
 10
306.1557922
 20
256.7999878
 30
0.0
 11
306.7745056
 21
257.1571960
 31
0.0
 62
     4
  0
LINE
  8
0
  6
CONTINUOUS
 62
     4
 10
298.1557922
 20
256.7999878
 30
0.0
 11
306.1557922
 21
256.7999878
 31
0.0
 62
     4
  0
LINE
  8
0
  6
CONTINUOUS
 62
     4
 10
298.1557922
 20
256.7999878
 30
0.0
 11
297.5368958
 21
257.1571960
 31
0.0
 62
     4
  0
ARC
  8
0
  6
CONTINUOUS
 62
     4
 10
302.1557922
 20
263.7282104
 30
0.0
 40
6.9282041
 50
250.5287933
 51
289.4711914
  0
ARC
  8
0
  6
CONTINUOUS
 62
     4
 10
298.1557922
 20
260.6047058
 30
0.0
 40
3.8047581
 50
270.0000000
 51
296.3810120
  0
ARC
  8
0
  6
CONTINUOUS
 62
     4
 10
306.1557922
 20
260.6047058
 30
0.0
 40
3.8047581
 50
243.6190033
 51
270.0000000
  0
LINE
  8
0
  6
CONTINUOUS
 62
     4
 10
306.1557922
 20
260.7999878
 30
0.0
 11
306.7745056
 21
260.4428101
 31
0.0
 62
     4
  0
LINE
  8
0
  6
CONTINUOUS
 62
     4
 10
298.1557922
 20
260.7999878
 30
0.0
 11
306.1557922
 21
260.7999878
 31
0.0
 62
     4
  0
LINE
  8
0
  6
CONTINUOUS
 62
     4
 10
306.7745056
 20
260.4428101
 30
0.0
 11
306.7745056
 21
257.1571960
 31
0.0
 62
     4
  0
LINE
  8
0
  6
CONTINUOUS
 62
     4
 10
297.5368958
 20
260.4428101
 30
0.0
 11
297.5368958
 21
257.1571960
 31
0.0
 62
     4
  0
LINE
  8
0
  6
CONTINUOUS
 62
     4
 10
298.1557922
 20
260.7999878
 30
0.0
 11
297.5368958
 21
260.4428101
 31
0.0
 62
     4
  0
ARC
  8
0
  6
CONTINUOUS
 62
     4
 10
302.1557922
 20
253.8717957
 30
0.0
 40
6.9282041
 50
70.5288086
 51
109.4711990
  0
LINE
  8
0
  6
CONTINUOUS
 62
     4
 10
299.8464050
 20
260.4038086
 30
0.0
 11
299.8464050
 21
257.1961975
 31
0.0
 62
     4
  0
LINE
  8
0
  6
CONTINUOUS
 62
     4
 10
304.4650879
 20
260.4038086
 30
0.0
 11
304.4650879
 21
257.1962891
 31
0.0
 62
     4
  0
ARC
  8
0
  6
CONTINUOUS
 62
     4
 10
298.1557922
 20
256.9953003
 30
0.0
 40
3.8047581
 50
63.6189919
 51
90.0000000
  0
ARC
  8
0
  6
CONTINUOUS
 62
     4
 10
306.1557922
 20
256.9953003
 30
0.0
 40
3.8047581
 50
90.0000000
 51
116.3809967
  0
ENDBLK
  0
ENDSEC
  0
SECTION
  2
ENTITIES
  0
LINE
  8
AREA
  6
CONTINUOUS
 62
     5
 10
250.6557007
 20
-79.9999771
 30
0.0
 11
295.6557007
 21
-79.9999771
 31
0.0
 62
     5
  0
INSERT
  8
AREA
  2
DXF2
 10
0.0
 20
0.0
 30
0.0
  0
LINE
  8
AREA
  6
CENTER
 62
     5
 10
307.6557007
 20
-65.6989899
 30
0.0
 11
307.6557007
 21
-83.6975937
 31
0.0
 62
     5
  0
LINE
  8
AREA
  6
CONTINUOUS
 62
     5
 10
295.6557007
 20
-78.4999771
 30
0.0
 11
295.6557007
 21
-79.9999771
 31
0.0
 62
     5
  0
LINE
  8
AREA
  6
CONTINUOUS
 62
     5
 10
317.6557007
 20
-66.0346832
 30
0.0
 11
317.6557007
 21
-76.4999771
 31
0.0
 62
     5
  0
INSERT
  8
AREA
  2
DXF6
 10
0.0
 20
0.0
 30
0.0
  0
LINE
  8
AREA
  6
CONTINUOUS
 62
     5
 10
273.6557007
 20
117.0000000
 30
0.0
 11
250.6557007
 21
117.0000000
 31
0.0
 62
     5
  0
ARC
  8
AREA
  6
CONTINUOUS
 62
     5
 10
274.6557007
 20
90.0000000
 30
0.0
 40
5.0000000
 50
475.3771973
 51
180.0000000
  0
LINE
  8
AREA
  6
CONTINUOUS
 62
     5
 10
273.6557007
 20
117.0000000
 30
0.0
 11
273.6557007
 21
96.3246002
 31
0.0
 62
     5
  0
LINE
  8
AREA
  6
CONTINUOUS
 62
     5
 10
279.7518005
 20
86.2911987
 30
0.0
 11
273.9682007
 21
94.5534973
 31
0.0
 62
     5
  0
INSERT
  8
AREA
  2
DXF11
 10
0.0
 20
0.0
 30
0.0
  0
ARC
  8
AREA
  6
CONTINUOUS
 62
     5
 10
271.6557007
 20
96.3246002
 30
0.0
 40
2.0000000
 50
295.3771057
 51
360.0000000
  0
ARC
  8
AREA
  6
CONTINUOUS
 62
     5
 10
275.6065979
 20
95.7004089
 30
0.0
 40
2.0000000
 50
531.0233154
 51
214.9920044
  0
LINE
  8
AREA
  6
CENTER
 62
     5
 10
303.3309021
 20
52.6753998
 30
0.0
 11
283.2507019
 21
32.5951996
 31
0.0
 62
     5
  0
CIRCLE
  8
AREA
  6
CONTINUOUS
 62
     5
 10
293.0820007
 20
42.4264107
 30
0.0
 40
9.5000000
  0
LINE
  8
AREA
  6
CENTER
 62
     5
 10
303.3309021
 20
-52.6753082
 30
0.0
 11
283.2507019
 21
-32.5951118
 31
0.0
 62
     5
  0
CIRCLE
  8
AREA
  6
CONTINUOUS
 62
     5
 10
293.0820007
 20
-42.4264107
 30
0.0
 40
9.5000000
  0
LINE
  8
AREA
  6
CONTINUOUS
 62
     5
 10
293.6207886
 20
-64.4999771
 30
0.0
 11
315.6557007
 21
-64.4999771
 31
0.0
 62
     5
  0
INSERT
  8
AREA
  2
DXF19
 10
0.0
 20
0.0
 30
0.0
  0
LINE
  8
AREA
  6
CONTINUOUS
 62
     5
 10
317.6557007
 20
-66.0346832
 30
0.0
 11
317.6557007
 21
-76.4999771
 31
0.0
 62
     5
  0
INSERT
  8
AREA
  2
DXF21
 10
0.0
 20
0.0
 30
0.0
  0
CIRCLE
  8
WORKLAYER
  6
CONTINUOUS
 62
     4
 10
250.6557007
 20
0.0000000
 30
0.0
 40
77.5000000
  0
INSERT
  8
AREA
  2
DXF23
 10
0.0
 20
0.0
 30
0.0
  0
LINE
  8
AREA
  6
CONTINUOUS
 62
     5
 10
269.6557007
 20
90.0000000
 30
0.0
 11
269.6557007
 21
75.1349030
 31
0.0
 62
     5
  0
INSERT
  8
AREA
  2
DXF25
 10
0.0
 20
0.0
 30
0.0
  0
LINE
  8
AREA
  6
CENTER
 62
     5
 10
332.6903076
 20
-0.0000000
 30
0.0
 11
169.2227020
 21
0.0000000
 31
0.0
 62
     5
  0
LINE
  8
AREA
  6
CONTINUOUS
 62
     5
 10
250.6557007
 20
-79.9999771
 30
0.0
 11
205.6557007
 21
-79.9999771
 31
0.0
 62
     5
  0
INSERT
  8
AREA
  2
DXF28
 10
0.0
 20
0.0
 30
0.0
  0
LINE
  8
AREA
  6
CONTINUOUS
 62
     5
 10
205.6557007
 20
-78.4999771
 30
0.0
 11
205.6557007
 21
-79.9999771
 31
0.0
 62
     5
  0
LINE
  8
AREA
  6
CONTINUOUS
 62
     5
 10
183.6557007
 20
-66.0346832
 30
0.0
 11
183.6557007
 21
-76.4999771
 31
0.0
 62
     5
  0
INSERT
  8
AREA
  2
DXF31
 10
0.0
 20
0.0
 30
0.0
  0
LINE
  8
AREA
  6
CONTINUOUS
 62
     5
 10
207.6905975
 20
-64.4999771
 30
0.0
 11
185.6557007
 21
-64.4999771
 31
0.0
 62
     5
  0
INSERT
  8
AREA
  2
DXF33
 10
0.0
 20
0.0
 30
0.0
  0
LINE
  8
AREA
  6
CONTINUOUS
 62
     5
 10
183.6557007
 20
-66.0346832
 30
0.0
 11
183.6557007
 21
-76.4999771
 31
0.0
 62
     5
  0
INSERT
  8
AREA
  2
DXF35
 10
0.0
 20
0.0
 30
0.0
  0
LINE
  8
AREA
  6
CONTINUOUS
 62
     5
 10
231.6557007
 20
90.0000000
 30
0.0
 11
231.6557007
 21
75.1349030
 31
0.0
 62
     5
  0
INSERT
  8
AREA
  2
DXF37
 10
0.0
 20
0.0
 30
0.0
  0
LINE
  8
AREA
  6
CONTINUOUS
 62
     5
 10
227.6557007
 20
117.0000000
 30
0.0
 11
250.6557007
 21
117.0000000
 31
0.0
 62
     5
  0
ARC
  8
AREA
  6
CONTINUOUS
 62
     5
 10
226.6557007
 20
90.0000000
 30
0.0
 40
5.0000000
 50
360.0000000
 51
424.6228027
  0
LINE
  8
AREA
  6
CONTINUOUS
 62
     5
 10
227.6557007
 20
117.0000000
 30
0.0
 11
227.6557007
 21
96.3246002
 31
0.0
 62
     5
  0
LINE
  8
AREA
  6
CONTINUOUS
 62
     5
 10
221.5596008
 20
86.2911987
 30
0.0
 11
227.3432007
 21
94.5534973
 31
0.0
 62
     5
  0
INSERT
  8
AREA
  2
DXF42
 10
0.0
 20
0.0
 30
0.0
  0
ARC
  8
AREA
  6
CONTINUOUS
 62
     5
 10
229.6557007
 20
96.3246002
 30
0.0
 40
2.0000000
 50
180.0000000
 51
244.6228943
  0
ARC
  8
AREA
  6
CONTINUOUS
 62
     5
 10
225.7048035
 20
95.7004089
 30
0.0
 40
2.0000000
 50
325.0079956
 51
368.9767151
  0
INSERT
  8
AREA
  2
DXF45
 10
0.0
 20
0.0
 30
0.0
  0
LINE
  8
AREA
  6
CENTER
 62
     5
 10
197.9804993
 20
52.6753998
 30
0.0
 11
218.0606995
 21
32.5951996
 31
0.0
 62
     5
  0
CIRCLE
  8
AREA
  6
CONTINUOUS
 62
     5
 10
208.2294006
 20
42.4264107
 30
0.0
 40
9.5000000
  0
LINE
  8
AREA
  6
CENTER
 62
     5
 10
197.9804993
 20
-52.6753082
 30
0.0
 11
218.0606995
 21
-32.5951118
 31
0.0
 62
     5
  0
CIRCLE
  8
AREA
  6
CONTINUOUS
 62
     5
 10
208.2294006
 20
-42.4264107
 30
0.0
 40
9.5000000
  0
CIRCLE
  8
AREA
  6
CENTER
 62
     5
 10
250.6557007
 20
0.0000000
 30
0.0
 40
60.0000000
  0
CIRCLE
  8
WORKLAYER
  6
CONTINUOUS
 62
     4
 10
250.6557007
 20
0.0000000
 30
0.0
 40
25.0000000
  0
LINE
  8
AREA
  6
CONTINUOUS
 62
     5
 10
205.6557007
 20
-78.4999771
 30
0.0
 11
205.6557007
 21
-81.0000000
 31
0.0
 62
     5
  0
LINE
  8
AREA
  6
CONTINUOUS
 62
     5
 10
295.6557007
 20
-78.4999771
 30
0.0
 11
295.6557007
 21
-81.0000000
 31
0.0
 62
     5
  0
INSERT
  8
AREA
  2
DXF54
 10
0.0
 20
0.0
 30
0.0
  0
INSERT
  8
AREA
  2
DXF55
 10
0.0
 20
0.0
 30
0.0
  0
LINE
  8
AREA
  6
CENTER
 62
     5
 10
250.6557007
 20
-206.5892029
 30
0.0
 11
250.6557007
 21
224.3970947
 31
0.0
 62
     5
  0
LINE
  8
AREA
  6
CONTINUOUS
 62
     5
 10
234.2557983
 20
149.0000000
 30
0.0
 11
244.6356049
 21
149.0000000
 31
0.0
 62
     5
  0
LINE
  8
AREA
  6
CONTINUOUS
 62
     5
 10
233.2557983
 20
148.0000000
 30
0.0
 11
244.2315979
 21
148.0000000
 31
0.0
 62
     5
  0
INSERT
  8
AREA
  2
DXF59
 10
0.0
 20
0.0
 30
0.0
  0
INSERT
  8
WORKLAYER
  2
DXF60
 10
0.0
 20
0.0
 30
0.0
  0
LINE
  8
AREA
  6
CONTINUOUS
 62
     2
 10
30.0000000
 20
-36.0000000
 30
0.0
 11
22.0000000
 21
-39.0000000
 31
0.0
 62
     2
  0
LINE
  8
AREA
  6
CONTINUOUS
 62
     2
 10
30.0000000
 20
-36.0000000
 30
0.0
 11
22.0000000
 21
-33.0000000
 31
0.0
 62
     2
  0
LINE
  8
AREA
  6
CENTER
 62
     6
 10
-99.5977783
 20
59.9999809
 30
0.0
 11
-132.8834991
 21
59.9999809
 31
0.0
 62
     6
  0
INSERT
  8
AREA
  2
DXF64
 10
0.0
 20
0.0
 30
0.0
  0
LINE
  8
AREA
  6
CONTINUOUS
 62
     5
 10
127.0000000
 20
0.0000000
 30
0.0
 11
127.0000000
 21
-77.5000000
 31
0.0
 62
     5
  0
LINE
  8
AREA
  6
CONTINUOUS
 62
     5
 10
66.3972778
 20
-64.5000000
 30
0.0
 11
-66.2824707
 21
-64.5000000
 31
0.0
 62
     5
  0
LINE
  8
AREA
  6
CONTINUOUS
 62
     5
 10
67.0000000
 20
-66.0347137
 30
0.0
 11
67.0000000
 21
-76.5000000
 31
0.0
 62
     5
  0
INSERT
  8
AREA
  2
DXF68
 10
0.0
 20
0.0
 30
0.0
  0
ARC
  8
AREA
  6
CONTINUOUS
 62
     5
 10
-88.3784180
 20
4.7396998
 30
0.0
 40
64.0000000
 50
372.6011963
 51
418.5881042
  0
INSERT
  8
AREA
  2
DXF70
 10
0.0
 20
0.0
 30
0.0
  0
INSERT
  8
AREA
  2
DXF71
 10
0.0
 20
0.0
 30
0.0
  0
LINE
  8
AREA
  6
CONTINUOUS
 62
     5
 10
107.0000000
 20
0.0000000
 30
0.0
 11
107.0000000
 21
-75.5000000
 31
0.0
 62
     5
  0
ARC
  8
AREA
  6
CONTINUOUS
 62
     5
 10
-24.9509907
 20
95.7003937
 30
0.0
 40
2.0000000
 50
325.0079956
 51
368.9767151
  0
LINE
  8
AREA
  6
CENTER
 62
     6
 10
99.5977783
 20
-60.0000000
 30
0.0
 11
131.5951996
 21
-60.0000000
 31
0.0
 62
     6
  0
INSERT
  8
AREA
  2
DXF75
 10
0.0
 20
0.0
 30
0.0
  0
INSERT
  8
AREA
  2
DXF76
 10
0.0
 20
0.0
 30
0.0
  0
LINE
  8
AREA
  6
CONTINUOUS
 62
     5
 10
-67.0000000
 20
-66.0347137
 30
0.0
 11
-67.0000000
 21
-76.5000000
 31
0.0
 62
     5
  0
INSERT
  8
AREA
  2
DXF78
 10
0.0
 20
0.0
 30
0.0
  0
LINE
  8
AREA
  6
CONTINUOUS
 62
     5
 10
-92.0000000
 20
41.5002899
 30
0.0
 11
-61.9343300
 21
63.0208893
 31
0.0
 62
     5
  0
INSERT
  8
AREA
  2
DXF80
 10
0.0
 20
0.0
 30
0.0
  0
ARC
  8
AREA
  6
CONTINUOUS
 62
     5
 10
106.1230011
 20
0.4812927
 30
0.0
 40
64.0000000
 50
181.6329956
 51
226.1920013
  0
INSERT
  8
AREA
  2
DXF82
 10
0.0
 20
0.0
 30
0.0
  0
ARC
  8
AREA
  6
CONTINUOUS
 62
     5
 10
-43.3087807
 20
36.9999809
 30
0.0
 40
32.0000000
 50
450.0000000
 51
485.5946960
  0
INSERT
  8
AREA
  2
DXF84
 10
0.0
 20
0.0
 30
0.0
  0
INSERT
  8
AREA
  2
DXF85
 10
0.0
 20
0.0
 30
0.0
  0
LINE
  8
AREA
  6
CONTINUOUS
 62
     5
 10
127.0000000
 20
0.0000000
 30
0.0
 11
127.0000000
 21
77.4999771
 31
0.0
 62
     5
  0
INSERT
  8
AREA
  2
DXF87
 10
0.0
 20
0.0
 30
0.0
  0
LINE
  8
AREA
  6
CONTINUOUS
 62
     5
 10
-103.6211014
 20
-35.8420105
 30
0.0
 11
-92.0000000
 21
-31.8591003
 31
0.0
 62
     5
  0
INSERT
  8
AREA
  2
DXF89
 10
0.0
 20
0.0
 30
0.0
  0
ARC
  8
AREA
  6
CONTINUOUS
 62
     5
 10
-95.0000000
 20
0.0000000
 30
0.0
 40
32.0000000
 50
275.3793945
 51
305.5946960
  0
INSERT
  8
AREA
  2
DXF91
 10
0.0
 20
0.0
 30
0.0
  0
INSERT
  8
AREA
  2
DXF92
 10
0.0
 20
0.0
 30
0.0
  0
LINE
  8
AREA
  6
CONTINUOUS
 62
     5
 10
-33.0000000
 20
11.9999800
 30
0.0
 11
32.5000000
 21
11.9999800
 31
0.0
 62
     5
  0
INSERT
  8
AREA
  2
DXF94
 10
0.0
 20
0.0
 30
0.0
  0
LINE
  8
AREA
  6
CENTER
 62
     6
 10
-99.5977783
 20
-60.0000000
 30
0.0
 11
-132.8834991
 21
-60.0000000
 31
0.0
 62
     6
  0
INSERT
  8
AREA
  2
DXF96
 10
0.0
 20
0.0
 30
0.0
  0
LINE
  8
AREA
  6
CONTINUOUS
 62
     5
 10
-33.0000000
 20
7.0000000
 30
0.0
 11
32.5000000
 21
7.0000000
 31
0.0
 62
     5
  0
INSERT
  8
AREA
  2
DXF98
 10
0.0
 20
0.0
 30
0.0
  0
LINE
  8
AREA
  6
CONTINUOUS
 62
     5
 10
65.0000000
 20
-59.4014091
 30
0.0
 11
65.0000000
 21
-55.2548103
 31
0.0
 62
     5
  0
INSERT
  8
AREA
  2
DXF100
 10
0.0
 20
0.0
 30
0.0
  0
LINE
  8
AREA
  6
CONTINUOUS
 62
     5
 10
-127.0000000
 20
0.0000000
 30
0.0
 11
-127.0000000
 21
77.4999771
 31
0.0
 62
     5
  0
LINE
  8
AREA
  6
CONTINUOUS
 62
     5
 10
-107.0000000
 20
0.0000000
 30
0.0
 11
-107.0000000
 21
75.4999771
 31
0.0
 62
     5
  0
LINE
  8
AREA
  6
CONTINUOUS
 62
     5
 10
92.0000000
 20
0.0000000
 30
0.0
 11
92.0000000
 21
28.7448902
 31
0.0
 62
     5
  0
INSERT
  8
AREA
  2
DXF104
 10
0.0
 20
0.0
 30
0.0
  0
LINE
  8
AREA
  6
CONTINUOUS
 62
     5
 10
-127.0000000
 20
0.0000000
 30
0.0
 11
-127.0000000
 21
-77.5000000
 31
0.0
 62
     5
  0
INSERT
  8
AREA
  2
DXF106
 10
0.0
 20
0.0
 30
0.0
  0
LINE
  8
AREA
  6
CENTER
 62
     6
 10
99.5977783
 20
59.9999809
 30
0.0
 11
131.5951996
 21
59.9999809
 31
0.0
 62
     6
  0
INSERT
  8
AREA
  2
DXF108
 10
0.0
 20
0.0
 30
0.0
  0
INSERT
  8
AREA
  2
DXF109
 10
0.0
 20
0.0
 30
0.0
  0
INSERT
  8
AREA
  2
DXF110
 10
0.0
 20
0.0
 30
0.0
  0
LINE
  8
AREA
  6
CONTINUOUS
 62
     5
 10
23.0000000
 20
117.0000000
 30
0.0
 11
0.0000000
 21
117.0000000
 31
0.0
 62
     5
  0
ARC
  8
AREA
  6
CONTINUOUS
 62
     5
 10
24.0000000
 20
89.9999771
 30
0.0
 40
5.0000000
 50
475.3771973
 51
180.0000000
  0
LINE
  8
AREA
  6
CONTINUOUS
 62
     5
 10
23.0000000
 20
117.0000000
 30
0.0
 11
23.0000000
 21
96.3246002
 31
0.0
 62
     5
  0
LINE
  8
AREA
  6
CONTINUOUS
 62
     5
 10
29.0961304
 20
86.2911835
 30
0.0
 11
23.3125000
 21
94.5534821
 31
0.0
 62
     5
  0
INSERT
  8
AREA
  2
DXF115
 10
0.0
 20
0.0
 30
0.0
  0
ARC
  8
AREA
  6
CONTINUOUS
 62
     5
 10
24.9509296
 20
95.7003937
 30
0.0
 40
2.0000000
 50
531.0233154
 51
214.9920044
  0
ARC
  8
AREA
  6
CONTINUOUS
 62
     5
 10
21.0000000
 20
96.3246002
 30
0.0
 40
2.0000000
 50
295.3771057
 51
360.0000000
  0
INSERT
  8
AREA
  2
DXF118
 10
0.0
 20
0.0
 30
0.0
  0
INSERT
  8
AREA
  2
DXF119
 10
0.0
 20
0.0
 30
0.0
  0
ARC
  8
AREA
  6
CONTINUOUS
 62
     5
 10
-21.0000000
 20
96.3246002
 30
0.0
 40
2.0000000
 50
180.0000000
 51
244.6228943
  0
INSERT
  8
AREA
  2
DXF121
 10
0.0
 20
0.0
 30
0.0
  0
INSERT
  8
AREA
  2
DXF122
 10
0.0
 20
0.0
 30
0.0
  0
LINE
  8
AREA
  6
CONTINUOUS
 62
     5
 10
-23.0000000
 20
117.0000000
 30
0.0
 11
0.0000000
 21
117.0000000
 31
0.0
 62
     5
  0
ARC
  8
AREA
  6
CONTINUOUS
 62
     5
 10
-24.0000000
 20
89.9999771
 30
0.0
 40
5.0000000
 50
360.0000000
 51
424.6228027
  0
LINE
  8
AREA
  6
CONTINUOUS
 62
     5
 10
-23.0000000
 20
117.0000000
 30
0.0
 11
-23.0000000
 21
96.3246002
 31
0.0
 62
     5
  0
LINE
  8
AREA
  6
CONTINUOUS
 62
     5
 10
-29.0961895
 20
86.2911835
 30
0.0
 11
-23.3125000
 21
94.5534821
 31
0.0
 62
     5
  0
INSERT
  8
AREA
  2
DXF127
 10
0.0
 20
0.0
 30
0.0
  0
LINE
  8
AREA
  6
CONTINUOUS
 62
     5
 10
-92.0000000
 20
0.0000000
 30
0.0
 11
-92.0000000
 21
-31.4876099
 31
0.0
 62
     5
  0
LINE
  8
AREA
  6
CONTINUOUS
 62
     5
 10
-92.0000000
 20
0.0000000
 30
0.0
 11
-92.0000000
 21
41.1045990
 31
0.0
 62
     5
  0
LINE
  8
AREA
  6
CONTINUOUS
 62
     5
 10
92.0000000
 20
0.0000000
 30
0.0
 11
92.0000000
 21
-39.9657097
 31
0.0
 62
     5
  0
LINE
  8
AREA
  6
CONTINUOUS
 62
     5
 10
22.0000000
 20
-38.0000000
 30
0.0
 11
17.0000000
 21
-38.0000000
 31
0.0
 62
     5
  0
INSERT
  8
AREA
  2
DXF132
 10
0.0
 20
0.0
 30
0.0
  0
INSERT
  8
AREA
  2
DXF133
 10
0.0
 20
0.0
 30
0.0
  0
LINE
  8
AREA
  6
CONTINUOUS
 62
     5
 10
-2.0000000
 20
-55.0000000
 30
0.0
 11
2.0000000
 21
-55.0000000
 31
0.0
 62
     5
  0
LINE
  8
AREA
  6
CONTINUOUS
 62
     5
 10
-20.0000000
 20
-34.0000000
 30
0.0
 11
-20.0000000
 21
-38.0000000
 31
0.0
 62
     5
  0
LINE
  8
AREA
  6
CONTINUOUS
 62
     5
 10
22.0000000
 20
-34.0000000
 30
0.0
 11
22.0000000
 21
-33.0000000
 31
0.0
 62
     5
  0
LINE
  8
AREA
  6
CONTINUOUS
 62
     5
 10
-2.0000000
 20
-53.0000000
 30
0.0
 11
-2.0000000
 21
-55.0000000
 31
0.0
 62
     5
  0
LINE
  8
AREA
  6
CONTINUOUS
 62
     5
 10
2.0000000
 20
-53.0000000
 30
0.0
 11
2.0000000
 21
-55.0000000
 31
0.0
 62
     5
  0
LINE
  8
AREA
  6
CONTINUOUS
 62
     5
 10
22.0000000
 20
-38.0000000
 30
0.0
 11
22.0000000
 21
-39.0000000
 31
0.0
 62
     5
  0
LINE
  8
AREA
  6
CONTINUOUS
 62
     5
 10
-75.0000000
 20
8.4631805
 30
0.0
 11
-77.0000000
 21
8.4631805
 31
0.0
 62
     5
  0
LINE
  8
AREA
  6
CONTINUOUS
 62
     5
 10
-69.0000000
 20
8.4631805
 30
0.0
 11
-67.0000000
 21
8.4631805
 31
0.0
 62
     5
  0
LINE
  8
AREA
  6
CONTINUOUS
 62
     5
 10
-71.0000000
 20
24.4631805
 30
0.0
 11
-67.0000000
 21
8.4631805
 31
0.0
 62
     5
  0
INSERT
  8
AREA
  2
DXF143
 10
0.0
 20
0.0
 30
0.0
  0
LINE
  8
AREA
  6
CONTINUOUS
 62
     5
 10
-70.0000000
 20
12.4631796
 30
0.0
 11
-74.0000000
 21
12.4631796
 31
0.0
 62
     5
  0
LINE
  8
AREA
  6
CONTINUOUS
 62
     5
 10
-70.5000000
 20
14.4631796
 30
0.0
 11
-73.5000000
 21
14.4631796
 31
0.0
 62
     5
  0
LINE
  8
AREA
  6
CONTINUOUS
 62
     5
 10
-73.0000000
 20
24.4631805
 30
0.0
 11
-77.0000000
 21
8.4631805
 31
0.0
 62
     5
  0
INSERT
  8
AREA
  2
DXF147
 10
0.0
 20
0.0
 30
0.0
  0
LINE
  8
AREA
  6
CONTINUOUS
 62
     5
 10
-73.0000000
 20
24.4631805
 30
0.0
 11
-71.0000000
 21
24.4631805
 31
0.0
 62
     5
  0
INSERT
  8
AREA
  2
DXF149
 10
0.0
 20
0.0
 30
0.0
  0
LINE
  8
AREA
  6
CONTINUOUS
 62
     5
 10
78.0000000
 20
-8.4630127
 30
0.0
 11
73.0000000
 21
-8.4630127
 31
0.0
 62
     5
  0
LINE
  8
AREA
  6
CONTINUOUS
 62
     5
 10
82.0000000
 20
-19.4630108
 30
0.0
 11
82.0000000
 21
-20.4630108
 31
0.0
 62
     5
  0
ARC
  8
AREA
  6
CONTINUOUS
 62
     5
 10
78.0000000
 20
-19.4630108
 30
0.0
 40
4.0000000
 50
360.0000000
 51
408.5903931
  0
ARC
  8
AREA
  6
CONTINUOUS
 62
     5
 10
78.0000000
 20
-13.4630098
 30
0.0
 40
4.0000000
 50
311.4096069
 51
360.0000000
  0
LINE
  8
AREA
  6
CONTINUOUS
 62
     5
 10
68.0000000
 20
-8.4629059
 30
0.0
 11
72.0000000
 21
-24.4629097
 31
0.0
 62
     5
  0
LINE
  8
AREA
  6
CONTINUOUS
 62
     5
 10
69.0000000
 20
-20.4629097
 30
0.0
 11
65.0000000
 21
-20.4629097
 31
0.0
 62
     5
  0
LINE
  8
AREA
  6
CONTINUOUS
 62
     5
 10
68.5000000
 20
-18.4629097
 30
0.0
 11
65.5000000
 21
-18.4629097
 31
0.0
 62
     5
  0
LINE
  8
AREA
  6
CONTINUOUS
 62
     5
 10
66.0000000
 20
-8.4629059
 30
0.0
 11
62.0000000
 21
-24.4629097
 31
0.0
 62
     5
  0
LINE
  8
AREA
  6
CONTINUOUS
 62
     5
 10
66.0000000
 20
-8.4629059
 30
0.0
 11
68.0000000
 21
-8.4629059
 31
0.0
 62
     5
  0
LINE
  8
AREA
  6
CONTINUOUS
 62
     5
 10
70.0000000
 20
-24.4629097
 30
0.0
 11
72.0000000
 21
-24.4629097
 31
0.0
 62
     5
  0
LINE
  8
AREA
  6
CONTINUOUS
 62
     5
 10
64.0000000
 20
-24.4629097
 30
0.0
 11
62.0000000
 21
-24.4629097
 31
0.0
 62
     5
  0
INSERT
  8
AREA
  2
DXF161
 10
0.0
 20
0.0
 30
0.0
  0
INSERT
  8
AREA
  2
DXF162
 10
0.0
 20
0.0
 30
0.0
  0
LINE
  8
AREA
  6
CONTINUOUS
 62
     5
 10
75.0000000
 20
-17.4630108
 30
0.0
 11
75.0000000
 21
-22.4630108
 31
0.0
 62
     5
  0
INSERT
  8
AREA
  2
DXF164
 10
0.0
 20
0.0
 30
0.0
  0
LINE
  8
AREA
  6
CONTINUOUS
 62
     5
 10
73.0000000
 20
-8.4630127
 30
0.0
 11
73.0000000
 21
-24.4629097
 31
0.0
 62
     5
  0
LINE
  8
AREA
  6
CONTINUOUS
 62
     5
 10
75.0000000
 20
-17.4630108
 30
0.0
 11
78.0000000
 21
-17.4630108
 31
0.0
 62
     5
  0
LINE
  8
AREA
  6
CONTINUOUS
 62
     5
 10
75.0000000
 20
-15.4630098
 30
0.0
 11
78.0000000
 21
-15.4630098
 31
0.0
 62
     5
  0
LINE
  8
AREA
  6
CONTINUOUS
 62
     5
 10
75.0000000
 20
-22.4630108
 30
0.0
 11
78.0000000
 21
-22.4630108
 31
0.0
 62
     5
  0
LINE
  8
AREA
  6
CONTINUOUS
 62
     5
 10
75.0000000
 20
-10.4630098
 30
0.0
 11
78.0000000
 21
-10.4630098
 31
0.0
 62
     5
  0
LINE
  8
AREA
  6
CONTINUOUS
 62
     5
 10
75.0000000
 20
-10.4630098
 30
0.0
 11
75.0000000
 21
-15.4630098
 31
0.0
 62
     5
  0
INSERT
  8
AREA
  2
DXF171
 10
0.0
 20
0.0
 30
0.0
  0
ARC
  8
AREA
  6
CONTINUOUS
 62
     5
 10
78.0000000
 20
-12.4630098
 30
0.0
 40
4.0000000
 50
360.0000000
 51
450.0000000
  0
LINE
  8
AREA
  6
CONTINUOUS
 62
     5
 10
78.0000000
 20
-24.4629097
 30
0.0
 11
73.0000000
 21
-24.4629097
 31
0.0
 62
     5
  0
INSERT
  8
SSYMB
  2
DXF174
 10
0.0
 20
0.0
 30
0.0
  0
INSERT
  8
SSYMB
  2
DXF175
 10
0.0
 20
0.0
 30
0.0
  0
INSERT
  8
SSYMB
  2
DXF176
 10
0.0
 20
0.0
 30
0.0
  0
INSERT
  8
SSYMB
  2
DXF177
 10
0.0
 20
0.0
 30
0.0
  0
LINE
  8
AREA
  6
CENTER
 62
     5
 10
-139.3874969
 20
0.0000000
 30
0.0
 11
136.0845032
 21
0.0000000
 31
0.0
 62
     5
  0
LINE
  8
AREA
  6
CONTINUOUS
 62
     5
 10
-45.0000000
 20
-78.5000000
 30
0.0
 11
-45.0000000
 21
-81.0000000
 31
0.0
 62
     5
  0
LINE
  8
AREA
  6
CONTINUOUS
 62
     5
 10
45.0000000
 20
-78.5000000
 30
0.0
 11
45.0000000
 21
-81.0000000
 31
0.0
 62
     5
  0
INSERT
  8
AREA
  2
DXF181
 10
0.0
 20
0.0
 30
0.0
  0
INSERT
  8
AREA
  2
DXF182
 10
0.0
 20
0.0
 30
0.0
  0
LINE
  8
AREA
  6
CENTER
 62
     5
 10
0.0000000
 20
224.3970947
 30
0.0
 11
0.0000000
 21
-206.5892029
 31
0.0
 62
     5
  0
ARC
  8
0
  6
CONTINUOUS
 62
     3
 10
0.5947266
 20
36.3766899
 30
0.0
 40
4.3766980
 50
630.0000000
 51
360.0000000
  0
LINE
  8
0
  6
CONTINUOUS
 62
     3
 10
-15.6616201
 20
44.5049896
 30
0.0
 11
-4.4074101
 21
44.5049896
 31
0.0
 62
     3
  0
LINE
  8
0
  6
CONTINUOUS
 62
     3
 10
-4.4074101
 20
44.5049896
 30
0.0
 11
-4.4074101
 21
31.9999809
 31
0.0
 62
     3
  0
LINE
  8
0
  6
CONTINUOUS
 62
     3
 10
-15.6616201
 20
44.5049896
 30
0.0
 11
-4.4074101
 21
31.9999809
 31
0.0
 62
     3
  0
LINE
  8
0
  6
CONTINUOUS
 62
     3
 10
4.9713750
 20
44.5049896
 30
0.0
 11
4.9713750
 21
36.3766899
 31
0.0
 62
     3
  0
LINE
  8
0
  6
CONTINUOUS
 62
     3
 10
0.5947266
 20
31.9999809
 30
0.0
 11
-3.4694209
 21
31.9999809
 31
0.0
 62
     3
  0
LINE
  8
0
  6
CONTINUOUS
 62
     3
 10
-12.8480797
 20
19.4951000
 30
0.0
 11
-3.4694209
 21
31.9999809
 31
0.0
 62
     3
  0
LINE
  8
0
  6
CONTINUOUS
 62
     3
 10
-12.8480797
 20
19.4951000
 30
0.0
 11
-1.9063110
 21
19.4951000
 31
0.0
 62
     3
  0
LINE
  8
0
  6
CONTINUOUS
 62
     3
 10
16.5383892
 20
44.5049896
 30
0.0
 11
4.9713750
 21
44.5049896
 31
0.0
 62
     3
  0
LINE
  8
0
  6
CONTINUOUS
 62
     3
 10
16.5383892
 20
44.5049896
 30
0.0
 11
-1.9063110
 21
19.4951000
 31
0.0
 62
     3
  0
INSERT
  8
WORKLAYER
  2
DXF194
 10
0.0
 20
0.0
 30
0.0
  0
INSERT
  8
WORKLAYER
  2
DXF195
 10
0.0
 20
0.0
 30
0.0
  0
INSERT
  8
WORKLAYER
  2
DXF196
 10
0.0
 20
0.0
 30
0.0
  0
INSERT
  8
WORKLAYER
  2
DXF197
 10
0.0
 20
0.0
 30
0.0
  0
INSERT
  8
0
  2
DXF198
 10
0.0
 20
0.0
 30
0.0
  0
INSERT
  8
0
  2
DXF199
 10
0.0
 20
0.0
 30
0.0
  0
INSERT
  8
0
  2
DXF200
 10
0.0
 20
0.0
 30
0.0
  0
INSERT
  8
0
  2
DXF201
 10
0.0
 20
0.0
 30
0.0
  0
INSERT
  8
WORKLAYER
  2
DXF202
 10
0.0
 20
0.0
 30
0.0
  0
INSERT
  8
WORKLAYER
  2
DXF203
 10
0.0
 20
0.0
 30
0.0
  0
INSERT
  8
0
  2
DXF204
 10
0.0
 20
0.0
 30
0.0
  0
INSERT
  8
0
  2
DXF205
 10
0.0
 20
0.0
 30
0.0
  0
INSERT
  8
0
  2
DXF206
 10
0.0
 20
0.0
 30
0.0
  0
INSERT
  8
0
  2
DXF207
 10
0.0
 20
0.0
 30
0.0
  0
INSERT
  8
WORKLAYER
  2
DXF208
 10
0.0
 20
0.0
 30
0.0
  0
INSERT
  8
WORKLAYER
  2
DXF209
 10
0.0
 20
0.0
 30
0.0
  0
INSERT
  8
WORKLAYER
  2
DXF210
 10
0.0
 20
0.0
 30
0.0
  0
INSERT
  8
0
  2
DXF211
 10
0.0
 20
0.0
 30
0.0
  0
INSERT
  8
VIEW
  2
DXF212
 10
0.0
 20
0.0
 30
0.0
  0
INSERT
  8
VIEW
  2
DXF213
 10
0.0
 20
0.0
 30
0.0
  0
TEXT
  8
VIEW
 10
-9.7200012
 20
322.4500122
 30
0.0
 11
9.7199993
 21
322.4500122
 31
0.0
  1
CLOSED
  7
STANDARD
 40
3.0000000
 41
1.0800000
 50
0.0000000
 51
0.0000000
 62
     3
 72
     5
  0
INSERT
  8
VIEW
  2
DXF215
 10
0.0
 20
0.0
 30
0.0
  0
INSERT
  8
VIEW
  2
DXF216
 10
0.0
 20
0.0
 30
0.0
  0
INSERT
  8
0
  2
DXF217
 10
0.0
 20
0.0
 30
0.0
  0
INSERT
  8
VIEW
  2
DXF218
 10
0.0
 20
0.0
 30
0.0
  0
INSERT
  8
0
  2
DXF219
 10
0.0
 20
0.0
 30
0.0
  0
INSERT
  8
VIEW
  2
DXF220
 10
0.0
 20
0.0
 30
0.0
  0
INSERT
  8
VIEW
  2
DXF221
 10
0.0
 20
0.0
 30
0.0
  0
LINE
  8
VIEW
  6
CENTER
 62
     2
 10
0.0000000
 20
115.0000000
 30
0.0
 11
0.0000000
 21
458.2939148
 31
0.0
 62
     2
  0
INSERT
  8
VIEW
  2
DXF223
 10
0.0
 20
0.0
 30
0.0
  0
INSERT
  8
0
  2
DXF224
 10
0.0
 20
0.0
 30
0.0
  0
TEXT
  8
VIEW
 10
-6.7500000
 20
387.1499939
 30
0.0
 11
6.7500000
 21
387.1499939
 31
0.0
  1
OPEN
  7
STANDARD
 40
3.0000000
 41
1.1250000
 50
0.0000000
 51
0.0000000
 62
     3
 72
     5
  0
INSERT
  8
VIEW
  2
DXF226
 10
0.0
 20
0.0
 30
0.0
  0
TEXT
  8
VIEW
 10
-24.5700092
 20
310.2999878
 30
0.0
 11
24.5699902
 21
310.2999878
 31
0.0
  1
VALVE LINKAGE
  7
STANDARD
 40
4.0000000
 41
0.9450000
 50
0.0000000
 51
0.0000000
 62
     3
 72
     5
  0
INSERT
  8
VIEW
  2
DXF228
 10
0.0
 20
0.0
 30
0.0
  0
TEXT
  8
VIEW
 10
-20.0000000
 20
304.2999878
 30
0.0
 11
-12.7999992
 21
304.2999878
 31
0.0
  1
TYPE
  7
STANDARD
 40
2.0000000
 41
0.9000000
 50
0.0000000
 51
0.0000000
 62
     3
 72
     5
  0
INSERT
  8
VIEW
  2
DXF230
 10
0.0
 20
0.0
 30
0.0
  0
INSERT
  8
VIEW
  2
DXF231
 10
0.0
 20
0.0
 30
0.0
  0
INSERT
  8
WORKLAYER
  2
DXF232
 10
0.0
 20
0.0
 30
0.0
  0
INSERT
  8
VIEW
  2
DXF233
 10
0.0
 20
0.0
 30
0.0
  0
INSERT
  8
VIEW
  2
DXF234
 10
0.0
 20
0.0
 30
0.0
  0
INSERT
  8
VIEW
  2
DXF235
 10
0.0
 20
0.0
 30
0.0
  0
INSERT
  8
0
  2
DXF236
 10
0.0
 20
0.0
 30
0.0
  0
INSERT
  8
VIEW
  2
DXF237
 10
0.0
 20
0.0
 30
0.0
  0
INSERT
  8
VIEW
  2
DXF238
 10
0.0
 20
0.0
 30
0.0
  0
INSERT
  8
VIEW
  2
DXF239
 10
0.0
 20
0.0
 30
0.0
  0
LINE
  8
VIEW
  6
CONTINUOUS
 62
     4
 10
46.5000000
 20
265.2999878
 30
0.0
 11
47.5000000
 21
265.2999878
 31
0.0
 62
     4
  0
INSERT
  8
VIEW
  2
DXF241
 10
0.0
 20
0.0
 30
0.0
  0
INSERT
  8
VIEW
  2
DXF242
 10
0.0
 20
0.0
 30
0.0
  0
INSERT
  8
VIEW
  2
DXF243
 10
0.0
 20
0.0
 30
0.0
  0
INSERT
  8
VIEW
  2
DXF244
 10
0.0
 20
0.0
 30
0.0
  0
INSERT
  8
VIEW
  2
DXF245
 10
0.0
 20
0.0
 30
0.0
  0
INSERT
  8
VIEW
  2
DXF246
 10
0.0
 20
0.0
 30
0.0
  0
INSERT
  8
VIEW
  2
DXF247
 10
0.0
 20
0.0
 30
0.0
  0
INSERT
  8
VIEW
  2
DXF248
 10
0.0
 20
0.0
 30
0.0
  0
INSERT
  8
VIEW
  2
DXF249
 10
0.0
 20
0.0
 30
0.0
  0
INSERT
  8
VIEW
  2
DXF250
 10
0.0
 20
0.0
 30
0.0
  0
INSERT
  8
VIEW
  2
DXF251
 10
0.0
 20
0.0
 30
0.0
  0
INSERT
  8
WORKLAYER
  2
DXF252
 10
0.0
 20
0.0
 30
0.0
  0
POINT
  8
WORKLAYER
 10
351.3705139
 20
514.6428223
 30
0.0
 62
     1
  0
LINE
  8
VIEW
  6
CENTER
 62
     2
 10
250.6557007
 20
408.2999878
 30
0.0
 11
250.6557007
 21
115.0000000
 31
0.0
 62
     2
  0
INSERT
  8
VIEW
  2
DXF255
 10
0.0
 20
0.0
 30
0.0
  0
INSERT
  8
VIEW
  2
DXF256
 10
0.0
 20
0.0
 30
0.0
  0
INSERT
  8
VIEW
  2
DXF257
 10
0.0
 20
0.0
 30
0.0
  0
INSERT
  8
VIEW
  2
DXF258
 10
0.0
 20
0.0
 30
0.0
  0
INSERT
  8
VIEW
  2
DXF259
 10
0.0
 20
0.0
 30
0.0
  0
INSERT
  8
VIEW
  2
DXF260
 10
0.0
 20
0.0
 30
0.0
  0
INSERT
  8
VIEW
  2
DXF261
 10
0.0
 20
0.0
 30
0.0
  0
INSERT
  8
VIEW
  2
DXF262
 10
0.0
 20
0.0
 30
0.0
  0
INSERT
  8
VIEW
  2
DXF263
 10
0.0
 20
0.0
 30
0.0
  0
INSERT
  8
VIEW
  2
DXF264
 10
0.0
 20
0.0
 30
0.0
  0
INSERT
  8
VIEW
  2
DXF265
 10
0.0
 20
0.0
 30
0.0
  0
INSERT
  8
VIEW
  2
DXF266
 10
0.0
 20
0.0
 30
0.0
  0
INSERT
  8
VIEW
  2
DXF267
 10
0.0
 20
0.0
 30
0.0
  0
INSERT
  8
VIEW
  2
DXF268
 10
0.0
 20
0.0
 30
0.0
  0
INSERT
  8
VIEW
  2
DXF269
 10
0.0
 20
0.0
 30
0.0
  0
INSERT
  8
VIEW
  2
DXF270
 10
0.0
 20
0.0
 30
0.0
  0
INSERT
  8
VIEW
  2
DXF271
 10
0.0
 20
0.0
 30
0.0
  0
INSERT
  8
VIEW
  2
DXF272
 10
0.0
 20
0.0
 30
0.0
  0
INSERT
  8
0
  2
DXF273
 10
0.0
 20
0.0
 30
0.0
  0
INSERT
  8
VIEW
  2
DXF274
 10
0.0
 20
0.0
 30
0.0
  0
INSERT
  8
VIEW
  2
DXF275
 10
0.0
 20
0.0
 30
0.0
  0
INSERT
  8
0
  2
DXF276
 10
0.0
 20
0.0
 30
0.0
  0
INSERT
  8
0
  2
DXF277
 10
0.0
 20
0.0
 30
0.0
  0
INSERT
  8
0
  2
DXF278
 10
0.0
 20
0.0
 30
0.0
  0
ENDSEC
  0
EOF
