  0
SECTION
  2
HEADER
  9
$ACADVER 
  1
AC1006
  9
$INSBASE
 10
0.0
 20
0.0
 30
0.0
  9
$EXTMIN
 10
-139.3874969
 20
-206.5892029
  9
$EXTMAX
 10
332.6903076
 20
224.3970947
  9
$LIMMIN
 10
-139.3874969
 20
-206.5892029
  9
$LIMMAX
 10
332.6903076
 20
224.3970947
  9
$ORTHOMODE
 70
     0
  9
$REGENMODE
 70
     1
  9
$FILLMODE
 70
     1
  9
$QTEXTMODE
 70
     0
  9
$MIRRTEXT
 70
     1
  9
$DRAGMODE
 70
     2
  9
$LTSCALE
 40
1.0
  9
$OSMODE
 70
     0
  9
$ATTMODE
 70
     1
  9
$TEXTSIZE
 40
4.0
  9
$TRACEWID
 40
0.05
  9
$TEXTSTYLE
  7
STANDARD
  9
$CLAYER
  8
0
  9
$CELTYPE
  6
BYLAYER
  9
$CECOLOR
 62
   256
  9
$DIMSCALE
 40
1.0
  9
$DIMASZ
 40
0.18
  9
$DIMEXO
 40
0.0625
  9
$DIMDLI
 40
0.38
  9
$DIMRND
 40
0.0
  9
$DIMDLE
 40
0.0
  9
$DIMEXE
 40
0.18
  9
$DIMTP
 40
0.0
  9
$DIMTM
 40
0.0
  9
$DIMTXT
 40
0.18
  9
$DIMCEN
 40
0.09
  9
$DIMTSZ
 40
0.0
  9
$DIMTOL
 70
     0
  9
$DIMLIM
 70
     0
  9
$DIMTIH
 70
     1
  9
$DIMTOH
 70
     1
  9
$DIMSE1
 70
     0
  9
$DIMSE2
 70
     0
  9
$DIMTAD
 70
     0
  9
$DIMZIN
 70
     0
  9
$DIMBLK
  1

  9
$DIMASO
 70
     1
  9
$DIMSHO
 70
     0
  9
$DIMPOST
  1

  9
$DIMAPOST
  1

  9
$DIMALT
 70
     0
  9
$DIMALTD
 70
     2
  9
$DIMALTF
 40
25.4
  9
$DIMLFAC
 40
1.0
  9
$DIMTOFL
 70
     0
  9
$DIMTVP
 40
0.0
  9
$DIMTIX
 70
     0
  9
$DIMSOXD
 70
     0
  9
$DIMSAH
 70
     0
  9
$DIMBLK1
  1

  9
$DIMBLK2
  1

  9
$LUNITS
 70
     2
  9
$LUPREC
 70
     4
  9
$AXISMODE
 70
     0
  9
$AXISUNIT
 10
0.0
 20
0.0
  9
$SKETCHINC
 40
0.1
  9
$FILLETRAD
 40
0.0
  9
$AUNITS
 70
     0
  9
$AUPREC
 70
     0
  9
$MENU
  1
acad
  9
$ELEVATION
 40
0.0
  9
$THICKNESS
 40
0.0
  9
$LIMCHECK
 70
     0
  9
$BLIPMODE
 70
     1
  9
$CHAMFERA
 40
0.0
  9
$CHAMFERB
 40
0.0
  9
$SKPOLY
 70
     0
  9
$TDCREATE
 40
2448026.6008101851
  9
$TDUPDATE
 40
2448026.6181597221
  9
$TDINDWG
 40
0.0173495370
  9
$TDUSRTIMER
 40
0.0173495370
  9
$USRTIMER
 70
     1
  9
$ANGBASE
 50
0.0
  9
$ANGDIR
 70
     0
  9
$PDMODE
 70
     0
  9
$PDSIZE
 40
0.0
  9
$PLINEWID
 40
0.0
  9
$COORDS
 70
     2
  9
$SPLFRAME
 70
     0
  9
$SPLINETYPE
 70
     6
  9
$SPLINESEGS
 70
     8
  9
$ATTDIA
 70
     0
  9
$ATTREQ
 70
     1
  9
$HANDLING
 70
     0
  9
$HANDSEED
  5
0
  9
$SURFTAB1
 70
     6
  9
$SURFTAB2
 70
     6
  9
$SURFTYPE
 70
     6
  9
$SURFU
 70
     6
  9
$SURFV
 70
     6
  9
$FLATLAND
 70
     0
  9
$UCSNAME
  2

  9
$UCSORG
 10
0.0
 20
0.0
 30
0.0
  9
$UCSXDIR
 10
1.0
 20
0.0
 30
0.0
  9
$UCSYDIR
 10
0.0
 20
1.0
 30
0.0
  9
$USERI1
 70
     0
  9
$USERI2
 70
     0
  9
$USERI3
 70
     0
  9
$USERI4
 70
     0
  9
$USERI5
 70
     0
  9
$USERR1
 40
0.0
  9
$USERR2
 40
0.0
  9
$USERR3
 40
0.0
  9
$USERR4
 40
0.0
  9
$USERR5
 40
0.0
  9
$WORLDVIEW
 70
     1
  0
ENDSEC
  0
SECTION
  2
TABLES
  0
TABLE
  2
VPORT
 70
     2
  0
VPORT
  2
*ACTIVE
 70
     0
 10
0.0
 20
0.0
 11
1.0
 21
1.0
 12
27.083333
 22
15.399368
 13
0.0
 23
0.0
 14
1.0
 24
1.0
 15
0.0
 25
0.0
 16
0.0
 26
0.0
 36
1.0
 17
0.0
 27
0.0
 37
0.0
 40
30.798736
 41
1.75873
 42
50.0
 43
0.0
 44
0.0
 50
0.0
 51
0.0
 71
     0
 72
   100
 73
     1
 74
     1
 75
     1
 76
     0
 77
     0
 78
     0
  0
ENDTAB
  0
TABLE
  2
LTYPE
 70
     5
  0
LTYPE
  2
CONTINUOUS
 70
    64
  3
________________________
 72
    65
 73
     0
 40
0.0
  0
LTYPE
  2
DOT
 70
    64
  3
_ _ _ _ _ _ _ _ _ _ _ _
 72
    65
 73
     2
 40
0.375
 49
0.25
 49
-0.125
  0
LTYPE
  2
HIDDEN
 70
    64
  3
__ __ __ __ __ __ __ __
 72
    65
 73
     2
 40
0.75
 49
0.5
 49
-0.25
  0
LTYPE
  2
CENTER
 70
    64
  3
____ _ ____ _ ____ _ ___
 72
    65
 73
     4
 40
2.0
 49
1.25
 49
-0.25
 49
0.25
 49
-0.25
  0
LTYPE
  2
PHANTOM
 70
    64
  3
_____ _ _ _____ _ _ ____
 72
    65
 73
     6
 40
2.5
 49
1.25
 49
-0.25
 49
0.25
 49
-0.25
 49
0.25
 49
-0.25
  0
ENDTAB
  0
TABLE
  2
LAYER
 70
     5
  0
LAYER
  2
0
 70
    64
 62
     7
  6
CONTINUOUS
  0
LAYER
  2
AREA
 70
    64
 62
     7
  6
CONTINUOUS
  0
LAYER
  2
WORKLAYER
 70
    64
 62
     7
  6
CONTINUOUS
  0
LAYER
  2
SSYMB
 70
    64
 62
     7
  6
CONTINUOUS
  0
ENDTAB
  0
TABLE
  2
STYLE
 70
     3
  0
STYLE
  2
STANDARD
 70
    64
 40
0.0
 41
1.0
 50
0.0
 71
     0
 42
4.0
  3
txt
  4

  0
STYLE
  2
KANJI
 70
    64
 40
0.0
 41
1.0
 50
0.0
 71
     0
 42
2.0
  3
TXT
  4
BIGFONT
  0
ENDTAB
  0
TABLE
  2
VIEW
 70
     0
  0
ENDTAB
  0
TABLE
  2
UCS
 70
     0
  0
ENDTAB
  0
TABLE
  2
DWGMGR
 70
     0
  0
ENDTAB
  0
ENDSEC
  0
SECTION
  2
BLOCKS
  0
BLOCK
  8
AREA
  2
DXF2
 70
    64
 10
0.0
 20
0.0
 30
0.0
  3
DXF2
  0
LINE
  8
AREA
  6
CONTINUOUS
 62
     4
 10
250.6557007
 20
-78.4999771
 30
0.0
 11
315.6557007
 21
-78.4999771
 31
0.0
 62
     4
  0
ARC
  8
AREA
  6
CONTINUOUS
 62
     4
 10
315.6557007
 20
-76.4999771
 30
0.0
 40
2.0000000
 50
270.0000000
 51
360.0000000
  0
ENDBLK
  0
BLOCK
  8
AREA
  2
DXF6
 70
    64
 10
0.0
 20
0.0
 30
0.0
  3
DXF6
  0
LINE
  8
AREA
  6
CONTINUOUS
 62
     4
 10
316.1733093
 20
-64.1027985
 30
0.0
 11
312.1505127
 21
-63.0250092
 31
0.0
 62
     4
  0
ARC
  8
AREA
  6
CONTINUOUS
 62
     4
 10
315.6557007
 20
-66.0346832
 30
0.0
 40
2.0000000
 50
360.0000000
 51
435.0000000
  0
ENDBLK
  0
BLOCK
  8
AREA
  2
DXF14
 70
    64
 10
0.0
 20
0.0
 30
0.0
  3
DXF14
  0
LINE
  8
AREA
  6
CONTINUOUS
 62
     4
 10
250.6557007
 20
95.0000000
 30
0.0
 11
256.6557007
 21
95.0000000
 31
0.0
 62
     4
  0
LINE
  8
AREA
  6
CONTINUOUS
 62
     4
 10
256.6557007
 20
95.0000000
 30
0.0
 11
272.3346863
 21
95.0000000
 31
0.0
 62
     4
  0
ENDBLK
  0
BLOCK
  8
AREA
  2
DXF15
 70
    64
 10
0.0
 20
0.0
 30
0.0
  3
DXF15
  0
LINE
  8
AREA
  6
CONTINUOUS
 62
     4
 10
268.0556030
 20
148.0000000
 30
0.0
 11
268.0556030
 21
130.5000000
 31
0.0
 62
     4
  0
LINE
  8
AREA
  6
CONTINUOUS
 62
     4
 10
268.0556030
 20
148.0000000
 30
0.0
 11
267.0556030
 21
149.0000000
 31
0.0
 62
     4
  0
ENDBLK
  0
BLOCK
  8
AREA
  2
DXF26
 70
    64
 10
0.0
 20
0.0
 30
0.0
  3
DXF26
  0
LINE
  8
AREA
  6
CONTINUOUS
 62
     4
 10
295.6557007
 20
-78.4999771
 30
0.0
 11
315.6557007
 21
-78.4999771
 31
0.0
 62
     4
  0
ARC
  8
AREA
  6
CONTINUOUS
 62
     4
 10
315.6557007
 20
-76.4999771
 30
0.0
 40
2.0000000
 50
270.0000000
 51
360.0000000
  0
ENDBLK
  0
BLOCK
  8
AREA
  2
DXF28
 70
    64
 10
0.0
 20
0.0
 30
0.0
  3
DXF28
  0
LINE
  8
AREA
  6
CONTINUOUS
 62
     4
 10
316.1733093
 20
-64.1027985
 30
0.0
 11
312.1505127
 21
-63.0250092
 31
0.0
 62
     4
  0
ARC
  8
AREA
  6
CONTINUOUS
 62
     4
 10
315.6557007
 20
-66.0346832
 30
0.0
 40
2.0000000
 50
360.0000000
 51
435.0000000
  0
ARC
  8
AREA
  6
CONTINUOUS
 62
     4
 10
314.7387085
 20
-53.3657112
 30
0.0
 40
10.0000000
 50
191.2738037
 51
255.0000000
  0
ARC
  8
AREA
  6
DOT
 62
     2
 10
314.7387085
 20
-53.3657112
 30
0.0
 40
10.0000000
 50
180.0000000
 51
191.2738037
  0
ENDBLK
  0
BLOCK
  8
AREA
  2
DXF31
 70
    64
 10
0.0
 20
0.0
 30
0.0
  3
DXF31
  0
LINE
  8
AREA
  6
CONTINUOUS
 62
     4
 10
280.6557007
 20
83.4238968
 30
0.0
 11
280.6557007
 21
71.4580078
 31
0.0
 62
     4
  0
ARC
  8
AREA
  6
CONTINUOUS
 62
     4
 10
275.6557007
 20
83.4238968
 30
0.0
 40
5.0000000
 50
360.0000000
 51
394.9920044
  0
ENDBLK
  0
BLOCK
  8
AREA
  2
DXF33
 70
    64
 10
0.0
 20
0.0
 30
0.0
  3
DXF33
  0
LINE
  8
AREA
  6
CONTINUOUS
 62
     4
 10
253.6557007
 20
77.4419098
 30
0.0
 11
253.6557007
 21
92.0000000
 31
0.0
 62
     4
  0
ARC
  8
AREA
  6
CONTINUOUS
 62
     4
 10
256.6557007
 20
92.0000000
 30
0.0
 40
3.0000000
 50
450.0000000
 51
180.0000000
  0
ENDBLK
  0
BLOCK
  8
AREA
  2
DXF36
 70
    64
 10
0.0
 20
0.0
 30
0.0
  3
DXF36
  0
LINE
  8
AREA
  6
CONTINUOUS
 62
     4
 10
250.6557007
 20
-78.4999771
 30
0.0
 11
185.6557007
 21
-78.4999771
 31
0.0
 62
     4
  0
ARC
  8
AREA
  6
CONTINUOUS
 62
     4
 10
185.6557007
 20
-76.4999771
 30
0.0
 40
2.0000000
 50
180.0000000
 51
270.0000000
  0
ENDBLK
  0
BLOCK
  8
AREA
  2
DXF39
 70
    64
 10
0.0
 20
0.0
 30
0.0
  3
DXF39
  0
LINE
  8
AREA
  6
CONTINUOUS
 62
     4
 10
185.1381073
 20
-64.1027985
 30
0.0
 11
189.1609955
 21
-63.0250092
 31
0.0
 62
     4
  0
ARC
  8
AREA
  6
CONTINUOUS
 62
     4
 10
185.6557007
 20
-66.0346832
 30
0.0
 40
2.0000000
 50
465.0000000
 51
180.0000000
  0
ENDBLK
  0
BLOCK
  8
AREA
  2
DXF41
 70
    64
 10
0.0
 20
0.0
 30
0.0
  3
DXF41
  0
LINE
  8
AREA
  6
CONTINUOUS
 62
     4
 10
205.6557007
 20
-78.4999771
 30
0.0
 11
185.6557007
 21
-78.4999771
 31
0.0
 62
     4
  0
ARC
  8
AREA
  6
CONTINUOUS
 62
     4
 10
185.6557007
 20
-76.4999771
 30
0.0
 40
2.0000000
 50
180.0000000
 51
270.0000000
  0
ENDBLK
  0
BLOCK
  8
AREA
  2
DXF43
 70
    64
 10
0.0
 20
0.0
 30
0.0
  3
DXF43
  0
LINE
  8
AREA
  6
CONTINUOUS
 62
     4
 10
185.1381073
 20
-64.1027985
 30
0.0
 11
189.1609955
 21
-63.0250092
 31
0.0
 62
     4
  0
ARC
  8
AREA
  6
CONTINUOUS
 62
     4
 10
185.6557007
 20
-66.0346832
 30
0.0
 40
2.0000000
 50
465.0000000
 51
180.0000000
  0
ARC
  8
AREA
  6
CONTINUOUS
 62
     4
 10
186.5726929
 20
-53.3657112
 30
0.0
 40
10.0000000
 50
285.0000000
 51
348.7261963
  0
ARC
  8
AREA
  6
DOT
 62
     2
 10
186.5726929
 20
-53.3657112
 30
0.0
 40
10.0000000
 50
348.7261963
 51
360.0000000
  0
ENDBLK
  0
BLOCK
  8
AREA
  2
DXF46
 70
    64
 10
0.0
 20
0.0
 30
0.0
  3
DXF46
  0
LINE
  8
AREA
  6
CONTINUOUS
 62
     4
 10
220.6557007
 20
83.4238968
 30
0.0
 11
220.6557007
 21
71.4580078
 31
0.0
 62
     4
  0
ARC
  8
AREA
  6
CONTINUOUS
 62
     4
 10
225.6557007
 20
83.4238968
 30
0.0
 40
5.0000000
 50
505.0079956
 51
180.0000000
  0
ENDBLK
  0
BLOCK
  8
AREA
  2
DXF53
 70
    64
 10
0.0
 20
0.0
 30
0.0
  3
DXF53
  0
LINE
  8
AREA
  6
CONTINUOUS
 62
     4
 10
250.6557007
 20
95.0000000
 30
0.0
 11
244.6557007
 21
95.0000000
 31
0.0
 62
     4
  0
LINE
  8
AREA
  6
CONTINUOUS
 62
     4
 10
244.6557007
 20
95.0000000
 30
0.0
 11
228.9768066
 21
95.0000000
 31
0.0
 62
     4
  0
ENDBLK
  0
BLOCK
  8
AREA
  2
DXF54
 70
    64
 10
0.0
 20
0.0
 30
0.0
  3
DXF54
  0
LINE
  8
AREA
  6
CONTINUOUS
 62
     4
 10
233.2557983
 20
148.0000000
 30
0.0
 11
233.2557983
 21
130.5000000
 31
0.0
 62
     4
  0
LINE
  8
AREA
  6
CONTINUOUS
 62
     4
 10
233.2557983
 20
148.0000000
 30
0.0
 11
234.2557983
 21
149.0000000
 31
0.0
 62
     4
  0
ENDBLK
  0
BLOCK
  8
AREA
  2
DXF60
 70
    64
 10
0.0
 20
0.0
 30
0.0
  3
DXF60
  0
LINE
  8
AREA
  6
CONTINUOUS
 62
     4
 10
247.6557007
 20
77.4419098
 30
0.0
 11
247.6557007
 21
92.0000000
 31
0.0
 62
     4
  0
ARC
  8
AREA
  6
CONTINUOUS
 62
     4
 10
244.6557007
 20
92.0000000
 30
0.0
 40
3.0000000
 50
360.0000000
 51
450.0000000
  0
ENDBLK
  0
BLOCK
  8
AREA
  2
DXF70
 70
    64
 10
0.0
 20
0.0
 30
0.0
  3
DXF70
  0
LINE
  8
AREA
  6
CONTINUOUS
 62
     4
 10
250.6557007
 20
-79.9999771
 30
0.0
 11
233.8428040
 21
-79.9999771
 31
0.0
 62
     4
  0
LINE
  8
AREA
  6
CONTINUOUS
 62
     4
 10
223.8428040
 20
-79.9999771
 30
0.0
 11
205.6557007
 21
-79.9999771
 31
0.0
 62
     4
  0
ENDBLK
  0
BLOCK
  8
AREA
  2
DXF71
 70
    64
 10
0.0
 20
0.0
 30
0.0
  3
DXF71
  0
LINE
  8
AREA
  6
CONTINUOUS
 62
     4
 10
250.6557007
 20
-79.9999771
 30
0.0
 11
267.4686890
 21
-79.9999771
 31
0.0
 62
     4
  0
LINE
  8
AREA
  6
CONTINUOUS
 62
     4
 10
277.4686890
 20
-79.9999771
 30
0.0
 11
295.6557007
 21
-79.9999771
 31
0.0
 62
     4
  0
ENDBLK
  0
BLOCK
  8
WORKLAYER
  2
DXF73
 70
    64
 10
0.0
 20
0.0
 30
0.0
  3
DXF73
  0
LINE
  8
WORKLAYER
  6
CONTINUOUS
 62
     4
 10
0.0000000
 20
-81.0000000
 30
0.0
 11
-16.8129597
 21
-81.0000000
 31
0.0
 62
     4
  0
LINE
  8
WORKLAYER
  6
CONTINUOUS
 62
     4
 10
-26.8129597
 20
-81.0000000
 30
0.0
 11
-45.0000000
 21
-81.0000000
 31
0.0
 62
     4
  0
ENDBLK
  0
BLOCK
  8
AREA
  2
DXF77
 70
    64
 10
0.0
 20
0.0
 30
0.0
  3
DXF77
  0
LINE
  8
AREA
  6
CONTINUOUS
 62
     4
 10
0.0000000
 20
-78.5000000
 30
0.0
 11
65.0000000
 21
-78.5000000
 31
0.0
 62
     4
  0
ARC
  8
AREA
  6
CONTINUOUS
 62
     4
 10
65.0000000
 20
-76.5000000
 30
0.0
 40
2.0000000
 50
270.0000000
 51
360.0000000
  0
ENDBLK
  0
BLOCK
  8
AREA
  2
DXF81
 70
    64
 10
0.0
 20
0.0
 30
0.0
  3
DXF81
  0
ARC
  8
AREA
  6
CONTINUOUS
 62
     4
 10
75.0000000
 20
-59.4014091
 30
0.0
 40
10.0000000
 50
180.0000000
 51
213.5572968
  0
ARC
  8
AREA
  6
CONTINUOUS
 62
     4
 10
65.0000000
 20
-66.0347137
 30
0.0
 40
2.0000000
 50
360.0000000
 51
393.5575867
  0
ENDBLK
  0
BLOCK
  8
AREA
  2
DXF83
 70
    64
 10
0.0
 20
0.0
 30
0.0
  3
DXF83
  0
LINE
  8
AREA
  6
CONTINUOUS
 62
     4
 10
109.0000000
 20
-77.5000000
 30
0.0
 11
127.0000000
 21
-77.5000000
 31
0.0
 62
     4
  0
ARC
  8
AREA
  6
CONTINUOUS
 62
     4
 10
109.0000000
 20
-75.5000000
 30
0.0
 40
2.0000000
 50
180.0000000
 51
270.0000000
  0
ENDBLK
  0
BLOCK
  8
AREA
  2
DXF84
 70
    64
 10
0.0
 20
0.0
 30
0.0
  3
DXF84
  0
ARC
  8
AREA
  6
CONTINUOUS
 62
     4
 10
7.5000000
 20
36.9999809
 30
0.0
 40
32.0000000
 50
423.5161133
 51
450.0000000
  0
ARC
  8
AREA
  6
CONTINUOUS
 62
     4
 10
7.5000000
 20
36.9999809
 30
0.0
 40
32.0000000
 50
401.9916077
 51
423.5161133
  0
ARC
  8
AREA
  6
CONTINUOUS
 62
     4
 10
7.5000000
 20
36.9999809
 30
0.0
 40
32.0000000
 50
366.2062988
 51
403.2331848
  0
ARC
  8
AREA
  6
CONTINUOUS
 62
     4
 10
44.2831993
 20
40.9999809
 30
0.0
 40
5.0000000
 50
186.2062988
 51
270.0000000
  0
ENDBLK
  0
BLOCK
  8
AREA
  2
DXF88
 70
    64
 10
0.0
 20
0.0
 30
0.0
  3
DXF88
  0
LINE
  8
AREA
  6
CONTINUOUS
 62
     4
 10
0.0000000
 20
-78.5000000
 30
0.0
 11
-65.0000000
 21
-78.5000000
 31
0.0
 62
     4
  0
ARC
  8
AREA
  6
CONTINUOUS
 62
     4
 10
-65.0000000
 20
-76.5000000
 30
0.0
 40
2.0000000
 50
180.0000000
 51
270.0000000
  0
ENDBLK
  0
BLOCK
  8
AREA
  2
DXF89
 70
    64
 10
0.0
 20
0.0
 30
0.0
  3
DXF89
  0
LINE
  8
AREA
  6
CONTINUOUS
 62
     4
 10
-109.0000000
 20
77.4999771
 30
0.0
 11
-127.0000000
 21
77.4999771
 31
0.0
 62
     4
  0
ARC
  8
AREA
  6
CONTINUOUS
 62
     4
 10
-109.0000000
 20
75.4999771
 30
0.0
 40
2.0000000
 50
360.0000000
 51
450.0000000
  0
ENDBLK
  0
BLOCK
  8
AREA
  2
DXF91
 70
    64
 10
0.0
 20
0.0
 30
0.0
  3
DXF91
  0
LINE
  8
AREA
  6
CONTINUOUS
 62
     4
 10
-65.5177002
 20
-64.1028137
 30
0.0
 11
-52.4119301
 21
-60.5911102
 31
0.0
 62
     4
  0
ARC
  8
AREA
  6
CONTINUOUS
 62
     4
 10
-65.0000000
 20
-66.0347137
 30
0.0
 40
2.0000000
 50
465.0000000
 51
180.0000000
  0
ARC
  8
AREA
  6
CONTINUOUS
 62
     4
 10
-55.0000000
 20
-50.9318085
 30
0.0
 40
10.0000000
 50
284.9999084
 51
360.0000000
  0
ENDBLK
  0
BLOCK
  8
AREA
  2
DXF93
 70
    64
 10
0.0
 20
0.0
 30
0.0
  3
DXF93
  0
LINE
  8
AREA
  6
CONTINUOUS
 62
     4
 10
-45.0000000
 20
-5.0000000
 30
0.0
 11
-45.0000000
 21
-50.9318085
 31
0.0
 62
     4
  0
ARC
  8
AREA
  6
CONTINUOUS
 62
     4
 10
-33.0000000
 20
-5.0000000
 30
0.0
 40
12.0000000
 50
450.0000000
 51
180.0000000
  0
ENDBLK
  0
BLOCK
  8
AREA
  2
DXF95
 70
    64
 10
0.0
 20
0.0
 30
0.0
  3
DXF95
  0
LINE
  8
AREA
  6
CONTINUOUS
 62
     4
 10
-43.3087807
 20
68.9999771
 30
0.0
 11
-33.0000000
 21
68.9999771
 31
0.0
 62
     4
  0
LINE
  8
AREA
  6
CONTINUOUS
 62
     4
 10
-35.0000000
 20
68.9999771
 30
0.0
 11
-24.0000000
 21
68.9999771
 31
0.0
 62
     4
  0
LINE
  8
AREA
  6
CONTINUOUS
 62
     4
 10
-24.0000000
 20
68.9999771
 30
0.0
 11
-3.0000000
 21
68.9999771
 31
0.0
 62
     4
  0
LINE
  8
AREA
  6
CONTINUOUS
 62
     4
 10
3.0000000
 20
68.9999771
 30
0.0
 11
7.5000000
 21
68.9999771
 31
0.0
 62
     4
  0
ENDBLK
  0
BLOCK
  8
AREA
  2
DXF97
 70
    64
 10
0.0
 20
0.0
 30
0.0
  3
DXF97
  0
LINE
  8
AREA
  6
CONTINUOUS
 62
     4
 10
92.0000000
 20
-40.3864098
 30
0.0
 11
68.0304031
 21
-50.6590996
 31
0.0
 62
     4
  0
ARC
  8
AREA
  6
CONTINUOUS
 62
     4
 10
70.0000000
 20
-55.2548103
 30
0.0
 40
5.0000000
 50
473.1987000
 51
180.0000000
  0
ENDBLK
  0
BLOCK
  8
AREA
  2
DXF98
 70
    64
 10
0.0
 20
0.0
 30
0.0
  3
DXF98
  0
LINE
  8
AREA
  6
CONTINUOUS
 62
     4
 10
92.0000000
 20
29.2434807
 30
0.0
 11
61.7471886
 21
16.2779999
 31
0.0
 62
     4
  0
LINE
  8
AREA
  6
CONTINUOUS
 62
     4
 10
61.7471886
 20
16.2779999
 30
0.0
 11
53.4392090
 21
12.7173901
 31
0.0
 62
     4
  0
ENDBLK
  0
BLOCK
  8
AREA
  2
DXF100
 70
    64
 10
0.0
 20
0.0
 30
0.0
  3
DXF100
  0
LINE
  8
AREA
  6
CONTINUOUS
 62
     4
 10
109.0000000
 20
77.4999771
 30
0.0
 11
127.0000000
 21
77.4999771
 31
0.0
 62
     4
  0
ARC
  8
AREA
  6
CONTINUOUS
 62
     4
 10
109.0000000
 20
75.4999771
 30
0.0
 40
2.0000000
 50
450.0000000
 51
180.0000000
  0
ENDBLK
  0
BLOCK
  8
AREA
  2
DXF102
 70
    64
 10
0.0
 20
0.0
 30
0.0
  3
DXF102
  0
LINE
  8
AREA
  6
CONTINUOUS
 62
     4
 10
107.0000000
 20
40.0433807
 30
0.0
 11
107.0000000
 21
40.9999809
 31
0.0
 62
     4
  0
LINE
  8
AREA
  6
CONTINUOUS
 62
     4
 10
107.0000000
 20
0.0000000
 30
0.0
 11
107.0000000
 21
75.4999771
 31
0.0
 62
     4
  0
ENDBLK
  0
BLOCK
  8
AREA
  2
DXF104
 70
    64
 10
0.0
 20
0.0
 30
0.0
  3
DXF104
  0
LINE
  8
AREA
  6
CONTINUOUS
 62
     4
 10
-102.0000000
 20
-36.0000000
 30
0.0
 11
-50.0000000
 21
-36.0000000
 31
0.0
 62
     4
  0
ARC
  8
AREA
  6
CONTINUOUS
 62
     4
 10
-50.0000000
 20
-41.0000000
 30
0.0
 40
5.0000000
 50
360.0000000
 51
450.0000000
  0
ENDBLK
  0
BLOCK
  8
AREA
  2
DXF105
 70
    64
 10
0.0
 20
0.0
 30
0.0
  3
DXF105
  0
LINE
  8
AREA
  6
CONTINUOUS
 62
     4
 10
92.0000000
 20
-40.3864098
 30
0.0
 11
100.8989029
 21
-38.3774109
 31
0.0
 62
     4
  0
ARC
  8
AREA
  6
CONTINUOUS
 62
     4
 10
102.0000000
 20
-43.2546082
 30
0.0
 40
5.0000000
 50
360.0000000
 51
462.7217102
  0
ENDBLK
  0
BLOCK
  8
AREA
  2
DXF107
 70
    64
 10
0.0
 20
0.0
 30
0.0
  3
DXF107
  0
LINE
  8
AREA
  6
CONTINUOUS
 62
     4
 10
92.0000000
 20
29.2434807
 30
0.0
 11
104.2966003
 21
35.6021004
 31
0.0
 62
     4
  0
ARC
  8
AREA
  6
CONTINUOUS
 62
     4
 10
102.0000000
 20
40.0433807
 30
0.0
 40
5.0000000
 50
297.3432922
 51
360.0000000
  0
ENDBLK
  0
BLOCK
  8
AREA
  2
DXF109
 70
    64
 10
0.0
 20
0.0
 30
0.0
  3
DXF109
  0
LINE
  8
AREA
  6
CONTINUOUS
 62
     4
 10
-76.3745117
 20
-26.0209007
 30
0.0
 11
-60.8203697
 21
-14.8875999
 31
0.0
 62
     4
  0
ARC
  8
AREA
  6
CONTINUOUS
 62
     4
 10
-55.0000000
 20
-23.0191002
 30
0.0
 40
10.0000000
 50
360.0000000
 51
485.5946960
  0
ENDBLK
  0
BLOCK
  8
AREA
  2
DXF111
 70
    64
 10
0.0
 20
0.0
 30
0.0
  3
DXF111
  0
LINE
  8
AREA
  6
CONTINUOUS
 62
     4
 10
-100.5632019
 20
38.9311104
 30
0.0
 11
-92.0000000
 21
41.5002899
 31
0.0
 62
     4
  0
ARC
  8
AREA
  6
CONTINUOUS
 62
     4
 10
-102.0000000
 20
43.7202911
 30
0.0
 40
5.0000000
 50
180.0000000
 51
286.7001953
  0
ENDBLK
  0
BLOCK
  8
AREA
  2
DXF113
 70
    64
 10
0.0
 20
0.0
 30
0.0
  3
DXF113
  0
LINE
  8
AREA
  6
CONTINUOUS
 62
     4
 10
-107.0000000
 20
-40.5718117
 30
0.0
 11
-107.0000000
 21
-42.0000000
 31
0.0
 62
     4
  0
LINE
  8
AREA
  6
CONTINUOUS
 62
     4
 10
-107.0000000
 20
0.0000000
 30
0.0
 11
-107.0000000
 21
-75.5000000
 31
0.0
 62
     4
  0
ARC
  8
AREA
  6
CONTINUOUS
 62
     4
 10
-102.0000000
 20
-40.5718117
 30
0.0
 40
5.0000000
 50
468.9180908
 51
180.0000000
  0
ARC
  8
AREA
  6
CONTINUOUS
 62
     4
 10
-102.0000000
 20
-41.0000000
 30
0.0
 40
5.0000000
 50
450.0000000
 51
180.0000000
  0
ENDBLK
  0
BLOCK
  8
AREA
  2
DXF117
 70
    64
 10
0.0
 20
0.0
 30
0.0
  3
DXF117
  0
LINE
  8
AREA
  6
CONTINUOUS
 62
     4
 10
44.2831993
 20
35.9999809
 30
0.0
 11
102.0000000
 21
35.9999809
 31
0.0
 62
     4
  0
ARC
  8
AREA
  6
CONTINUOUS
 62
     4
 10
102.0000000
 20
40.9999809
 30
0.0
 40
5.0000000
 50
270.0000000
 51
360.0000000
  0
ENDBLK
  0
BLOCK
  8
AREA
  2
DXF119
 70
    64
 10
0.0
 20
0.0
 30
0.0
  3
DXF119
  0
LINE
  8
AREA
  6
CONTINUOUS
 62
     4
 10
-109.0000000
 20
-77.5000000
 30
0.0
 11
-127.0000000
 21
-77.5000000
 31
0.0
 62
     4
  0
ARC
  8
AREA
  6
CONTINUOUS
 62
     4
 10
-109.0000000
 20
-75.5000000
 30
0.0
 40
2.0000000
 50
270.0000000
 51
360.0000000
  0
ENDBLK
  0
BLOCK
  8
AREA
  2
DXF121
 70
    64
 10
0.0
 20
0.0
 30
0.0
  3
DXF121
  0
LINE
  8
AREA
  6
CONTINUOUS
 62
     4
 10
39.5000000
 20
39.5434990
 30
0.0
 11
39.5000000
 21
21.9088898
 31
0.0
 62
     4
  0
ARC
  8
AREA
  6
CONTINUOUS
 62
     4
 10
49.5000000
 20
21.9088898
 30
0.0
 40
10.0000000
 50
180.0000000
 51
293.1987000
  0
ENDBLK
  0
BLOCK
  8
AREA
  2
DXF123
 70
    64
 10
0.0
 20
0.0
 30
0.0
  3
DXF123
  0
LINE
  8
AREA
  6
CONTINUOUS
 62
     4
 10
19.0000000
 20
89.9999771
 30
0.0
 11
19.0000000
 21
70.1172028
 31
0.0
 62
     4
  0
ARC
  8
AREA
  6
CONTINUOUS
 62
     4
 10
24.0000000
 20
70.1172028
 30
0.0
 40
5.0000000
 50
180.0000000
 51
243.5160980
  0
ENDBLK
  0
BLOCK
  8
AREA
  2
DXF124
 70
    64
 10
0.0
 20
0.0
 30
0.0
  3
DXF124
  0
LINE
  8
AREA
  6
CONTINUOUS
 62
     4
 10
30.0000000
 20
83.4238968
 30
0.0
 11
30.0000000
 21
60.9738884
 31
0.0
 62
     4
  0
ARC
  8
AREA
  6
CONTINUOUS
 62
     4
 10
25.0000000
 20
83.4238968
 30
0.0
 40
5.0000000
 50
360.0000000
 51
394.9920044
  0
ARC
  8
AREA
  6
CONTINUOUS
 62
     4
 10
33.0000000
 20
60.9738884
 30
0.0
 40
3.0000000
 50
180.0000000
 51
223.2330017
  0
ENDBLK
  0
BLOCK
  8
AREA
  2
DXF133
 70
    64
 10
0.0
 20
0.0
 30
0.0
  3
DXF133
  0
LINE
  8
AREA
  6
CONTINUOUS
 62
     4
 10
17.3999004
 20
148.0000000
 30
0.0
 11
17.3999004
 21
130.5000000
 31
0.0
 62
     4
  0
LINE
  8
AREA
  6
CONTINUOUS
 62
     4
 10
17.3999004
 20
148.0000000
 30
0.0
 11
16.3999004
 21
149.0000000
 31
0.0
 62
     4
  0
ENDBLK
  0
BLOCK
  8
AREA
  2
DXF134
 70
    64
 10
0.0
 20
0.0
 30
0.0
  3
DXF134
  0
LINE
  8
AREA
  6
CONTINUOUS
 62
     4
 10
3.0000000
 20
61.9189911
 30
0.0
 11
3.0000000
 21
91.9999771
 31
0.0
 62
     4
  0
ARC
  8
AREA
  6
CONTINUOUS
 62
     4
 10
6.0000000
 20
91.9999771
 30
0.0
 40
3.0000000
 50
450.0000000
 51
180.0000000
  0
ARC
  8
AREA
  6
CONTINUOUS
 62
     4
 10
6.0000000
 20
61.9189911
 30
0.0
 40
3.0000000
 50
180.0000000
 51
270.0000000
  0
ENDBLK
  0
BLOCK
  8
AREA
  2
DXF138
 70
    64
 10
0.0
 20
0.0
 30
0.0
  3
DXF138
  0
LINE
  8
AREA
  6
CONTINUOUS
 62
     4
 10
0.0000000
 20
94.9999771
 30
0.0
 11
6.0000000
 21
94.9999771
 31
0.0
 62
     4
  0
LINE
  8
AREA
  6
CONTINUOUS
 62
     4
 10
6.0000000
 20
94.9999771
 30
0.0
 11
21.6790199
 21
94.9999771
 31
0.0
 62
     4
  0
ENDBLK
  0
BLOCK
  8
AREA
  2
DXF139
 70
    64
 10
0.0
 20
0.0
 30
0.0
  3
DXF139
  0
LINE
  8
AREA
  6
CONTINUOUS
 62
     4
 10
0.0000000
 20
94.9999771
 30
0.0
 11
-6.0000000
 21
94.9999771
 31
0.0
 62
     4
  0
LINE
  8
AREA
  6
CONTINUOUS
 62
     4
 10
-6.0000000
 20
94.9999771
 30
0.0
 11
-21.6790199
 21
94.9999771
 31
0.0
 62
     4
  0
ENDBLK
  0
BLOCK
  8
AREA
  2
DXF142
 70
    64
 10
0.0
 20
0.0
 30
0.0
  3
DXF142
  0
LINE
  8
AREA
  6
CONTINUOUS
 62
     4
 10
-19.0000000
 20
89.9999771
 30
0.0
 11
-19.0000000
 21
73.9999771
 31
0.0
 62
     4
  0
ARC
  8
AREA
  6
CONTINUOUS
 62
     4
 10
-24.0000000
 20
73.9999771
 30
0.0
 40
5.0000000
 50
270.0000000
 51
360.0000000
  0
ENDBLK
  0
BLOCK
  8
AREA
  2
DXF143
 70
    64
 10
0.0
 20
0.0
 30
0.0
  3
DXF143
  0
LINE
  8
AREA
  6
CONTINUOUS
 62
     4
 10
-30.0000000
 20
83.4238968
 30
0.0
 11
-30.0000000
 21
71.9999771
 31
0.0
 62
     4
  0
ARC
  8
AREA
  6
CONTINUOUS
 62
     4
 10
-25.0000000
 20
83.4238968
 30
0.0
 40
5.0000000
 50
505.0079956
 51
180.0000000
  0
ARC
  8
AREA
  6
CONTINUOUS
 62
     4
 10
-33.0000000
 20
71.9999771
 30
0.0
 40
3.0000000
 50
270.0000000
 51
360.0000000
  0
ENDBLK
  0
BLOCK
  8
AREA
  2
DXF152
 70
    64
 10
0.0
 20
0.0
 30
0.0
  3
DXF152
  0
LINE
  8
AREA
  6
CONTINUOUS
 62
     4
 10
-17.4000206
 20
148.0000000
 30
0.0
 11
-17.4000206
 21
130.5000000
 31
0.0
 62
     4
  0
LINE
  8
AREA
  6
CONTINUOUS
 62
     4
 10
-17.4000206
 20
148.0000000
 30
0.0
 11
-16.4000206
 21
149.0000000
 31
0.0
 62
     4
  0
ENDBLK
  0
BLOCK
  8
AREA
  2
DXF153
 70
    64
 10
0.0
 20
0.0
 30
0.0
  3
DXF153
  0
LINE
  8
AREA
  6
CONTINUOUS
 62
     4
 10
-3.0000000
 20
61.9189911
 30
0.0
 11
-3.0000000
 21
91.9999771
 31
0.0
 62
     4
  0
ARC
  8
AREA
  6
CONTINUOUS
 62
     4
 10
-6.0000000
 20
91.9999771
 30
0.0
 40
3.0000000
 50
360.0000000
 51
450.0000000
  0
ARC
  8
AREA
  6
CONTINUOUS
 62
     4
 10
-6.0000000
 20
61.9189911
 30
0.0
 40
3.0000000
 50
270.0000000
 51
360.0000000
  0
ENDBLK
  0
BLOCK
  8
AREA
  2
DXF159
 70
    64
 10
0.0
 20
0.0
 30
0.0
  3
DXF159
  0
LINE
  8
AREA
  6
CONTINUOUS
 62
     4
 10
-20.0000000
 20
-34.0000000
 30
0.0
 11
22.0000000
 21
-34.0000000
 31
0.0
 62
     4
  0
ARC
  8
AREA
  6
CONTINUOUS
 62
     4
 10
17.0000000
 20
-53.0000000
 30
0.0
 40
19.0000000
 50
487.8635864
 51
180.0000000
  0
ENDBLK
  0
BLOCK
  8
AREA
  2
DXF160
 70
    64
 10
0.0
 20
0.0
 30
0.0
  3
DXF160
  0
LINE
  8
AREA
  6
CONTINUOUS
 62
     4
 10
-20.0000000
 20
-38.0000000
 30
0.0
 11
5.3380132
 21
-38.0000000
 31
0.0
 62
     4
  0
ARC
  8
AREA
  6
CONTINUOUS
 62
     4
 10
17.0000000
 20
-53.0000000
 30
0.0
 40
15.0000000
 50
450.0000000
 51
180.0000000
  0
ENDBLK
  0
BLOCK
  8
AREA
  2
DXF170
 70
    64
 10
0.0
 20
0.0
 30
0.0
  3
DXF170
  0
LINE
  8
AREA
  6
CONTINUOUS
 62
     4
 10
-72.0000000
 20
20.4631805
 30
0.0
 11
-70.5000000
 21
14.4631796
 31
0.0
 62
     4
  0
LINE
  8
AREA
  6
CONTINUOUS
 62
     4
 10
-70.0000000
 20
12.4631796
 30
0.0
 11
-69.0000000
 21
8.4631805
 31
0.0
 62
     4
  0
ENDBLK
  0
BLOCK
  8
AREA
  2
DXF174
 70
    64
 10
0.0
 20
0.0
 30
0.0
  3
DXF174
  0
LINE
  8
AREA
  6
CONTINUOUS
 62
     4
 10
-72.0000000
 20
20.4631805
 30
0.0
 11
-73.5000000
 21
14.4631796
 31
0.0
 62
     4
  0
LINE
  8
AREA
  6
CONTINUOUS
 62
     4
 10
-74.0000000
 20
12.4631796
 30
0.0
 11
-75.0000000
 21
8.4631805
 31
0.0
 62
     4
  0
ENDBLK
  0
BLOCK
  8
AREA
  2
DXF176
 70
    64
 10
0.0
 20
0.0
 30
0.0
  3
DXF176
  0
LINE
  8
AREA
  6
CONTINUOUS
 62
     4
 10
82.0000000
 20
-12.4630098
 30
0.0
 11
82.0000000
 21
-13.4630098
 31
0.0
 62
     4
  0
ARC
  8
AREA
  6
CONTINUOUS
 62
     4
 10
78.0000000
 20
-20.4630108
 30
0.0
 40
4.0000000
 50
270.0000000
 51
360.0000000
  0
ENDBLK
  0
BLOCK
  8
AREA
  2
DXF188
 70
    64
 10
0.0
 20
0.0
 30
0.0
  3
DXF188
  0
LINE
  8
AREA
  6
CONTINUOUS
 62
     4
 10
67.0000000
 20
-12.4629097
 30
0.0
 11
68.5000000
 21
-18.4629097
 31
0.0
 62
     4
  0
LINE
  8
AREA
  6
CONTINUOUS
 62
     4
 10
69.0000000
 20
-20.4629097
 30
0.0
 11
70.0000000
 21
-24.4629097
 31
0.0
 62
     4
  0
ENDBLK
  0
BLOCK
  8
AREA
  2
DXF189
 70
    64
 10
0.0
 20
0.0
 30
0.0
  3
DXF189
  0
LINE
  8
AREA
  6
CONTINUOUS
 62
     4
 10
67.0000000
 20
-12.4629097
 30
0.0
 11
65.5000000
 21
-18.4629097
 31
0.0
 62
     4
  0
LINE
  8
AREA
  6
CONTINUOUS
 62
     4
 10
65.0000000
 20
-20.4629097
 30
0.0
 11
64.0000000
 21
-24.4629097
 31
0.0
 62
     4
  0
ENDBLK
  0
BLOCK
  8
AREA
  2
DXF191
 70
    64
 10
0.0
 20
0.0
 30
0.0
  3
DXF191
  0
LINE
  8
AREA
  6
CONTINUOUS
 62
     4
 10
80.0000000
 20
-19.4630108
 30
0.0
 11
80.0000000
 21
-20.4630108
 31
0.0
 62
     4
  0
ARC
  8
AREA
  6
CONTINUOUS
 62
     4
 10
78.0000000
 20
-20.4630108
 30
0.0
 40
2.0000000
 50
270.0000000
 51
360.0000000
  0
ARC
  8
AREA
  6
CONTINUOUS
 62
     4
 10
78.0000000
 20
-19.4630108
 30
0.0
 40
2.0000000
 50
360.0000000
 51
450.0000000
  0
ENDBLK
  0
BLOCK
  8
AREA
  2
DXF198
 70
    64
 10
0.0
 20
0.0
 30
0.0
  3
DXF198
  0
LINE
  8
AREA
  6
CONTINUOUS
 62
     4
 10
80.0000000
 20
-12.4630098
 30
0.0
 11
80.0000000
 21
-13.4630098
 31
0.0
 62
     4
  0
ARC
  8
AREA
  6
CONTINUOUS
 62
     4
 10
78.0000000
 20
-13.4630098
 30
0.0
 40
2.0000000
 50
270.0000000
 51
360.0000000
  0
ARC
  8
AREA
  6
CONTINUOUS
 62
     4
 10
78.0000000
 20
-12.4630098
 30
0.0
 40
2.0000000
 50
360.0000000
 51
450.0000000
  0
ENDBLK
  0
BLOCK
  8
SSYMB
  2
DXF201
 70
    64
 10
0.0
 20
0.0
 30
0.0
  3
DXF201
  0
LINE
  8
SSYMB
  6
CONTINUOUS
 62
     4
 10
-10.6439199
 20
-66.5000000
 30
0.0
 11
-9.4000244
 21
-66.5000000
 31
0.0
 62
     4
  0
LINE
  8
SSYMB
  6
CONTINUOUS
 62
     4
 10
-9.4000244
 20
-66.5000000
 30
0.0
 11
-9.4000244
 21
-76.5000000
 31
0.0
 62
     4
  0
LINE
  8
SSYMB
  6
CONTINUOUS
 62
     4
 10
-9.4000244
 20
-76.5000000
 30
0.0
 11
-10.9000196
 21
-76.5000000
 31
0.0
 62
     4
  0
LINE
  8
SSYMB
  6
CONTINUOUS
 62
     4
 10
-10.9000196
 20
-76.5000000
 30
0.0
 11
-10.9000196
 21
-69.5000000
 31
0.0
 62
     4
  0
LINE
  8
SSYMB
  6
CONTINUOUS
 62
     4
 10
-10.9000196
 20
-69.5000000
 30
0.0
 11
-13.0000000
 21
-69.5000000
 31
0.0
 62
     4
  0
LINE
  8
SSYMB
  6
CONTINUOUS
 62
     4
 10
-13.0000000
 20
-69.5000000
 30
0.0
 11
-13.0000000
 21
-68.8560028
 31
0.0
 62
     4
  0
ARC
  8
SSYMB
  6
CONTINUOUS
 62
     4
 10
-13.0000000
 20
-66.5000000
 30
0.0
 40
2.3559999
 50
270.0000000
 51
360.0000000
  0
ENDBLK
  0
BLOCK
  8
SSYMB
  2
DXF202
 70
    64
 10
0.0
 20
0.0
 30
0.0
  3
DXF202
  0
LINE
  8
SSYMB
  6
CONTINUOUS
 62
     4
 10
6.2659302
 20
-71.0300064
 30
0.0
 11
10.7959003
 21
-66.5000000
 31
0.0
 62
     4
  0
LINE
  8
SSYMB
  6
CONTINUOUS
 62
     4
 10
10.7959003
 20
-66.5000000
 30
0.0
 11
12.9177904
 21
-66.5000000
 31
0.0
 62
     4
  0
LINE
  8
SSYMB
  6
CONTINUOUS
 62
     4
 10
12.9177904
 20
-66.5000000
 30
0.0
 11
8.8479004
 21
-70.5700073
 31
0.0
 62
     4
  0
LINE
  8
SSYMB
  6
CONTINUOUS
 62
     4
 10
8.8479004
 20
-70.5700073
 30
0.0
 11
12.9998798
 21
-76.5000000
 31
0.0
 62
     4
  0
LINE
  8
SSYMB
  6
CONTINUOUS
 62
     4
 10
12.9998798
 20
-76.5000000
 30
0.0
 11
11.1688805
 21
-76.5000000
 31
0.0
 62
     4
  0
LINE
  8
SSYMB
  6
CONTINUOUS
 62
     4
 10
11.1688805
 20
-76.5000000
 30
0.0
 11
7.7708740
 21
-71.6470032
 31
0.0
 62
     4
  0
LINE
  8
SSYMB
  6
CONTINUOUS
 62
     4
 10
7.7708740
 20
-71.6470032
 30
0.0
 11
6.2659302
 21
-73.1520081
 31
0.0
 62
     4
  0
LINE
  8
SSYMB
  6
CONTINUOUS
 62
     4
 10
6.2659302
 20
-73.1520081
 30
0.0
 11
6.2659302
 21
-76.5000000
 31
0.0
 62
     4
  0
LINE
  8
SSYMB
  6
CONTINUOUS
 62
     4
 10
6.2659302
 20
-76.5000000
 30
0.0
 11
4.7659302
 21
-76.5000000
 31
0.0
 62
     4
  0
LINE
  8
SSYMB
  6
CONTINUOUS
 62
     4
 10
4.7659302
 20
-76.5000000
 30
0.0
 11
4.7659302
 21
-66.5000000
 31
0.0
 62
     4
  0
LINE
  8
SSYMB
  6
CONTINUOUS
 62
     4
 10
4.7659302
 20
-66.5000000
 30
0.0
 11
6.2659302
 21
-66.5000000
 31
0.0
 62
     4
  0
LINE
  8
SSYMB
  6
CONTINUOUS
 62
     4
 10
6.2659302
 20
-66.5000000
 30
0.0
 11
6.2659302
 21
-71.0300064
 31
0.0
 62
     4
  0
ENDBLK
  0
BLOCK
  8
SSYMB
  2
DXF203
 70
    64
 10
0.0
 20
0.0
 30
0.0
  3
DXF203
  0
POLYLINE
  8
SSYMB
 66
     1
 10
0.0
 20
0.0
 30
0.0
  6
CONTINUOUS
 62
     4
 70
     1
  0
VERTEX
  8
SSYMB
  6
CONTINUOUS
 10
-2.3170776
 20
-67.9690094
 30
0.0
 42
0.1600442
 62
     4
  0
VERTEX
  8
SSYMB
  6
CONTINUOUS
 10
-3.1283658
 20
-68.2379379
 30
0.0
 42
0.1008155
 62
     4
  0
VERTEX
  8
SSYMB
  6
CONTINUOUS
 10
-3.8161445
 20
-69.0037994
 30
0.0
 42
0.0734295
 62
     4
  0
VERTEX
  8
SSYMB
  6
CONTINUOUS
 10
-4.2757034
 20
-70.1499863
 30
0.0
 42
0.0594679
 62
     4
  0
VERTEX
  8
SSYMB
  6
CONTINUOUS
 10
-4.4370780
 20
-71.5020065
 30
0.0
 42
0.0594679
 62
     4
  0
VERTEX
  8
SSYMB
  6
CONTINUOUS
 10
-4.2757044
 20
-72.8540268
 30
0.0
 42
0.0734295
 62
     4
  0
VERTEX
  8
SSYMB
  6
CONTINUOUS
 10
-3.8161466
 20
-74.0002136
 30
0.0
 42
0.1008155
 62
     4
  0
VERTEX
  8
SSYMB
  6
CONTINUOUS
 10
-3.1283689
 20
-74.7660751
 30
0.0
 42
0.1614250
 62
     4
  0
VERTEX
  8
SSYMB
  6
CONTINUOUS
 10
-2.3170791
 20
-75.0350037
 30
0.0
 42
0.1614250
 62
     4
  0
VERTEX
  8
SSYMB
  6
CONTINUOUS
 10
-1.5057925
 20
-74.7660751
 30
0.0
 42
0.1008155
 62
     4
  0
VERTEX
  8
SSYMB
  6
CONTINUOUS
 10
-0.8180134
 20
-74.0002136
 30
0.0
 42
0.0734295
 62
     4
  0
VERTEX
  8
SSYMB
  6
CONTINUOUS
 10
-0.3584537
 20
-72.8540268
 30
0.0
 42
0.0594679
 62
     4
  0
VERTEX
  8
SSYMB
  6
CONTINUOUS
 10
-0.1970782
 20
-71.5020065
 30
0.0
 42
0.0594679
 62
     4
  0
VERTEX
  8
SSYMB
  6
CONTINUOUS
 10
-0.3584525
 20
-70.1499863
 30
0.0
 42
0.0734295
 62
     4
  0
VERTEX
  8
SSYMB
  6
CONTINUOUS
 10
-0.8180111
 20
-69.0037994
 30
0.0
 42
0.1004762
 62
     4
  0
VERTEX
  8
SSYMB
  6
CONTINUOUS
 10
-1.5057895
 20
-68.2379379
 30
0.0
 42
0.1614250
 62
     4
  0
SEQEND
  0
POLYLINE
  8
SSYMB
 66
     1
 10
0.0
 20
0.0
 30
0.0
  6
CONTINUOUS
 62
     4
 70
     1
  0
VERTEX
  8
SSYMB
  6
CONTINUOUS
 10
-2.3170774
 20
-66.4909973
 30
0.0
 42
0.1347887
 62
     4
  0
VERTEX
  8
SSYMB
  6
CONTINUOUS
 10
-3.6970346
 20
-66.8722839
 30
0.0
 42
0.1029886
 62
     4
  0
VERTEX
  8
SSYMB
  6
CONTINUOUS
 10
-4.8669057
 20
-67.9580994
 30
0.0
 42
0.0834256
 62
     4
  0
VERTEX
  8
SSYMB
  6
CONTINUOUS
 10
-5.6485896
 20
-69.5831451
 30
0.0
 42
0.0712352
 62
     4
  0
VERTEX
  8
SSYMB
  6
CONTINUOUS
 10
-5.9230781
 20
-71.5000000
 30
0.0
 42
0.0712352
 62
     4
  0
VERTEX
  8
SSYMB
  6
CONTINUOUS
 10
-5.6485896
 20
-73.4168549
 30
0.0
 42
0.0834256
 62
     4
  0
VERTEX
  8
SSYMB
  6
CONTINUOUS
 10
-4.8669090
 20
-75.0419006
 30
0.0
 42
0.1029886
 62
     4
  0
VERTEX
  8
SSYMB
  6
CONTINUOUS
 10
-3.6970344
 20
-76.1277161
 30
0.0
 42
0.1356107
 62
     4
  0
VERTEX
  8
SSYMB
  6
CONTINUOUS
 10
-2.3170795
 20
-76.5090027
 30
0.0
 42
0.1356107
 62
     4
  0
VERTEX
  8
SSYMB
  6
CONTINUOUS
 10
-0.9371245
 20
-76.1277161
 30
0.0
 42
0.1029886
 62
     4
  0
VERTEX
  8
SSYMB
  6
CONTINUOUS
 10
0.2327474
 20
-75.0419006
 30
0.0
 42
0.0834256
 62
     4
  0
VERTEX
  8
SSYMB
  6
CONTINUOUS
 10
1.0144323
 20
-73.4168625
 30
0.0
 42
0.0712352
 62
     4
  0
VERTEX
  8
SSYMB
  6
CONTINUOUS
 10
1.2889218
 20
-71.5000000
 30
0.0
 42
0.0712352
 62
     4
  0
VERTEX
  8
SSYMB
  6
CONTINUOUS
 10
1.0144331
 20
-69.5831375
 30
0.0
 42
0.0834256
 62
     4
  0
VERTEX
  8
SSYMB
  6
CONTINUOUS
 10
0.2327506
 20
-67.9580994
 30
0.0
 42
0.1026268
 62
     4
  0
VERTEX
  8
SSYMB
  6
CONTINUOUS
 10
-0.9371225
 20
-66.8722839
 30
0.0
 42
0.1356107
 62
     4
  0
SEQEND
  0
ENDBLK
  0
BLOCK
  8
SSYMB
  2
DXF204
 70
    64
 10
0.0
 20
0.0
 30
0.0
  3
DXF204
  0
ARC
  8
SSYMB
  6
CONTINUOUS
 62
     4
 10
6.1491089
 20
-26.5340099
 30
0.0
 40
13.1999998
 50
478.0000000
 51
528.9000244
  0
ARC
  8
SSYMB
  6
CONTINUOUS
 62
     4
 10
-8.8070068
 20
-1.2340090
 30
0.0
 40
16.2259998
 50
302.6000061
 51
315.3999939
  0
ARC
  8
SSYMB
  6
CONTINUOUS
 62
     4
 10
-0.0391235
 20
-10.5021095
 30
0.0
 40
3.4979999
 50
323.0000000
 51
189.8000031
  0
LINE
  8
SSYMB
  6
CONTINUOUS
 62
     4
 10
-3.4871221
 20
-11.0980101
 30
0.0
 11
-6.5095830
 21
-11.0980101
 31
0.0
 62
     4
  0
ARC
  8
SSYMB
  6
CONTINUOUS
 62
     4
 10
-0.0391235
 20
-10.5021095
 30
0.0
 40
6.4800000
 50
305.6000061
 51
185.1999969
  0
ARC
  8
SSYMB
  6
CONTINUOUS
 62
     4
 10
-8.8070068
 20
-1.2340090
 30
0.0
 40
19.2199993
 50
302.5000000
 51
310.7000122
  0
ARC
  8
SSYMB
  6
CONTINUOUS
 62
     4
 10
6.8209839
 20
-26.4939098
 30
0.0
 40
10.5000000
 50
480.2000122
 51
508.3999939
  0
LINE
  8
SSYMB
  6
CONTINUOUS
 62
     4
 10
-2.1250000
 20
-21.0021095
 30
0.0
 11
6.8070068
 21
-21.0021095
 31
0.0
 62
     4
  0
LINE
  8
SSYMB
  6
CONTINUOUS
 62
     4
 10
6.8070068
 20
-21.0021095
 30
0.0
 11
6.8070068
 21
-24.0000000
 31
0.0
 62
     4
  0
LINE
  8
SSYMB
  6
CONTINUOUS
 62
     4
 10
6.8070068
 20
-24.0000000
 30
0.0
 11
-6.8070068
 21
-24.0000000
 31
0.0
 62
     4
  0
ENDBLK
  0
BLOCK
  8
AREA
  2
DXF208
 70
    64
 10
0.0
 20
0.0
 30
0.0
  3
DXF208
  0
LINE
  8
AREA
  6
CONTINUOUS
 62
     4
 10
0.0000000
 20
-80.0000000
 30
0.0
 11
-16.8129597
 21
-80.0000000
 31
0.0
 62
     4
  0
LINE
  8
AREA
  6
CONTINUOUS
 62
     4
 10
-26.8129597
 20
-80.0000000
 30
0.0
 11
-45.0000000
 21
-80.0000000
 31
0.0
 62
     4
  0
ENDBLK
  0
BLOCK
  8
AREA
  2
DXF209
 70
    64
 10
0.0
 20
0.0
 30
0.0
  3
DXF209
  0
LINE
  8
AREA
  6
CONTINUOUS
 62
     4
 10
0.0000000
 20
-80.0000000
 30
0.0
 11
16.8129597
 21
-80.0000000
 31
0.0
 62
     4
  0
LINE
  8
AREA
  6
CONTINUOUS
 62
     4
 10
26.8129597
 20
-80.0000000
 30
0.0
 11
45.0000000
 21
-80.0000000
 31
0.0
 62
     4
  0
ENDBLK
  0
BLOCK
  8
WORKLAYER
  2
DXF222
 70
    64
 10
0.0
 20
0.0
 30
0.0
  3
DXF222
  0
LINE
  8
WORKLAYER
  6
CONTINUOUS
 62
     4
 10
77.4999771
 20
-185.0001068
 30
0.0
 11
77.4999771
 21
-167.0001068
 31
0.0
 62
     4
  0
LINE
  8
WORKLAYER
  6
CONTINUOUS
 62
     4
 10
75.4999771
 20
-165.0001068
 30
0.0
 11
-0.0000000
 21
-165.0001068
 31
0.0
 62
     4
  0
LINE
  8
WORKLAYER
  6
CONTINUOUS
 62
     4
 10
-0.0000000
 20
-165.0001068
 30
0.0
 11
-75.5000000
 21
-165.0001068
 31
0.0
 62
     4
  0
LINE
  8
WORKLAYER
  6
CONTINUOUS
 62
     4
 10
-77.5000000
 20
-167.0001068
 30
0.0
 11
-77.5000000
 21
-185.0001068
 31
0.0
 62
     4
  0
LINE
  8
WORKLAYER
  6
CONTINUOUS
 62
     4
 10
-77.5000000
 20
-185.0001068
 30
0.0
 11
77.4999771
 21
-185.0001068
 31
0.0
 62
     4
  0
ARC
  8
WORKLAYER
  6
CONTINUOUS
 62
     4
 10
-75.5000000
 20
-167.0001068
 30
0.0
 40
2.0000000
 50
90.0000000
 51
180.0000000
  0
ARC
  8
WORKLAYER
  6
CONTINUOUS
 62
     4
 10
75.4999771
 20
-167.0001068
 30
0.0
 40
2.0000000
 50
0.0000000
 51
90.0000000
  0
ARC
  8
WORKLAYER
  6
CONTINUOUS
 62
     4
 10
41.0723000
 20
-160.0001068
 30
0.0
 40
5.0000000
 50
198.9105072
 51
270.0000000
  0
ARC
  8
WORKLAYER
  6
CONTINUOUS
 62
     4
 10
-41.0723991
 20
-160.0001068
 30
0.0
 40
5.0000000
 50
270.0000000
 51
341.0895081
  0
LINE
  8
WORKLAYER
  6
CONTINUOUS
 62
     4
 10
66.9999771
 20
-100.5000000
 30
0.0
 11
66.9999771
 21
-84.5000000
 31
0.0
 62
     4
  0
LINE
  8
WORKLAYER
  6
CONTINUOUS
 62
     4
 10
64.9999771
 20
-82.5000000
 30
0.0
 11
-0.0000000
 21
-82.5000000
 31
0.0
 62
     4
  0
LINE
  8
WORKLAYER
  6
CONTINUOUS
 62
     4
 10
-0.0000000
 20
-82.5000000
 30
0.0
 11
-65.0000000
 21
-82.5000000
 31
0.0
 62
     4
  0
LINE
  8
WORKLAYER
  6
CONTINUOUS
 62
     4
 10
-67.0000000
 20
-84.5000000
 30
0.0
 11
-67.0000000
 21
-100.5000000
 31
0.0
 62
     4
  0
LINE
  8
WORKLAYER
  6
CONTINUOUS
 62
     4
 10
-65.0000000
 20
-102.5000992
 30
0.0
 11
-0.0000000
 21
-102.5000992
 31
0.0
 62
     4
  0
LINE
  8
WORKLAYER
  6
CONTINUOUS
 62
     4
 10
-0.0000000
 20
-102.5000992
 30
0.0
 11
64.9999771
 21
-102.5000992
 31
0.0
 62
     4
  0
ARC
  8
WORKLAYER
  6
CONTINUOUS
 62
     4
 10
64.9999771
 20
-100.5000000
 30
0.0
 40
2.0000000
 50
270.0000000
 51
0.0000000
  0
ARC
  8
WORKLAYER
  6
CONTINUOUS
 62
     4
 10
64.9999771
 20
-84.5000000
 30
0.0
 40
2.0000000
 50
0.0000000
 51
90.0000000
  0
ARC
  8
WORKLAYER
  6
CONTINUOUS
 62
     4
 10
-65.0000000
 20
-84.5000000
 30
0.0
 40
2.0000000
 50
90.0000000
 51
180.0000000
  0
ARC
  8
WORKLAYER
  6
CONTINUOUS
 62
     4
 10
-65.0000000
 20
-100.5000000
 30
0.0
 40
2.0000000
 50
180.0000000
 51
270.0000000
  0
ARC
  8
WORKLAYER
  6
CONTINUOUS
 62
     4
 10
-43.2345009
 20
-107.5000000
 30
0.0
 40
5.0000000
 50
24.2029095
 51
90.0000000
  0
ARC
  8
WORKLAYER
  6
CONTINUOUS
 62
     4
 10
43.2344093
 20
-107.5000000
 30
0.0
 40
5.0000000
 50
90.0000000
 51
155.7971039
  0
LINE
  8
WORKLAYER
  6
CONTINUOUS
 62
     4
 10
45.0000114
 20
-81.0000000
 30
0.0
 11
26.8129597
 21
-81.0000000
 31
0.0
 62
     4
  0
LINE
  8
WORKLAYER
  6
CONTINUOUS
 62
     4
 10
16.8129597
 20
-81.0000000
 30
0.0
 11
-0.0000000
 21
-81.0000000
 31
0.0
 62
     4
  0
LINE
  8
WORKLAYER
  6
CONTINUOUS
 62
     4
 10
-0.0000000
 20
-81.0000000
 30
0.0
 11
-16.8129597
 21
-81.0000000
 31
0.0
 62
     4
  0
LINE
  8
WORKLAYER
  6
CONTINUOUS
 62
     4
 10
-26.8129597
 20
-81.0000000
 30
0.0
 11
-45.0000000
 21
-81.0000000
 31
0.0
 62
     4
  0
ARC
  8
WORKLAYER
  6
CONTINUOUS
 62
     4
 10
46.9365005
 20
-80.5001068
 30
0.0
 40
2.0000000
 50
194.4774933
 51
270.0000000
  0
ARC
  8
WORKLAYER
  6
CONTINUOUS
 62
     4
 10
-46.9364891
 20
-80.5001068
 30
0.0
 40
2.0000000
 50
270.0000000
 51
345.5224915
  0
LINE
  8
WORKLAYER
  6
CONTINUOUS
 62
     4
 10
-33.2578888
 20
-117.5000000
 30
0.0
 11
-38.6739998
 21
-105.4502029
 31
0.0
 62
     4
  0
LINE
  8
WORKLAYER
  6
CONTINUOUS
 62
     4
 10
-36.3423004
 20
-161.6204987
 30
0.0
 11
-32.3613014
 21
-150.0001068
 31
0.0
 62
     4
  0
LINE
  8
WORKLAYER
  6
CONTINUOUS
 62
     4
 10
33.2578011
 20
-117.5000000
 30
0.0
 11
38.6739998
 21
-105.4502029
 31
0.0
 62
     4
  0
LINE
  8
WORKLAYER
  6
CONTINUOUS
 62
     4
 10
36.3422012
 20
-161.6204987
 30
0.0
 11
32.3613091
 21
-150.0001068
 31
0.0
 62
     4
  0
LINE
  8
WORKLAYER
  6
CONTINUOUS
 62
     4
 10
32.3613091
 20
-150.0000000
 30
0.0
 11
33.2578011
 21
-117.5000000
 31
0.0
 62
     4
  0
LINE
  8
WORKLAYER
  6
CONTINUOUS
 62
     4
 10
-32.3613014
 20
-150.0000000
 30
0.0
 11
-33.2578888
 21
-117.5000000
 31
0.0
 62
     4
  0
LINE
  8
WORKLAYER
  6
CENTER
 62
     2
 10
-60.0000000
 20
-188.0001068
 30
0.0
 11
-60.0000000
 21
-162.0001068
 31
0.0
 62
     2
  0
LINE
  8
WORKLAYER
  6
CENTER
 62
     2
 10
59.9999809
 20
-188.0001068
 30
0.0
 11
59.9999809
 21
-162.0001068
 31
0.0
 62
     2
  0
ENDBLK
  0
BLOCK
  8
WORKLAYER
  2
DXF223
 70
    64
 10
0.0
 20
0.0
 30
0.0
  3
DXF223
  0
LINE
  8
WORKLAYER
  6
CONTINUOUS
 62
     4
 10
-17.0000305
 20
149.0000000
 30
0.0
 11
-12.1880503
 21
149.0000000
 31
0.0
 62
     4
  0
LINE
  8
WORKLAYER
  6
CONTINUOUS
 62
     4
 10
12.1879597
 20
149.0000000
 30
0.0
 11
16.9999695
 21
149.0000000
 31
0.0
 62
     4
  0
LINE
  8
WORKLAYER
  6
CONTINUOUS
 62
     4
 10
16.9999695
 20
149.0000000
 30
0.0
 11
16.9999695
 21
151.0000000
 31
0.0
 62
     4
  0
LINE
  8
WORKLAYER
  6
CONTINUOUS
 62
     4
 10
16.9999695
 20
151.0000000
 30
0.0
 11
0.0000000
 21
151.0000000
 31
0.0
 62
     4
  0
LINE
  8
WORKLAYER
  6
CONTINUOUS
 62
     4
 10
0.0000000
 20
151.0000000
 30
0.0
 11
-17.0000305
 21
151.0000000
 31
0.0
 62
     4
  0
LINE
  8
WORKLAYER
  6
CONTINUOUS
 62
     4
 10
-17.0000305
 20
151.0000000
 30
0.0
 11
-17.0000305
 21
149.0000000
 31
0.0
 62
     4
  0
ENDBLK
  0
BLOCK
  8
WORKLAYER
  2
DXF224
 70
    64
 10
0.0
 20
0.0
 30
0.0
  3
DXF224
  0
LINE
  8
WORKLAYER
  6
CONTINUOUS
 62
     4
 10
-11.5000296
 20
160.5000000
 30
0.0
 11
0.0000000
 21
160.5000000
 31
0.0
 62
     4
  0
LINE
  8
WORKLAYER
  6
CONTINUOUS
 62
     4
 10
0.0000000
 20
160.5000000
 30
0.0
 11
11.4999704
 21
160.5000000
 31
0.0
 62
     4
  0
LINE
  8
WORKLAYER
  6
CONTINUOUS
 62
     4
 10
-12.0000296
 20
155.5000000
 30
0.0
 11
0.0000000
 21
155.5000000
 31
0.0
 62
     4
  0
LINE
  8
WORKLAYER
  6
CONTINUOUS
 62
     4
 10
0.0000000
 20
155.5000000
 30
0.0
 11
11.9999704
 21
155.5000000
 31
0.0
 62
     4
  0
LINE
  8
WORKLAYER
  6
CONTINUOUS
 62
     4
 10
-12.0000296
 20
155.5000000
 30
0.0
 11
-13.0000296
 21
154.5000000
 31
0.0
 62
     4
  0
LINE
  8
WORKLAYER
  6
CONTINUOUS
 62
     4
 10
-13.0000296
 20
154.5000000
 30
0.0
 11
-13.0000296
 21
151.0000000
 31
0.0
 62
     4
  0
LINE
  8
WORKLAYER
  6
CONTINUOUS
 62
     4
 10
12.9999704
 20
154.5000000
 30
0.0
 11
12.9999704
 21
151.0000000
 31
0.0
 62
     4
  0
LINE
  8
WORKLAYER
  6
CONTINUOUS
 62
     4
 10
12.9999704
 20
154.5000000
 30
0.0
 11
11.9999704
 21
155.5000000
 31
0.0
 62
     4
  0
LINE
  8
WORKLAYER
  6
CONTINUOUS
 62
     2
 10
-12.1880503
 20
155.5000000
 30
0.0
 11
-12.1880503
 21
151.0000000
 31
0.0
 62
     2
  0
LINE
  8
WORKLAYER
  6
CONTINUOUS
 62
     2
 10
12.1879597
 20
155.5000000
 30
0.0
 11
12.1879597
 21
151.0000000
 31
0.0
 62
     2
  0
LINE
  8
WORKLAYER
  6
CONTINUOUS
 62
     4
 10
11.4999704
 20
160.5000000
 30
0.0
 11
11.4999704
 21
155.5000000
 31
0.0
 62
     4
  0
LINE
  8
WORKLAYER
  6
CONTINUOUS
 62
     4
 10
-11.5000296
 20
160.5000000
 30
0.0
 11
-11.5000296
 21
155.5000000
 31
0.0
 62
     4
  0
ENDBLK
  0
BLOCK
  8
WORKLAYER
  2
DXF225
 70
    64
 10
0.0
 20
0.0
 30
0.0
  3
DXF225
  0
LINE
  8
WORKLAYER
  6
CONTINUOUS
 62
     4
 10
4.9999728
 20
160.5000000
 30
0.0
 11
4.9999728
 21
161.5359955
 31
0.0
 62
     4
  0
LINE
  8
WORKLAYER
  6
CONTINUOUS
 62
     4
 10
-5.0000272
 20
161.5359955
 30
0.0
 11
-5.0000272
 21
160.5000000
 31
0.0
 62
     4
  0
LINE
  8
WORKLAYER
  6
CONTINUOUS
 62
     4
 10
-4.0000272
 20
165.2680054
 30
0.0
 11
-5.0000272
 21
161.5359955
 31
0.0
 62
     4
  0
LINE
  8
WORKLAYER
  6
CONTINUOUS
 62
     4
 10
3.9999731
 20
165.2680054
 30
0.0
 11
4.9999728
 21
161.5359955
 31
0.0
 62
     4
  0
LINE
  8
WORKLAYER
  6
CONTINUOUS
 62
     2
 10
3.9999731
 20
165.2680054
 30
0.0
 11
-4.0000272
 21
165.2680054
 31
0.0
 62
     2
  0
LINE
  8
WORKLAYER
  6
CONTINUOUS
 62
     2
 10
3.9999731
 20
168.2680054
 30
0.0
 11
-4.0000272
 21
168.2680054
 31
0.0
 62
     2
  0
LINE
  8
WORKLAYER
  6
CONTINUOUS
 62
     4
 10
-4.0000272
 20
177.3000031
 30
0.0
 11
-4.0000272
 21
165.2680054
 31
0.0
 62
     4
  0
LINE
  8
WORKLAYER
  6
CONTINUOUS
 62
     4
 10
3.9999731
 20
165.2680054
 30
0.0
 11
3.9999731
 21
177.3000031
 31
0.0
 62
     4
  0
LINE
  8
WORKLAYER
  6
CONTINUOUS
 62
     2
 10
-5.0000272
 20
161.5359955
 30
0.0
 11
4.9999728
 21
161.5359955
 31
0.0
 62
     2
  0
LINE
  8
WORKLAYER
  6
CONTINUOUS
 62
     2
 10
-4.0000272
 20
166.5359955
 30
0.0
 11
-3.0000269
 21
168.2680054
 31
0.0
 62
     2
  0
LINE
  8
WORKLAYER
  6
CONTINUOUS
 62
     2
 10
3.9999731
 20
166.5359955
 30
0.0
 11
2.9999731
 21
168.2680054
 31
0.0
 62
     2
  0
LINE
  8
WORKLAYER
  6
CONTINUOUS
 62
     2
 10
-3.0000269
 20
177.3000031
 30
0.0
 11
-3.0000269
 21
168.2680054
 31
0.0
 62
     2
  0
LINE
  8
WORKLAYER
  6
CONTINUOUS
 62
     2
 10
2.9999731
 20
168.2680054
 30
0.0
 11
2.9999731
 21
177.3000031
 31
0.0
 62
     2
  0
ENDBLK
  0
BLOCK
  8
WORKLAYER
  2
DXF226
 70
    64
 10
0.0
 20
0.0
 30
0.0
  3
DXF226
  0
LINE
  8
WORKLAYER
  6
CONTINUOUS
 62
     4
 10
-9.8000011
 20
177.3000031
 30
0.0
 11
9.8000011
 21
177.3000031
 31
0.0
 62
     4
  0
LINE
  8
WORKLAYER
  6
CONTINUOUS
 62
     4
 10
3.5500009
 20
205.3000031
 30
0.0
 11
-3.5500009
 21
205.3000031
 31
0.0
 62
     4
  0
LINE
  8
WORKLAYER
  6
CONTINUOUS
 62
     4
 10
-9.8000011
 20
195.8533936
 30
0.0
 11
-9.8000011
 21
177.3000031
 31
0.0
 62
     4
  0
ARC
  8
WORKLAYER
  6
CONTINUOUS
 62
     4
 10
0.0000057
 20
189.6988068
 30
0.0
 40
16.0000000
 50
102.8191986
 51
115.9445038
  0
LINE
  8
WORKLAYER
  6
CONTINUOUS
 62
     4
 10
-9.8000011
 20
195.8533936
 30
0.0
 11
-4.3499932
 21
199.0000000
 31
0.0
 62
     4
  0
ARC
  8
WORKLAYER
  6
CONTINUOUS
 62
     4
 10
0.0000057
 20
217.6011963
 30
0.0
 40
16.0000000
 50
244.0554962
 51
254.2241058
  0
LINE
  8
WORKLAYER
  6
CONTINUOUS
 62
     4
 10
-7.0000019
 20
204.0863037
 30
0.0
 11
-7.0000019
 21
203.2136993
 31
0.0
 62
     4
  0
LINE
  8
WORKLAYER
  6
CONTINUOUS
 62
     4
 10
-4.3499932
 20
202.2039032
 30
0.0
 11
-4.3499932
 21
199.0000000
 31
0.0
 62
     4
  0
ARC
  8
WORKLAYER
  6
CONTINUOUS
 62
     4
 10
0.0000057
 20
189.6988068
 30
0.0
 40
16.0000000
 50
64.0555191
 51
77.1808167
  0
LINE
  8
WORKLAYER
  6
CONTINUOUS
 62
     4
 10
9.8000011
 20
195.8533936
 30
0.0
 11
4.3500118
 21
199.0000000
 31
0.0
 62
     4
  0
ARC
  8
WORKLAYER
  6
CONTINUOUS
 62
     4
 10
0.0000057
 20
217.6011963
 30
0.0
 40
16.0000000
 50
285.7759094
 51
295.9444885
  0
LINE
  8
WORKLAYER
  6
CONTINUOUS
 62
     4
 10
7.0000062
 20
204.0863037
 30
0.0
 11
7.0000062
 21
203.2136993
 31
0.0
 62
     4
  0
LINE
  8
WORKLAYER
  6
CONTINUOUS
 62
     4
 10
4.3500118
 20
202.2039032
 30
0.0
 11
4.3500118
 21
199.0000000
 31
0.0
 62
     4
  0
LINE
  8
WORKLAYER
  6
CONTINUOUS
 62
     4
 10
9.8000011
 20
195.8533936
 30
0.0
 11
9.8000011
 21
177.3000031
 31
0.0
 62
     4
  0
LINE
  8
WORKLAYER
  6
CONTINUOUS
 62
     4
 10
-4.3499932
 20
199.0000000
 30
0.0
 11
4.3500118
 21
199.0000000
 31
0.0
 62
     4
  0
LINE
  8
WORKLAYER
  6
CONTINUOUS
 62
     4
 10
-4.3499932
 20
202.2039032
 30
0.0
 11
4.3500118
 21
202.2039032
 31
0.0
 62
     4
  0
LINE
  8
WORKLAYER
  6
CONTINUOUS
 62
     3
 10
-7.0000019
 20
204.0863037
 30
0.0
 11
7.0000062
 21
204.0863037
 31
0.0
 62
     3
  0
LINE
  8
WORKLAYER
  6
CONTINUOUS
 62
     3
 10
7.0000062
 20
203.2136993
 30
0.0
 11
-7.0000019
 21
203.2136993
 31
0.0
 62
     3
  0
ARC
  8
WORKLAYER
  6
CONTINUOUS
 62
     4
 10
0.0000057
 20
186.5444946
 30
0.0
 40
10.5197802
 50
62.2386894
 51
117.7612991
  0
LINE
  8
WORKLAYER
  6
CONTINUOUS
 62
     4
 10
-4.8999920
 20
195.8533936
 30
0.0
 11
-4.8999920
 21
177.3000031
 31
0.0
 62
     4
  0
LINE
  8
WORKLAYER
  6
CONTINUOUS
 62
     4
 10
4.9000001
 20
195.8533936
 30
0.0
 11
4.9000001
 21
177.3000031
 31
0.0
 62
     4
  0
ARC
  8
WORKLAYER
  6
CONTINUOUS
 62
     4
 10
-7.3499932
 20
191.6098938
 30
0.0
 40
4.9000049
 50
60.0000000
 51
120.0000000
  0
ARC
  8
WORKLAYER
  6
CONTINUOUS
 62
     4
 10
7.3500118
 20
191.6098938
 30
0.0
 40
4.9000049
 50
60.0000000
 51
120.0000000
  0
ENDBLK
  0
BLOCK
  8
WORKLAYER
  2
DXF227
 70
    64
 10
0.0
 20
0.0
 30
0.0
  3
DXF227
  0
LINE
  8
WORKLAYER
  6
CONTINUOUS
 62
     4
 10
242.9530029
 20
177.3000031
 30
0.0
 11
258.3583984
 21
177.3000031
 31
0.0
 62
     4
  0
LINE
  8
WORKLAYER
  6
CONTINUOUS
 62
     4
 10
254.2057037
 20
205.3000031
 30
0.0
 11
247.1056976
 21
205.3000031
 31
0.0
 62
     4
  0
ARC
  8
WORKLAYER
  6
CONTINUOUS
 62
     4
 10
250.6557007
 20
189.6988068
 30
0.0
 40
16.0000000
 50
102.8191986
 51
115.9445038
  0
LINE
  8
WORKLAYER
  6
CONTINUOUS
 62
     4
 10
242.9530029
 20
197.0643005
 30
0.0
 11
246.3056946
 21
199.0000000
 31
0.0
 62
     4
  0
ARC
  8
WORKLAYER
  6
CONTINUOUS
 62
     4
 10
250.6557007
 20
217.6011963
 30
0.0
 40
16.0000000
 50
244.0554962
 51
254.2241058
  0
LINE
  8
WORKLAYER
  6
CONTINUOUS
 62
     4
 10
243.6557007
 20
204.0863037
 30
0.0
 11
243.6557007
 21
203.2136993
 31
0.0
 62
     4
  0
LINE
  8
WORKLAYER
  6
CONTINUOUS
 62
     4
 10
246.3056946
 20
202.2039032
 30
0.0
 11
246.3056946
 21
199.0000000
 31
0.0
 62
     4
  0
ARC
  8
WORKLAYER
  6
CONTINUOUS
 62
     4
 10
250.6557007
 20
189.6988068
 30
0.0
 40
16.0000000
 50
64.0555191
 51
77.1808167
  0
LINE
  8
WORKLAYER
  6
CONTINUOUS
 62
     4
 10
258.3583984
 20
197.0643005
 30
0.0
 11
255.0057068
 21
199.0000000
 31
0.0
 62
     4
  0
ARC
  8
WORKLAYER
  6
CONTINUOUS
 62
     4
 10
250.6557007
 20
217.6011963
 30
0.0
 40
16.0000000
 50
285.7759094
 51
295.9444885
  0
LINE
  8
WORKLAYER
  6
CONTINUOUS
 62
     4
 10
257.6557007
 20
204.0863037
 30
0.0
 11
257.6557007
 21
203.2136993
 31
0.0
 62
     4
  0
LINE
  8
WORKLAYER
  6
CONTINUOUS
 62
     4
 10
255.0057068
 20
202.2039032
 30
0.0
 11
255.0057068
 21
199.0000000
 31
0.0
 62
     4
  0
LINE
  8
WORKLAYER
  6
CONTINUOUS
 62
     4
 10
246.3056946
 20
199.0000000
 30
0.0
 11
255.0057068
 21
199.0000000
 31
0.0
 62
     4
  0
LINE
  8
WORKLAYER
  6
CONTINUOUS
 62
     4
 10
246.3056946
 20
202.2039032
 30
0.0
 11
255.0057068
 21
202.2039032
 31
0.0
 62
     4
  0
LINE
  8
WORKLAYER
  6
CONTINUOUS
 62
     3
 10
243.6557007
 20
204.0863037
 30
0.0
 11
257.6557007
 21
204.0863037
 31
0.0
 62
     3
  0
LINE
  8
WORKLAYER
  6
CONTINUOUS
 62
     3
 10
257.6557007
 20
203.2136993
 30
0.0
 11
243.6557007
 21
203.2136993
 31
0.0
 62
     3
  0
LINE
  8
WORKLAYER
  6
CONTINUOUS
 62
     4
 10
242.9530029
 20
197.0643005
 30
0.0
 11
242.9530029
 21
177.3000031
 31
0.0
 62
     4
  0
LINE
  8
WORKLAYER
  6
CONTINUOUS
 62
     4
 10
258.3583984
 20
197.0643005
 30
0.0
 11
258.3583984
 21
177.3000031
 31
0.0
 62
     4
  0
ARC
  8
WORKLAYER
  6
CONTINUOUS
 62
     4
 10
246.8043060
 20
190.3934937
 30
0.0
 40
7.7027302
 50
60.0000000
 51
120.0000000
  0
ARC
  8
WORKLAYER
  6
CONTINUOUS
 62
     4
 10
254.5070953
 20
190.3934937
 30
0.0
 40
7.7027302
 50
59.9997292
 51
120.0000000
  0
ENDBLK
  0
BLOCK
  8
0
  2
DXF228
 70
    64
 10
0.0
 20
0.0
 30
0.0
  3
DXF228
  0
LINE
  8
0
  6
CONTINUOUS
 62
     4
 10
-61.1611290
 20
-109.5000992
 30
0.0
 11
-62.4760818
 21
-108.7408981
 31
0.0
 62
     4
  0
LINE
  8
0
  6
CONTINUOUS
 62
     4
 10
-57.6611290
 20
-82.5000000
 30
0.0
 11
-57.6611290
 21
-78.5000000
 31
0.0
 62
     4
  0
LINE
  8
0
  6
CONTINUOUS
 62
     4
 10
-47.6611290
 20
-82.5000000
 30
0.0
 11
-47.6611290
 21
-78.5000000
 31
0.0
 62
     4
  0
LINE
  8
0
  6
CONTINUOUS
 62
     4
 10
-42.8461800
 20
-102.5000992
 30
0.0
 11
-62.4760818
 21
-102.5000992
 31
0.0
 62
     4
  0
LINE
  8
0
  6
CONTINUOUS
 62
     4
 10
-44.1611519
 20
-109.5000992
 30
0.0
 11
-61.1611290
 21
-109.5000992
 31
0.0
 62
     4
  0
LINE
  8
0
  6
CONTINUOUS
 62
     4
 10
-62.4760818
 20
-108.7408981
 30
0.0
 11
-62.4760818
 21
-102.5000992
 31
0.0
 62
     4
  0
LINE
  8
0
  6
CONTINUOUS
 62
     4
 10
-42.8461800
 20
-108.7408981
 30
0.0
 11
-42.8461800
 21
-102.5000992
 31
0.0
 62
     4
  0
LINE
  8
0
  6
CONTINUOUS
 62
     4
 10
-44.1611290
 20
-109.5000992
 30
0.0
 11
-42.8461800
 21
-108.7408981
 31
0.0
 62
     4
  0
ARC
  8
0
  6
CONTINUOUS
 62
     4
 10
-52.6611290
 20
-94.7776566
 30
0.0
 40
14.7224302
 50
610.5288086
 51
289.4711914
  0
LINE
  8
0
  6
CONTINUOUS
 62
     4
 10
-47.7536697
 20
-108.6580963
 30
0.0
 11
-47.7536697
 21
-102.5000992
 31
0.0
 62
     4
  0
LINE
  8
0
  6
CONTINUOUS
 62
     4
 10
-57.5686111
 20
-108.6580963
 30
0.0
 11
-57.5686111
 21
-102.5000992
 31
0.0
 62
     4
  0
ARC
  8
0
  6
CONTINUOUS
 62
     4
 10
-44.1611519
 20
-101.4150009
 30
0.0
 40
8.0851116
 50
603.6190186
 51
270.0000000
  0
ARC
  8
0
  6
CONTINUOUS
 62
     4
 10
-61.1611290
 20
-101.4150009
 30
0.0
 40
8.0851116
 50
270.0000000
 51
296.3810120
  0
ENDBLK
  0
BLOCK
  8
0
  2
DXF229
 70
    64
 10
0.0
 20
0.0
 30
0.0
  3
DXF229
  0
LINE
  8
0
  6
CONTINUOUS
 62
     4
 10
-30.3129597
 20
-109.5000992
 30
0.0
 11
-31.6278992
 21
-108.7408981
 31
0.0
 62
     4
  0
LINE
  8
0
  6
CONTINUOUS
 62
     4
 10
-26.8129597
 20
-82.5000000
 30
0.0
 11
-26.8129597
 21
-78.5000000
 31
0.0
 62
     4
  0
LINE
  8
0
  6
CONTINUOUS
 62
     4
 10
-16.8129597
 20
-82.5000000
 30
0.0
 11
-16.8129597
 21
-78.5000000
 31
0.0
 62
     4
  0
LINE
  8
0
  6
CONTINUOUS
 62
     4
 10
-11.9980097
 20
-102.5000992
 30
0.0
 11
-31.6278992
 21
-102.5000992
 31
0.0
 62
     4
  0
LINE
  8
0
  6
CONTINUOUS
 62
     4
 10
-13.3129702
 20
-109.5000992
 30
0.0
 11
-30.3129597
 21
-109.5000992
 31
0.0
 62
     4
  0
LINE
  8
0
  6
CONTINUOUS
 62
     4
 10
-31.6278992
 20
-108.7408981
 30
0.0
 11
-31.6278992
 21
-102.5000992
 31
0.0
 62
     4
  0
LINE
  8
0
  6
CONTINUOUS
 62
     4
 10
-11.9980097
 20
-108.7408981
 30
0.0
 11
-11.9980097
 21
-102.5000992
 31
0.0
 62
     4
  0
LINE
  8
0
  6
CONTINUOUS
 62
     4
 10
-13.3129597
 20
-109.5000992
 30
0.0
 11
-11.9980097
 21
-108.7408981
 31
0.0
 62
     4
  0
ARC
  8
0
  6
CONTINUOUS
 62
     4
 10
-21.8129597
 20
-94.7776566
 30
0.0
 40
14.7224302
 50
610.5288086
 51
289.4711914
  0
LINE
  8
0
  6
CONTINUOUS
 62
     4
 10
-16.9054909
 20
-108.6580963
 30
0.0
 11
-16.9054909
 21
-102.5000992
 31
0.0
 62
     4
  0
LINE
  8
0
  6
CONTINUOUS
 62
     4
 10
-26.7204399
 20
-108.6580963
 30
0.0
 11
-26.7204399
 21
-102.5000992
 31
0.0
 62
     4
  0
ARC
  8
0
  6
CONTINUOUS
 62
     4
 10
-13.3129702
 20
-101.4150009
 30
0.0
 40
8.0851116
 50
603.6190186
 51
270.0000000
  0
ARC
  8
0
  6
CONTINUOUS
 62
     4
 10
-30.3129597
 20
-101.4150009
 30
0.0
 40
8.0851116
 50
270.0000000
 51
296.3810120
  0
ENDBLK
  0
BLOCK
  8
0
  2
DXF230
 70
    64
 10
0.0
 20
0.0
 30
0.0
  3
DXF230
  0
LINE
  8
0
  6
CONTINUOUS
 62
     4
 10
30.3129597
 20
-109.5000992
 30
0.0
 11
31.6278992
 21
-108.7408981
 31
0.0
 62
     4
  0
LINE
  8
0
  6
CONTINUOUS
 62
     4
 10
26.8129597
 20
-82.5000000
 30
0.0
 11
26.8129597
 21
-78.5000000
 31
0.0
 62
     4
  0
LINE
  8
0
  6
CONTINUOUS
 62
     4
 10
16.8129597
 20
-82.5000000
 30
0.0
 11
16.8129597
 21
-78.5000000
 31
0.0
 62
     4
  0
LINE
  8
0
  6
CONTINUOUS
 62
     4
 10
11.9980097
 20
-102.5000992
 30
0.0
 11
31.6278992
 21
-102.5000992
 31
0.0
 62
     4
  0
LINE
  8
0
  6
CONTINUOUS
 62
     4
 10
13.3129702
 20
-109.5000992
 30
0.0
 11
30.3129597
 21
-109.5000992
 31
0.0
 62
     4
  0
LINE
  8
0
  6
CONTINUOUS
 62
     4
 10
31.6278992
 20
-108.7408981
 30
0.0
 11
31.6278992
 21
-102.5000992
 31
0.0
 62
     4
  0
LINE
  8
0
  6
CONTINUOUS
 62
     4
 10
11.9980097
 20
-108.7408981
 30
0.0
 11
11.9980097
 21
-102.5000992
 31
0.0
 62
     4
  0
LINE
  8
0
  6
CONTINUOUS
 62
     4
 10
13.3129597
 20
-109.5000992
 30
0.0
 11
11.9980097
 21
-108.7408981
 31
0.0
 62
     4
  0
ARC
  8
0
  6
CONTINUOUS
 62
     4
 10
21.8129597
 20
-94.7776566
 30
0.0
 40
14.7224302
 50
250.5287933
 51
289.4711914
  0
LINE
  8
0
  6
CONTINUOUS
 62
     4
 10
16.9054909
 20
-108.6580963
 30
0.0
 11
16.9054909
 21
-102.5000992
 31
0.0
 62
     4
  0
LINE
  8
0
  6
CONTINUOUS
 62
     4
 10
26.7204399
 20
-108.6580963
 30
0.0
 11
26.7204399
 21
-102.5000992
 31
0.0
 62
     4
  0
ARC
  8
0
  6
CONTINUOUS
 62
     4
 10
13.3129702
 20
-101.4150009
 30
0.0
 40
8.0851116
 50
270.0000000
 51
296.3810120
  0
ARC
  8
0
  6
CONTINUOUS
 62
     4
 10
30.3129597
 20
-101.4150009
 30
0.0
 40
8.0851116
 50
243.6190033
 51
270.0000000
  0
ENDBLK
  0
BLOCK
  8
0
  2
DXF231
 70
    64
 10
0.0
 20
0.0
 30
0.0
  3
DXF231
  0
LINE
  8
0
  6
CONTINUOUS
 62
     4
 10
61.1611290
 20
-109.5000992
 30
0.0
 11
62.4760818
 21
-108.7408981
 31
0.0
 62
     4
  0
LINE
  8
0
  6
CONTINUOUS
 62
     4
 10
57.6611290
 20
-82.5000000
 30
0.0
 11
57.6611290
 21
-78.5000000
 31
0.0
 62
     4
  0
LINE
  8
0
  6
CONTINUOUS
 62
     4
 10
47.6611290
 20
-82.5000000
 30
0.0
 11
47.6611290
 21
-78.5000000
 31
0.0
 62
     4
  0
LINE
  8
0
  6
CONTINUOUS
 62
     4
 10
42.8461800
 20
-102.5000992
 30
0.0
 11
62.4760818
 21
-102.5000992
 31
0.0
 62
     4
  0
LINE
  8
0
  6
CONTINUOUS
 62
     4
 10
44.1611519
 20
-109.5000992
 30
0.0
 11
61.1611290
 21
-109.5000992
 31
0.0
 62
     4
  0
LINE
  8
0
  6
CONTINUOUS
 62
     4
 10
62.4760818
 20
-108.7408981
 30
0.0
 11
62.4760818
 21
-102.5000992
 31
0.0
 62
     4
  0
LINE
  8
0
  6
CONTINUOUS
 62
     4
 10
42.8461800
 20
-108.7408981
 30
0.0
 11
42.8461800
 21
-102.5000992
 31
0.0
 62
     4
  0
LINE
  8
0
  6
CONTINUOUS
 62
     4
 10
44.1611290
 20
-109.5000992
 30
0.0
 11
42.8461800
 21
-108.7408981
 31
0.0
 62
     4
  0
ARC
  8
0
  6
CONTINUOUS
 62
     4
 10
52.6611290
 20
-94.7776566
 30
0.0
 40
14.7224302
 50
250.5287933
 51
289.4711914
  0
LINE
  8
0
  6
CONTINUOUS
 62
     4
 10
47.7536697
 20
-108.6580963
 30
0.0
 11
47.7536697
 21
-102.5000992
 31
0.0
 62
     4
  0
LINE
  8
0
  6
CONTINUOUS
 62
     4
 10
57.5686111
 20
-108.6580963
 30
0.0
 11
57.5686111
 21
-102.5000992
 31
0.0
 62
     4
  0
ARC
  8
0
  6
CONTINUOUS
 62
     4
 10
44.1611519
 20
-101.4150009
 30
0.0
 40
8.0851116
 50
270.0000000
 51
296.3810120
  0
ARC
  8
0
  6
CONTINUOUS
 62
     4
 10
61.1611290
 20
-101.4150009
 30
0.0
 40
8.0851116
 50
243.6190033
 51
270.0000000
  0
ENDBLK
  0
BLOCK
  8
WORKLAYER
  2
DXF232
 70
    64
 10
0.0
 20
0.0
 30
0.0
  3
DXF232
  0
LINE
  8
WORKLAYER
  6
CONTINUOUS
 62
     4
 10
250.6557007
 20
-81.0000000
 30
0.0
 11
233.8428040
 21
-81.0000000
 31
0.0
 62
     4
  0
LINE
  8
WORKLAYER
  6
CONTINUOUS
 62
     4
 10
223.8428040
 20
-81.0000000
 30
0.0
 11
205.6557007
 21
-81.0000000
 31
0.0
 62
     4
  0
ENDBLK
  0
BLOCK
  8
WORKLAYER
  2
DXF233
 70
    64
 10
0.0
 20
0.0
 30
0.0
  3
DXF233
  0
LINE
  8
WORKLAYER
  6
CONTINUOUS
 62
     4
 10
328.1557007
 20
-185.0001068
 30
0.0
 11
328.1557007
 21
-167.0001068
 31
0.0
 62
     4
  0
LINE
  8
WORKLAYER
  6
CONTINUOUS
 62
     4
 10
326.1557007
 20
-165.0001068
 30
0.0
 11
250.6557007
 21
-165.0001068
 31
0.0
 62
     4
  0
LINE
  8
WORKLAYER
  6
CONTINUOUS
 62
     4
 10
250.6557007
 20
-165.0001068
 30
0.0
 11
175.1557007
 21
-165.0001068
 31
0.0
 62
     4
  0
LINE
  8
WORKLAYER
  6
CONTINUOUS
 62
     4
 10
173.1557007
 20
-167.0001068
 30
0.0
 11
173.1557007
 21
-185.0001068
 31
0.0
 62
     4
  0
LINE
  8
WORKLAYER
  6
CONTINUOUS
 62
     4
 10
173.1557007
 20
-185.0001068
 30
0.0
 11
328.1557007
 21
-185.0001068
 31
0.0
 62
     4
  0
ARC
  8
WORKLAYER
  6
CONTINUOUS
 62
     4
 10
175.1557007
 20
-167.0001068
 30
0.0
 40
2.0000000
 50
90.0000000
 51
180.0000000
  0
ARC
  8
WORKLAYER
  6
CONTINUOUS
 62
     4
 10
326.1557007
 20
-167.0001068
 30
0.0
 40
2.0000000
 50
0.0000000
 51
90.0000000
  0
ARC
  8
WORKLAYER
  6
CONTINUOUS
 62
     4
 10
291.7279968
 20
-160.0001068
 30
0.0
 40
5.0000000
 50
198.9105072
 51
270.0000000
  0
ARC
  8
WORKLAYER
  6
CONTINUOUS
 62
     4
 10
209.5832977
 20
-160.0001068
 30
0.0
 40
5.0000000
 50
270.0000000
 51
341.0895081
  0
LINE
  8
WORKLAYER
  6
CONTINUOUS
 62
     4
 10
317.6557007
 20
-100.5000000
 30
0.0
 11
317.6557007
 21
-84.5000000
 31
0.0
 62
     4
  0
LINE
  8
WORKLAYER
  6
CONTINUOUS
 62
     4
 10
315.6557007
 20
-82.5000000
 30
0.0
 11
250.6557007
 21
-82.5000000
 31
0.0
 62
     4
  0
LINE
  8
WORKLAYER
  6
CONTINUOUS
 62
     4
 10
250.6557007
 20
-82.5000000
 30
0.0
 11
185.6557007
 21
-82.5000000
 31
0.0
 62
     4
  0
LINE
  8
WORKLAYER
  6
CONTINUOUS
 62
     4
 10
183.6557007
 20
-84.5000000
 30
0.0
 11
183.6557007
 21
-100.5000000
 31
0.0
 62
     4
  0
LINE
  8
WORKLAYER
  6
CONTINUOUS
 62
     4
 10
185.6557007
 20
-102.5000992
 30
0.0
 11
250.6557007
 21
-102.5000992
 31
0.0
 62
     4
  0
LINE
  8
WORKLAYER
  6
CONTINUOUS
 62
     4
 10
250.6557007
 20
-102.5000992
 30
0.0
 11
315.6557007
 21
-102.5000992
 31
0.0
 62
     4
  0
ARC
  8
WORKLAYER
  6
CONTINUOUS
 62
     4
 10
315.6557007
 20
-100.5000000
 30
0.0
 40
2.0000000
 50
270.0000000
 51
0.0000000
  0
ARC
  8
WORKLAYER
  6
CONTINUOUS
 62
     4
 10
315.6557007
 20
-84.5000000
 30
0.0
 40
2.0000000
 50
0.0000000
 51
90.0000000
  0
ARC
  8
WORKLAYER
  6
CONTINUOUS
 62
     4
 10
185.6557007
 20
-84.5000000
 30
0.0
 40
2.0000000
 50
90.0000000
 51
180.0000000
  0
ARC
  8
WORKLAYER
  6
CONTINUOUS
 62
     4
 10
185.6557007
 20
-100.5000000
 30
0.0
 40
2.0000000
 50
180.0000000
 51
270.0000000
  0
ARC
  8
WORKLAYER
  6
CONTINUOUS
 62
     4
 10
207.4212036
 20
-107.5000000
 30
0.0
 40
5.0000000
 50
24.2029095
 51
90.0000000
  0
ARC
  8
WORKLAYER
  6
CONTINUOUS
 62
     4
 10
293.8901062
 20
-107.5000000
 30
0.0
 40
5.0000000
 50
90.0000000
 51
155.7971039
  0
LINE
  8
WORKLAYER
  6
CONTINUOUS
 62
     4
 10
295.6557007
 20
-81.0000000
 30
0.0
 11
277.4686890
 21
-81.0000000
 31
0.0
 62
     4
  0
LINE
  8
WORKLAYER
  6
CONTINUOUS
 62
     4
 10
267.4686890
 20
-81.0000000
 30
0.0
 11
250.6557007
 21
-81.0000000
 31
0.0
 62
     4
  0
LINE
  8
WORKLAYER
  6
CONTINUOUS
 62
     4
 10
250.6557007
 20
-81.0000000
 30
0.0
 11
233.8428040
 21
-81.0000000
 31
0.0
 62
     4
  0
LINE
  8
WORKLAYER
  6
CONTINUOUS
 62
     4
 10
223.8428040
 20
-81.0000000
 30
0.0
 11
205.6557007
 21
-81.0000000
 31
0.0
 62
     4
  0
ARC
  8
WORKLAYER
  6
CONTINUOUS
 62
     4
 10
297.5921936
 20
-80.5001068
 30
0.0
 40
2.0000000
 50
194.4774933
 51
270.0000000
  0
ARC
  8
WORKLAYER
  6
CONTINUOUS
 62
     4
 10
203.7191925
 20
-80.5001068
 30
0.0
 40
2.0000000
 50
270.0000000
 51
345.5224915
  0
LINE
  8
WORKLAYER
  6
CONTINUOUS
 62
     4
 10
217.3977966
 20
-117.5000000
 30
0.0
 11
211.9817047
 21
-105.4502029
 31
0.0
 62
     4
  0
LINE
  8
WORKLAYER
  6
CONTINUOUS
 62
     4
 10
214.3134003
 20
-161.6204987
 30
0.0
 11
218.2944031
 21
-150.0001068
 31
0.0
 62
     4
  0
LINE
  8
WORKLAYER
  6
CONTINUOUS
 62
     4
 10
283.9135132
 20
-117.5000000
 30
0.0
 11
289.3297119
 21
-105.4502029
 31
0.0
 62
     4
  0
LINE
  8
WORKLAYER
  6
CONTINUOUS
 62
     4
 10
286.9978943
 20
-161.6204987
 30
0.0
 11
283.0169983
 21
-150.0001068
 31
0.0
 62
     4
  0
LINE
  8
WORKLAYER
  6
CONTINUOUS
 62
     4
 10
283.0169983
 20
-150.0000000
 30
0.0
 11
283.9135132
 21
-117.5000000
 31
0.0
 62
     4
  0
LINE
  8
WORKLAYER
  6
CONTINUOUS
 62
     4
 10
218.2944031
 20
-150.0000000
 30
0.0
 11
217.3977966
 21
-117.5000000
 31
0.0
 62
     4
  0
LINE
  8
WORKLAYER
  6
CENTER
 62
     2
 10
190.6557007
 20
-188.0001068
 30
0.0
 11
190.6557007
 21
-162.0001068
 31
0.0
 62
     2
  0
LINE
  8
WORKLAYER
  6
CENTER
 62
     2
 10
310.6557007
 20
-188.0001068
 30
0.0
 11
310.6557007
 21
-162.0001068
 31
0.0
 62
     2
  0
ENDBLK
  0
BLOCK
  8
0
  2
DXF234
 70
    64
 10
0.0
 20
0.0
 30
0.0
  3
DXF234
  0
LINE
  8
0
  6
CONTINUOUS
 62
     4
 10
220.3428040
 20
-109.5000992
 30
0.0
 11
219.0278015
 21
-108.7408981
 31
0.0
 62
     4
  0
LINE
  8
0
  6
CONTINUOUS
 62
     4
 10
223.8428040
 20
-82.5000000
 30
0.0
 11
223.8428040
 21
-78.5000000
 31
0.0
 62
     4
  0
LINE
  8
0
  6
CONTINUOUS
 62
     4
 10
233.8428040
 20
-82.5000000
 30
0.0
 11
233.8428040
 21
-78.5000000
 31
0.0
 62
     4
  0
LINE
  8
0
  6
CONTINUOUS
 62
     4
 10
238.6576996
 20
-102.5000992
 30
0.0
 11
219.0278015
 21
-102.5000992
 31
0.0
 62
     4
  0
LINE
  8
0
  6
CONTINUOUS
 62
     4
 10
237.3428040
 20
-109.5000992
 30
0.0
 11
220.3428040
 21
-109.5000992
 31
0.0
 62
     4
  0
LINE
  8
0
  6
CONTINUOUS
 62
     4
 10
219.0278015
 20
-108.7408981
 30
0.0
 11
219.0278015
 21
-102.5000992
 31
0.0
 62
     4
  0
LINE
  8
0
  6
CONTINUOUS
 62
     4
 10
238.6576996
 20
-108.7408981
 30
0.0
 11
238.6576996
 21
-102.5000992
 31
0.0
 62
     4
  0
LINE
  8
0
  6
CONTINUOUS
 62
     4
 10
237.3428040
 20
-109.5000992
 30
0.0
 11
238.6576996
 21
-108.7408981
 31
0.0
 62
     4
  0
ARC
  8
0
  6
CONTINUOUS
 62
     4
 10
228.8428040
 20
-94.7776566
 30
0.0
 40
14.7224302
 50
610.5288086
 51
289.4711914
  0
LINE
  8
0
  6
CONTINUOUS
 62
     4
 10
233.7501984
 20
-108.6580963
 30
0.0
 11
233.7501984
 21
-102.5000992
 31
0.0
 62
     4
  0
LINE
  8
0
  6
CONTINUOUS
 62
     4
 10
223.9353027
 20
-108.6580963
 30
0.0
 11
223.9353027
 21
-102.5000992
 31
0.0
 62
     4
  0
ARC
  8
0
  6
CONTINUOUS
 62
     4
 10
237.3428040
 20
-101.4150009
 30
0.0
 40
8.0851116
 50
603.6190186
 51
270.0000000
  0
ARC
  8
0
  6
CONTINUOUS
 62
     4
 10
220.3428040
 20
-101.4150009
 30
0.0
 40
8.0851116
 50
270.0000000
 51
296.3810120
  0
ENDBLK
  0
BLOCK
  8
0
  2
DXF235
 70
    64
 10
0.0
 20
0.0
 30
0.0
  3
DXF235
  0
LINE
  8
0
  6
CONTINUOUS
 62
     4
 10
280.9686890
 20
-109.5000992
 30
0.0
 11
282.2835999
 21
-108.7408981
 31
0.0
 62
     4
  0
LINE
  8
0
  6
CONTINUOUS
 62
     4
 10
277.4686890
 20
-82.5000000
 30
0.0
 11
277.4686890
 21
-78.5000000
 31
0.0
 62
     4
  0
LINE
  8
0
  6
CONTINUOUS
 62
     4
 10
267.4686890
 20
-82.5000000
 30
0.0
 11
267.4686890
 21
-78.5000000
 31
0.0
 62
     4
  0
LINE
  8
0
  6
CONTINUOUS
 62
     4
 10
262.6536865
 20
-102.5000992
 30
0.0
 11
282.2835999
 21
-102.5000992
 31
0.0
 62
     4
  0
LINE
  8
0
  6
CONTINUOUS
 62
     4
 10
263.9686890
 20
-109.5000992
 30
0.0
 11
280.9686890
 21
-109.5000992
 31
0.0
 62
     4
  0
LINE
  8
0
  6
CONTINUOUS
 62
     4
 10
282.2835999
 20
-108.7408981
 30
0.0
 11
282.2835999
 21
-102.5000992
 31
0.0
 62
     4
  0
LINE
  8
0
  6
CONTINUOUS
 62
     4
 10
262.6536865
 20
-108.7408981
 30
0.0
 11
262.6536865
 21
-102.5000992
 31
0.0
 62
     4
  0
LINE
  8
0
  6
CONTINUOUS
 62
     4
 10
263.9686890
 20
-109.5000992
 30
0.0
 11
262.6536865
 21
-108.7408981
 31
0.0
 62
     4
  0
ARC
  8
0
  6
CONTINUOUS
 62
     4
 10
272.4686890
 20
-94.7776566
 30
0.0
 40
14.7224302
 50
250.5287933
 51
289.4711914
  0
LINE
  8
0
  6
CONTINUOUS
 62
     4
 10
267.5611877
 20
-108.6580963
 30
0.0
 11
267.5611877
 21
-102.5000992
 31
0.0
 62
     4
  0
LINE
  8
0
  6
CONTINUOUS
 62
     4
 10
277.3761902
 20
-108.6580963
 30
0.0
 11
277.3761902
 21
-102.5000992
 31
0.0
 62
     4
  0
ARC
  8
0
  6
CONTINUOUS
 62
     4
 10
263.9686890
 20
-101.4150009
 30
0.0
 40
8.0851116
 50
270.0000000
 51
296.3810120
  0
ARC
  8
0
  6
CONTINUOUS
 62
     4
 10
280.9686890
 20
-101.4150009
 30
0.0
 40
8.0851116
 50
243.6190033
 51
270.0000000
  0
ENDBLK
  0
BLOCK
  8
0
  2
DXF236
 70
    64
 10
0.0
 20
0.0
 30
0.0
  3
DXF236
  0
LINE
  8
0
  6
CONTINUOUS
 62
     4
 10
311.8168945
 20
-109.5000992
 30
0.0
 11
313.1318054
 21
-108.7408981
 31
0.0
 62
     4
  0
LINE
  8
0
  6
CONTINUOUS
 62
     4
 10
308.3168945
 20
-82.5000000
 30
0.0
 11
308.3168945
 21
-78.5000000
 31
0.0
 62
     4
  0
LINE
  8
0
  6
CONTINUOUS
 62
     4
 10
298.3168945
 20
-82.5000000
 30
0.0
 11
298.3168945
 21
-78.5000000
 31
0.0
 62
     4
  0
LINE
  8
0
  6
CONTINUOUS
 62
     4
 10
293.5018921
 20
-102.5000992
 30
0.0
 11
313.1318054
 21
-102.5000992
 31
0.0
 62
     4
  0
LINE
  8
0
  6
CONTINUOUS
 62
     4
 10
294.8168945
 20
-109.5000992
 30
0.0
 11
311.8168945
 21
-109.5000992
 31
0.0
 62
     4
  0
LINE
  8
0
  6
CONTINUOUS
 62
     4
 10
313.1318054
 20
-108.7408981
 30
0.0
 11
313.1318054
 21
-102.5000992
 31
0.0
 62
     4
  0
LINE
  8
0
  6
CONTINUOUS
 62
     4
 10
293.5018921
 20
-108.7408981
 30
0.0
 11
293.5018921
 21
-102.5000992
 31
0.0
 62
     4
  0
LINE
  8
0
  6
CONTINUOUS
 62
     4
 10
294.8168945
 20
-109.5000992
 30
0.0
 11
293.5018921
 21
-108.7408981
 31
0.0
 62
     4
  0
ARC
  8
0
  6
CONTINUOUS
 62
     4
 10
303.3168945
 20
-94.7776566
 30
0.0
 40
14.7224302
 50
250.5287933
 51
289.4711914
  0
LINE
  8
0
  6
CONTINUOUS
 62
     4
 10
298.4093933
 20
-108.6580963
 30
0.0
 11
298.4093933
 21
-102.5000992
 31
0.0
 62
     4
  0
LINE
  8
0
  6
CONTINUOUS
 62
     4
 10
308.2243958
 20
-108.6580963
 30
0.0
 11
308.2243958
 21
-102.5000992
 31
0.0
 62
     4
  0
ARC
  8
0
  6
CONTINUOUS
 62
     4
 10
294.8168945
 20
-101.4150009
 30
0.0
 40
8.0851116
 50
270.0000000
 51
296.3810120
  0
ARC
  8
0
  6
CONTINUOUS
 62
     4
 10
311.8168945
 20
-101.4150009
 30
0.0
 40
8.0851116
 50
243.6190033
 51
270.0000000
  0
ENDBLK
  0
BLOCK
  8
0
  2
DXF237
 70
    64
 10
0.0
 20
0.0
 30
0.0
  3
DXF237
  0
LINE
  8
0
  6
CONTINUOUS
 62
     4
 10
189.4945984
 20
-109.5000992
 30
0.0
 11
188.1797028
 21
-108.7408981
 31
0.0
 62
     4
  0
LINE
  8
0
  6
CONTINUOUS
 62
     4
 10
192.9945984
 20
-82.5000000
 30
0.0
 11
192.9945984
 21
-78.5000000
 31
0.0
 62
     4
  0
LINE
  8
0
  6
CONTINUOUS
 62
     4
 10
202.9945984
 20
-82.5000000
 30
0.0
 11
202.9945984
 21
-78.5000000
 31
0.0
 62
     4
  0
LINE
  8
0
  6
CONTINUOUS
 62
     4
 10
207.8096008
 20
-102.5000992
 30
0.0
 11
188.1797028
 21
-102.5000992
 31
0.0
 62
     4
  0
LINE
  8
0
  6
CONTINUOUS
 62
     4
 10
206.4945984
 20
-109.5000992
 30
0.0
 11
189.4945984
 21
-109.5000992
 31
0.0
 62
     4
  0
LINE
  8
0
  6
CONTINUOUS
 62
     4
 10
188.1797028
 20
-108.7408981
 30
0.0
 11
188.1797028
 21
-102.5000992
 31
0.0
 62
     4
  0
LINE
  8
0
  6
CONTINUOUS
 62
     4
 10
207.8096008
 20
-108.7408981
 30
0.0
 11
207.8096008
 21
-102.5000992
 31
0.0
 62
     4
  0
LINE
  8
0
  6
CONTINUOUS
 62
     4
 10
206.4945984
 20
-109.5000992
 30
0.0
 11
207.8096008
 21
-108.7408981
 31
0.0
 62
     4
  0
ARC
  8
0
  6
CONTINUOUS
 62
     4
 10
197.9945984
 20
-94.7776566
 30
0.0
 40
14.7224302
 50
610.5288086
 51
289.4711914
  0
LINE
  8
0
  6
CONTINUOUS
 62
     4
 10
202.9020996
 20
-108.6580963
 30
0.0
 11
202.9020996
 21
-102.5000992
 31
0.0
 62
     4
  0
LINE
  8
0
  6
CONTINUOUS
 62
     4
 10
193.0870972
 20
-108.6580963
 30
0.0
 11
193.0870972
 21
-102.5000992
 31
0.0
 62
     4
  0
ARC
  8
0
  6
CONTINUOUS
 62
     4
 10
206.4945984
 20
-101.4150009
 30
0.0
 40
8.0851116
 50
603.6190186
 51
270.0000000
  0
ARC
  8
0
  6
CONTINUOUS
 62
     4
 10
189.4945984
 20
-101.4150009
 30
0.0
 40
8.0851116
 50
270.0000000
 51
296.3810120
  0
ENDBLK
  0
BLOCK
  8
WORKLAYER
  2
DXF238
 70
    64
 10
0.0
 20
0.0
 30
0.0
  3
DXF238
  0
LINE
  8
WORKLAYER
  6
CONTINUOUS
 62
     4
 10
233.6557007
 20
149.0000000
 30
0.0
 11
238.4676971
 21
149.0000000
 31
0.0
 62
     4
  0
LINE
  8
WORKLAYER
  6
CONTINUOUS
 62
     4
 10
262.8436890
 20
149.0000000
 30
0.0
 11
267.6557007
 21
149.0000000
 31
0.0
 62
     4
  0
LINE
  8
WORKLAYER
  6
CONTINUOUS
 62
     4
 10
267.6557007
 20
149.0000000
 30
0.0
 11
267.6557007
 21
151.0000000
 31
0.0
 62
     4
  0
LINE
  8
WORKLAYER
  6
CONTINUOUS
 62
     4
 10
267.6557007
 20
151.0000000
 30
0.0
 11
250.6557007
 21
151.0000000
 31
0.0
 62
     4
  0
LINE
  8
WORKLAYER
  6
CONTINUOUS
 62
     4
 10
250.6557007
 20
151.0000000
 30
0.0
 11
233.6557007
 21
151.0000000
 31
0.0
 62
     4
  0
LINE
  8
WORKLAYER
  6
CONTINUOUS
 62
     4
 10
233.6557007
 20
151.0000000
 30
0.0
 11
233.6557007
 21
149.0000000
 31
0.0
 62
     4
  0
ENDBLK
  0
BLOCK
  8
WORKLAYER
  2
DXF239
 70
    64
 10
0.0
 20
0.0
 30
0.0
  3
DXF239
  0
LINE
  8
WORKLAYER
  6
CONTINUOUS
 62
     4
 10
239.1557007
 20
160.5000000
 30
0.0
 11
250.6557007
 21
160.5000000
 31
0.0
 62
     4
  0
LINE
  8
WORKLAYER
  6
CONTINUOUS
 62
     4
 10
250.6557007
 20
160.5000000
 30
0.0
 11
262.1557007
 21
160.5000000
 31
0.0
 62
     4
  0
LINE
  8
WORKLAYER
  6
CONTINUOUS
 62
     4
 10
238.6557007
 20
155.5000000
 30
0.0
 11
250.6557007
 21
155.5000000
 31
0.0
 62
     4
  0
LINE
  8
WORKLAYER
  6
CONTINUOUS
 62
     4
 10
250.6557007
 20
155.5000000
 30
0.0
 11
262.6557007
 21
155.5000000
 31
0.0
 62
     4
  0
LINE
  8
WORKLAYER
  6
CONTINUOUS
 62
     4
 10
238.6557007
 20
155.5000000
 30
0.0
 11
237.6557007
 21
154.5000000
 31
0.0
 62
     4
  0
LINE
  8
WORKLAYER
  6
CONTINUOUS
 62
     4
 10
237.6557007
 20
154.5000000
 30
0.0
 11
237.6557007
 21
151.0000000
 31
0.0
 62
     4
  0
LINE
  8
WORKLAYER
  6
CONTINUOUS
 62
     4
 10
263.6557007
 20
154.5000000
 30
0.0
 11
263.6557007
 21
151.0000000
 31
0.0
 62
     4
  0
LINE
  8
WORKLAYER
  6
CONTINUOUS
 62
     4
 10
263.6557007
 20
154.5000000
 30
0.0
 11
262.6557007
 21
155.5000000
 31
0.0
 62
     4
  0
LINE
  8
WORKLAYER
  6
CONTINUOUS
 62
     2
 10
238.4676971
 20
155.5000000
 30
0.0
 11
238.4676971
 21
151.0000000
 31
0.0
 62
     2
  0
LINE
  8
WORKLAYER
  6
CONTINUOUS
 62
     2
 10
262.8436890
 20
155.5000000
 30
0.0
 11
262.8436890
 21
151.0000000
 31
0.0
 62
     2
  0
LINE
  8
WORKLAYER
  6
CONTINUOUS
 62
     4
 10
262.1557007
 20
160.5000000
 30
0.0
 11
262.1557007
 21
155.5000000
 31
0.0
 62
     4
  0
LINE
  8
WORKLAYER
  6
CONTINUOUS
 62
     4
 10
239.1557007
 20
160.5000000
 30
0.0
 11
239.1557007
 21
155.5000000
 31
0.0
 62
     4
  0
ENDBLK
  0
BLOCK
  8
WORKLAYER
  2
DXF240
 70
    64
 10
0.0
 20
0.0
 30
0.0
  3
DXF240
  0
LINE
  8
WORKLAYER
  6
CONTINUOUS
 62
     4
 10
255.6557007
 20
160.5000000
 30
0.0
 11
255.6557007
 21
161.5359955
 31
0.0
 62
     4
  0
LINE
  8
WORKLAYER
  6
CONTINUOUS
 62
     4
 10
245.6557007
 20
161.5359955
 30
0.0
 11
245.6557007
 21
160.5000000
 31
0.0
 62
     4
  0
LINE
  8
WORKLAYER
  6
CONTINUOUS
 62
     4
 10
246.6557007
 20
165.2680054
 30
0.0
 11
245.6557007
 21
161.5359955
 31
0.0
 62
     4
  0
LINE
  8
WORKLAYER
  6
CONTINUOUS
 62
     4
 10
254.6557007
 20
165.2680054
 30
0.0
 11
255.6557007
 21
161.5359955
 31
0.0
 62
     4
  0
LINE
  8
WORKLAYER
  6
CONTINUOUS
 62
     2
 10
254.6557007
 20
165.2680054
 30
0.0
 11
246.6557007
 21
165.2680054
 31
0.0
 62
     2
  0
LINE
  8
WORKLAYER
  6
CONTINUOUS
 62
     2
 10
254.6557007
 20
168.2680054
 30
0.0
 11
246.6557007
 21
168.2680054
 31
0.0
 62
     2
  0
LINE
  8
WORKLAYER
  6
CONTINUOUS
 62
     4
 10
246.6557007
 20
177.3000031
 30
0.0
 11
246.6557007
 21
165.2680054
 31
0.0
 62
     4
  0
LINE
  8
WORKLAYER
  6
CONTINUOUS
 62
     4
 10
254.6557007
 20
165.2680054
 30
0.0
 11
254.6557007
 21
177.3000031
 31
0.0
 62
     4
  0
LINE
  8
WORKLAYER
  6
CONTINUOUS
 62
     2
 10
245.6557007
 20
161.5359955
 30
0.0
 11
255.6557007
 21
161.5359955
 31
0.0
 62
     2
  0
LINE
  8
WORKLAYER
  6
CONTINUOUS
 62
     2
 10
246.6557007
 20
166.5359955
 30
0.0
 11
247.6557007
 21
168.2680054
 31
0.0
 62
     2
  0
LINE
  8
WORKLAYER
  6
CONTINUOUS
 62
     2
 10
254.6557007
 20
166.5359955
 30
0.0
 11
253.6557007
 21
168.2680054
 31
0.0
 62
     2
  0
LINE
  8
WORKLAYER
  6
CONTINUOUS
 62
     2
 10
247.6557007
 20
177.3000031
 30
0.0
 11
247.6557007
 21
168.2680054
 31
0.0
 62
     2
  0
LINE
  8
WORKLAYER
  6
CONTINUOUS
 62
     2
 10
253.6557007
 20
168.2680054
 30
0.0
 11
253.6557007
 21
177.3000031
 31
0.0
 62
     2
  0
ENDBLK
  0
ENDSEC
  0
SECTION
  2
ENTITIES
  0
LINE
  8
AREA
  6
CONTINUOUS
 62
     4
 10
250.6557007
 20
-79.9999771
 30
0.0
 11
295.6557007
 21
-79.9999771
 31
0.0
 62
     4
  0
INSERT
  8
AREA
  2
DXF2
 10
0.0
 20
0.0
 30
0.0
  0
LINE
  8
AREA
  6
CENTER
 62
     2
 10
307.6557007
 20
-65.6989899
 30
0.0
 11
307.6557007
 21
-83.6975937
 31
0.0
 62
     2
  0
LINE
  8
AREA
  6
CONTINUOUS
 62
     4
 10
295.6557007
 20
-78.4999771
 30
0.0
 11
295.6557007
 21
-79.9999771
 31
0.0
 62
     4
  0
LINE
  8
AREA
  6
CONTINUOUS
 62
     4
 10
317.6557007
 20
-66.0346832
 30
0.0
 11
317.6557007
 21
-76.4999771
 31
0.0
 62
     4
  0
INSERT
  8
AREA
  2
DXF6
 10
0.0
 20
0.0
 30
0.0
  0
LINE
  8
AREA
  6
CONTINUOUS
 62
     4
 10
267.0556030
 20
149.0000000
 30
0.0
 11
250.6557007
 21
149.0000000
 31
0.0
 62
     4
  0
LINE
  8
AREA
  6
CONTINUOUS
 62
     4
 10
273.6557007
 20
117.0000000
 30
0.0
 11
250.6557007
 21
117.0000000
 31
0.0
 62
     4
  0
ARC
  8
AREA
  6
CONTINUOUS
 62
     4
 10
274.6557007
 20
90.0000000
 30
0.0
 40
5.0000000
 50
475.3771973
 51
180.0000000
  0
LINE
  8
AREA
  6
CONTINUOUS
 62
     4
 10
273.6557007
 20
117.0000000
 30
0.0
 11
273.6557007
 21
96.3246002
 31
0.0
 62
     4
  0
LINE
  8
AREA
  6
CONTINUOUS
 62
     4
 10
279.7518005
 20
86.2911987
 30
0.0
 11
273.9682007
 21
94.5534973
 31
0.0
 62
     4
  0
ARC
  8
AREA
  6
CONTINUOUS
 62
     4
 10
268.0556030
 20
123.0000000
 30
0.0
 40
1.5000000
 50
180.0000000
 51
270.0000000
  0
LINE
  8
AREA
  6
CONTINUOUS
 62
     4
 10
268.0556030
 20
130.5000000
 30
0.0
 11
266.5556030
 21
123.1516037
 31
0.0
 62
     4
  0
INSERT
  8
AREA
  2
DXF14
 10
0.0
 20
0.0
 30
0.0
  0
INSERT
  8
AREA
  2
DXF15
 10
0.0
 20
0.0
 30
0.0
  0
LINE
  8
AREA
  6
CONTINUOUS
 62
     4
 10
268.0556030
 20
121.5000000
 30
0.0
 11
268.0556030
 21
117.0000000
 31
0.0
 62
     4
  0
ARC
  8
AREA
  6
CONTINUOUS
 62
     4
 10
271.6557007
 20
96.3246002
 30
0.0
 40
2.0000000
 50
295.3771057
 51
360.0000000
  0
ARC
  8
AREA
  6
CONTINUOUS
 62
     4
 10
275.6065979
 20
95.7004089
 30
0.0
 40
2.0000000
 50
531.0233154
 51
214.9920044
  0
LINE
  8
AREA
  6
CONTINUOUS
 62
     4
 10
268.0556030
 20
121.5000000
 30
0.0
 11
250.6557007
 21
121.5000000
 31
0.0
 62
     4
  0
LINE
  8
AREA
  6
CONTINUOUS
 62
     4
 10
268.0556030
 20
130.5000000
 30
0.0
 11
250.6557007
 21
130.5000000
 31
0.0
 62
     4
  0
LINE
  8
AREA
  6
CENTER
 62
     2
 10
303.3309021
 20
52.6753998
 30
0.0
 11
283.2507019
 21
32.5951996
 31
0.0
 62
     2
  0
CIRCLE
  8
AREA
  6
CONTINUOUS
 62
     4
 10
293.0820007
 20
42.4264107
 30
0.0
 40
9.5000000
  0
LINE
  8
AREA
  6
CENTER
 62
     2
 10
303.3309021
 20
-52.6753082
 30
0.0
 11
283.2507019
 21
-32.5951118
 31
0.0
 62
     2
  0
CIRCLE
  8
AREA
  6
CONTINUOUS
 62
     4
 10
293.0820007
 20
-42.4264107
 30
0.0
 40
9.5000000
  0
LINE
  8
AREA
  6
CONTINUOUS
 62
     4
 10
293.6207886
 20
-64.4999771
 30
0.0
 11
315.6557007
 21
-64.4999771
 31
0.0
 62
     4
  0
INSERT
  8
AREA
  2
DXF26
 10
0.0
 20
0.0
 30
0.0
  0
LINE
  8
AREA
  6
CONTINUOUS
 62
     4
 10
317.6557007
 20
-66.0346832
 30
0.0
 11
317.6557007
 21
-76.4999771
 31
0.0
 62
     4
  0
INSERT
  8
AREA
  2
DXF28
 10
0.0
 20
0.0
 30
0.0
  0
LINE
  8
AREA
  6
CONTINUOUS
 62
     4
 10
268.0556030
 20
148.0000000
 30
0.0
 11
250.6557007
 21
148.0000000
 31
0.0
 62
     4
  0
CIRCLE
  8
WORKLAYER
  6
CONTINUOUS
 62
     4
 10
250.6557007
 20
0.0000000
 30
0.0
 40
77.5000000
  0
INSERT
  8
AREA
  2
DXF31
 10
0.0
 20
0.0
 30
0.0
  0
LINE
  8
AREA
  6
CONTINUOUS
 62
     4
 10
269.6557007
 20
90.0000000
 30
0.0
 11
269.6557007
 21
75.1349030
 31
0.0
 62
     4
  0
INSERT
  8
AREA
  2
DXF33
 10
0.0
 20
0.0
 30
0.0
  0
LINE
  8
AREA
  6
CENTER
 62
     2
 10
332.6903076
 20
-0.0000000
 30
0.0
 11
169.2227020
 21
0.0000000
 31
0.0
 62
     2
  0
LINE
  8
AREA
  6
CONTINUOUS
 62
     4
 10
250.6557007
 20
-79.9999771
 30
0.0
 11
205.6557007
 21
-79.9999771
 31
0.0
 62
     4
  0
INSERT
  8
AREA
  2
DXF36
 10
0.0
 20
0.0
 30
0.0
  0
LINE
  8
AREA
  6
CONTINUOUS
 62
     4
 10
205.6557007
 20
-78.4999771
 30
0.0
 11
205.6557007
 21
-79.9999771
 31
0.0
 62
     4
  0
LINE
  8
AREA
  6
CONTINUOUS
 62
     4
 10
183.6557007
 20
-66.0346832
 30
0.0
 11
183.6557007
 21
-76.4999771
 31
0.0
 62
     4
  0
INSERT
  8
AREA
  2
DXF39
 10
0.0
 20
0.0
 30
0.0
  0
LINE
  8
AREA
  6
CONTINUOUS
 62
     4
 10
207.6905975
 20
-64.4999771
 30
0.0
 11
185.6557007
 21
-64.4999771
 31
0.0
 62
     4
  0
INSERT
  8
AREA
  2
DXF41
 10
0.0
 20
0.0
 30
0.0
  0
LINE
  8
AREA
  6
CONTINUOUS
 62
     4
 10
183.6557007
 20
-66.0346832
 30
0.0
 11
183.6557007
 21
-76.4999771
 31
0.0
 62
     4
  0
INSERT
  8
AREA
  2
DXF43
 10
0.0
 20
0.0
 30
0.0
  0
LINE
  8
AREA
  6
CONTINUOUS
 62
     4
 10
234.2557983
 20
149.0000000
 30
0.0
 11
250.6557007
 21
149.0000000
 31
0.0
 62
     4
  0
LINE
  8
AREA
  6
CONTINUOUS
 62
     4
 10
231.6557007
 20
90.0000000
 30
0.0
 11
231.6557007
 21
75.1349030
 31
0.0
 62
     4
  0
INSERT
  8
AREA
  2
DXF46
 10
0.0
 20
0.0
 30
0.0
  0
LINE
  8
AREA
  6
CONTINUOUS
 62
     4
 10
227.6557007
 20
117.0000000
 30
0.0
 11
250.6557007
 21
117.0000000
 31
0.0
 62
     4
  0
ARC
  8
AREA
  6
CONTINUOUS
 62
     4
 10
226.6557007
 20
90.0000000
 30
0.0
 40
5.0000000
 50
360.0000000
 51
424.6228027
  0
LINE
  8
AREA
  6
CONTINUOUS
 62
     4
 10
227.6557007
 20
117.0000000
 30
0.0
 11
227.6557007
 21
96.3246002
 31
0.0
 62
     4
  0
LINE
  8
AREA
  6
CONTINUOUS
 62
     4
 10
221.5596008
 20
86.2911987
 30
0.0
 11
227.3432007
 21
94.5534973
 31
0.0
 62
     4
  0
ARC
  8
AREA
  6
CONTINUOUS
 62
     4
 10
233.2557983
 20
123.0000000
 30
0.0
 40
1.5000000
 50
270.0000000
 51
360.0000000
  0
LINE
  8
AREA
  6
CONTINUOUS
 62
     4
 10
233.2557983
 20
130.5000000
 30
0.0
 11
234.7557983
 21
123.1516037
 31
0.0
 62
     4
  0
INSERT
  8
AREA
  2
DXF53
 10
0.0
 20
0.0
 30
0.0
  0
INSERT
  8
AREA
  2
DXF54
 10
0.0
 20
0.0
 30
0.0
  0
LINE
  8
AREA
  6
CONTINUOUS
 62
     4
 10
233.2557983
 20
121.5000000
 30
0.0
 11
233.2557983
 21
117.0000000
 31
0.0
 62
     4
  0
ARC
  8
AREA
  6
CONTINUOUS
 62
     4
 10
229.6557007
 20
96.3246002
 30
0.0
 40
2.0000000
 50
180.0000000
 51
244.6228943
  0
ARC
  8
AREA
  6
CONTINUOUS
 62
     4
 10
225.7048035
 20
95.7004089
 30
0.0
 40
2.0000000
 50
325.0079956
 51
368.9767151
  0
LINE
  8
AREA
  6
CONTINUOUS
 62
     4
 10
233.2557983
 20
121.5000000
 30
0.0
 11
250.6557007
 21
121.5000000
 31
0.0
 62
     4
  0
LINE
  8
AREA
  6
CONTINUOUS
 62
     4
 10
233.2557983
 20
130.5000000
 30
0.0
 11
250.6557007
 21
130.5000000
 31
0.0
 62
     4
  0
INSERT
  8
AREA
  2
DXF60
 10
0.0
 20
0.0
 30
0.0
  0
LINE
  8
AREA
  6
CONTINUOUS
 62
     4
 10
233.2557983
 20
148.0000000
 30
0.0
 11
250.6557007
 21
148.0000000
 31
0.0
 62
     4
  0
LINE
  8
AREA
  6
CENTER
 62
     2
 10
197.9804993
 20
52.6753998
 30
0.0
 11
218.0606995
 21
32.5951996
 31
0.0
 62
     2
  0
CIRCLE
  8
AREA
  6
CONTINUOUS
 62
     4
 10
208.2294006
 20
42.4264107
 30
0.0
 40
9.5000000
  0
LINE
  8
AREA
  6
CENTER
 62
     2
 10
197.9804993
 20
-52.6753082
 30
0.0
 11
218.0606995
 21
-32.5951118
 31
0.0
 62
     2
  0
CIRCLE
  8
AREA
  6
CONTINUOUS
 62
     4
 10
208.2294006
 20
-42.4264107
 30
0.0
 40
9.5000000
  0
CIRCLE
  8
AREA
  6
CENTER
 62
     2
 10
250.6557007
 20
0.0000000
 30
0.0
 40
60.0000000
  0
CIRCLE
  8
WORKLAYER
  6
CONTINUOUS
 62
     4
 10
250.6557007
 20
0.0000000
 30
0.0
 40
25.0000000
  0
LINE
  8
AREA
  6
CONTINUOUS
 62
     4
 10
205.6557007
 20
-78.4999771
 30
0.0
 11
205.6557007
 21
-81.0000000
 31
0.0
 62
     4
  0
LINE
  8
AREA
  6
CONTINUOUS
 62
     4
 10
295.6557007
 20
-78.4999771
 30
0.0
 11
295.6557007
 21
-81.0000000
 31
0.0
 62
     4
  0
INSERT
  8
AREA
  2
DXF70
 10
0.0
 20
0.0
 30
0.0
  0
INSERT
  8
AREA
  2
DXF71
 10
0.0
 20
0.0
 30
0.0
  0
LINE
  8
AREA
  6
CENTER
 62
     2
 10
250.6557007
 20
-206.5892029
 30
0.0
 11
250.6557007
 21
224.3970947
 31
0.0
 62
     2
  0
INSERT
  8
WORKLAYER
  2
DXF73
 10
0.0
 20
0.0
 30
0.0
  0
LINE
  8
AREA
  6
CONTINUOUS
 62
     4
 10
30.0000000
 20
-36.0000000
 30
0.0
 11
22.0000000
 21
-39.0000000
 31
0.0
 62
     4
  0
LINE
  8
AREA
  6
CONTINUOUS
 62
     4
 10
30.0000000
 20
-36.0000000
 30
0.0
 11
22.0000000
 21
-33.0000000
 31
0.0
 62
     4
  0
LINE
  8
AREA
  6
CENTER
 62
     2
 10
-99.5977783
 20
59.9999809
 30
0.0
 11
-132.8834991
 21
59.9999809
 31
0.0
 62
     2
  0
INSERT
  8
AREA
  2
DXF77
 10
0.0
 20
0.0
 30
0.0
  0
LINE
  8
AREA
  6
CONTINUOUS
 62
     4
 10
127.0000000
 20
0.0000000
 30
0.0
 11
127.0000000
 21
-77.5000000
 31
0.0
 62
     4
  0
LINE
  8
AREA
  6
CONTINUOUS
 62
     4
 10
66.3972778
 20
-64.5000000
 30
0.0
 11
-66.2824707
 21
-64.5000000
 31
0.0
 62
     4
  0
LINE
  8
AREA
  6
CONTINUOUS
 62
     4
 10
67.0000000
 20
-66.0347137
 30
0.0
 11
67.0000000
 21
-76.5000000
 31
0.0
 62
     4
  0
INSERT
  8
AREA
  2
DXF81
 10
0.0
 20
0.0
 30
0.0
  0
ARC
  8
AREA
  6
CONTINUOUS
 62
     4
 10
-88.3784180
 20
4.7396998
 30
0.0
 40
64.0000000
 50
372.6011963
 51
418.5881042
  0
INSERT
  8
AREA
  2
DXF83
 10
0.0
 20
0.0
 30
0.0
  0
INSERT
  8
AREA
  2
DXF84
 10
0.0
 20
0.0
 30
0.0
  0
LINE
  8
AREA
  6
CONTINUOUS
 62
     4
 10
107.0000000
 20
0.0000000
 30
0.0
 11
107.0000000
 21
-75.5000000
 31
0.0
 62
     4
  0
ARC
  8
AREA
  6
CONTINUOUS
 62
     4
 10
-24.9509907
 20
95.7003937
 30
0.0
 40
2.0000000
 50
325.0079956
 51
368.9767151
  0
LINE
  8
AREA
  6
CENTER
 62
     2
 10
99.5977783
 20
-60.0000000
 30
0.0
 11
131.5951996
 21
-60.0000000
 31
0.0
 62
     2
  0
INSERT
  8
AREA
  2
DXF88
 10
0.0
 20
0.0
 30
0.0
  0
INSERT
  8
AREA
  2
DXF89
 10
0.0
 20
0.0
 30
0.0
  0
LINE
  8
AREA
  6
CONTINUOUS
 62
     4
 10
-67.0000000
 20
-66.0347137
 30
0.0
 11
-67.0000000
 21
-76.5000000
 31
0.0
 62
     4
  0
INSERT
  8
AREA
  2
DXF91
 10
0.0
 20
0.0
 30
0.0
  0
LINE
  8
AREA
  6
CONTINUOUS
 62
     4
 10
-92.0000000
 20
41.5002899
 30
0.0
 11
-61.9343300
 21
63.0208893
 31
0.0
 62
     4
  0
INSERT
  8
AREA
  2
DXF93
 10
0.0
 20
0.0
 30
0.0
  0
ARC
  8
AREA
  6
CONTINUOUS
 62
     4
 10
106.1230011
 20
0.4812927
 30
0.0
 40
64.0000000
 50
181.6329956
 51
226.1920013
  0
INSERT
  8
AREA
  2
DXF95
 10
0.0
 20
0.0
 30
0.0
  0
ARC
  8
AREA
  6
CONTINUOUS
 62
     4
 10
-43.3087807
 20
36.9999809
 30
0.0
 40
32.0000000
 50
450.0000000
 51
485.5946960
  0
INSERT
  8
AREA
  2
DXF97
 10
0.0
 20
0.0
 30
0.0
  0
INSERT
  8
AREA
  2
DXF98
 10
0.0
 20
0.0
 30
0.0
  0
LINE
  8
AREA
  6
CONTINUOUS
 62
     4
 10
127.0000000
 20
0.0000000
 30
0.0
 11
127.0000000
 21
77.4999771
 31
0.0
 62
     4
  0
INSERT
  8
AREA
  2
DXF100
 10
0.0
 20
0.0
 30
0.0
  0
LINE
  8
AREA
  6
CONTINUOUS
 62
     4
 10
-103.6211014
 20
-35.8420105
 30
0.0
 11
-92.0000000
 21
-31.8591003
 31
0.0
 62
     4
  0
INSERT
  8
AREA
  2
DXF102
 10
0.0
 20
0.0
 30
0.0
  0
ARC
  8
AREA
  6
CONTINUOUS
 62
     4
 10
-95.0000000
 20
0.0000000
 30
0.0
 40
32.0000000
 50
275.3793945
 51
305.5946960
  0
INSERT
  8
AREA
  2
DXF104
 10
0.0
 20
0.0
 30
0.0
  0
INSERT
  8
AREA
  2
DXF105
 10
0.0
 20
0.0
 30
0.0
  0
LINE
  8
AREA
  6
CONTINUOUS
 62
     4
 10
-33.0000000
 20
11.9999800
 30
0.0
 11
32.5000000
 21
11.9999800
 31
0.0
 62
     4
  0
INSERT
  8
AREA
  2
DXF107
 10
0.0
 20
0.0
 30
0.0
  0
LINE
  8
AREA
  6
CENTER
 62
     2
 10
-99.5977783
 20
-60.0000000
 30
0.0
 11
-132.8834991
 21
-60.0000000
 31
0.0
 62
     2
  0
INSERT
  8
AREA
  2
DXF109
 10
0.0
 20
0.0
 30
0.0
  0
LINE
  8
AREA
  6
CONTINUOUS
 62
     4
 10
-33.0000000
 20
7.0000000
 30
0.0
 11
32.5000000
 21
7.0000000
 31
0.0
 62
     4
  0
INSERT
  8
AREA
  2
DXF111
 10
0.0
 20
0.0
 30
0.0
  0
LINE
  8
AREA
  6
CONTINUOUS
 62
     4
 10
65.0000000
 20
-59.4014091
 30
0.0
 11
65.0000000
 21
-55.2548103
 31
0.0
 62
     4
  0
INSERT
  8
AREA
  2
DXF113
 10
0.0
 20
0.0
 30
0.0
  0
LINE
  8
AREA
  6
CONTINUOUS
 62
     4
 10
-127.0000000
 20
0.0000000
 30
0.0
 11
-127.0000000
 21
77.4999771
 31
0.0
 62
     4
  0
LINE
  8
AREA
  6
CONTINUOUS
 62
     4
 10
-107.0000000
 20
0.0000000
 30
0.0
 11
-107.0000000
 21
75.4999771
 31
0.0
 62
     4
  0
LINE
  8
AREA
  6
CONTINUOUS
 62
     4
 10
92.0000000
 20
0.0000000
 30
0.0
 11
92.0000000
 21
28.7448902
 31
0.0
 62
     4
  0
INSERT
  8
AREA
  2
DXF117
 10
0.0
 20
0.0
 30
0.0
  0
LINE
  8
AREA
  6
CONTINUOUS
 62
     4
 10
-127.0000000
 20
0.0000000
 30
0.0
 11
-127.0000000
 21
-77.5000000
 31
0.0
 62
     4
  0
INSERT
  8
AREA
  2
DXF119
 10
0.0
 20
0.0
 30
0.0
  0
LINE
  8
AREA
  6
CENTER
 62
     2
 10
99.5977783
 20
59.9999809
 30
0.0
 11
131.5951996
 21
59.9999809
 31
0.0
 62
     2
  0
INSERT
  8
AREA
  2
DXF121
 10
0.0
 20
0.0
 30
0.0
  0
LINE
  8
AREA
  6
CONTINUOUS
 62
     4
 10
16.3999004
 20
149.0000000
 30
0.0
 11
0.0000000
 21
149.0000000
 31
0.0
 62
     4
  0
INSERT
  8
AREA
  2
DXF123
 10
0.0
 20
0.0
 30
0.0
  0
INSERT
  8
AREA
  2
DXF124
 10
0.0
 20
0.0
 30
0.0
  0
LINE
  8
AREA
  6
CONTINUOUS
 62
     4
 10
23.0000000
 20
117.0000000
 30
0.0
 11
0.0000000
 21
117.0000000
 31
0.0
 62
     4
  0
ARC
  8
AREA
  6
CONTINUOUS
 62
     4
 10
24.0000000
 20
89.9999771
 30
0.0
 40
5.0000000
 50
475.3771973
 51
180.0000000
  0
LINE
  8
AREA
  6
CONTINUOUS
 62
     4
 10
17.3999004
 20
121.5000000
 30
0.0
 11
0.0000000
 21
121.5000000
 31
0.0
 62
     4
  0
LINE
  8
AREA
  6
CONTINUOUS
 62
     4
 10
23.0000000
 20
117.0000000
 30
0.0
 11
23.0000000
 21
96.3246002
 31
0.0
 62
     4
  0
LINE
  8
AREA
  6
CONTINUOUS
 62
     4
 10
29.0961304
 20
86.2911835
 30
0.0
 11
23.3125000
 21
94.5534821
 31
0.0
 62
     4
  0
ARC
  8
AREA
  6
CONTINUOUS
 62
     4
 10
17.3999004
 20
123.0000000
 30
0.0
 40
1.5000000
 50
180.0000000
 51
270.0000000
  0
LINE
  8
AREA
  6
CONTINUOUS
 62
     4
 10
17.3999004
 20
130.5000000
 30
0.0
 11
15.8999004
 21
123.1516037
 31
0.0
 62
     4
  0
LINE
  8
AREA
  6
CONTINUOUS
 62
     4
 10
17.3999004
 20
130.5000000
 30
0.0
 11
0.0000000
 21
130.5000000
 31
0.0
 62
     4
  0
INSERT
  8
AREA
  2
DXF133
 10
0.0
 20
0.0
 30
0.0
  0
INSERT
  8
AREA
  2
DXF134
 10
0.0
 20
0.0
 30
0.0
  0
LINE
  8
AREA
  6
CONTINUOUS
 62
     4
 10
17.3999004
 20
121.5000000
 30
0.0
 11
17.3999004
 21
117.0000000
 31
0.0
 62
     4
  0
ARC
  8
AREA
  6
CONTINUOUS
 62
     4
 10
24.9509296
 20
95.7003937
 30
0.0
 40
2.0000000
 50
531.0233154
 51
214.9920044
  0
ARC
  8
AREA
  6
CONTINUOUS
 62
     4
 10
21.0000000
 20
96.3246002
 30
0.0
 40
2.0000000
 50
295.3771057
 51
360.0000000
  0
INSERT
  8
AREA
  2
DXF138
 10
0.0
 20
0.0
 30
0.0
  0
INSERT
  8
AREA
  2
DXF139
 10
0.0
 20
0.0
 30
0.0
  0
ARC
  8
AREA
  6
CONTINUOUS
 62
     4
 10
-21.0000000
 20
96.3246002
 30
0.0
 40
2.0000000
 50
180.0000000
 51
244.6228943
  0
LINE
  8
AREA
  6
CONTINUOUS
 62
     4
 10
-16.4000206
 20
149.0000000
 30
0.0
 11
0.0000000
 21
149.0000000
 31
0.0
 62
     4
  0
INSERT
  8
AREA
  2
DXF142
 10
0.0
 20
0.0
 30
0.0
  0
INSERT
  8
AREA
  2
DXF143
 10
0.0
 20
0.0
 30
0.0
  0
LINE
  8
AREA
  6
CONTINUOUS
 62
     4
 10
-23.0000000
 20
117.0000000
 30
0.0
 11
0.0000000
 21
117.0000000
 31
0.0
 62
     4
  0
ARC
  8
AREA
  6
CONTINUOUS
 62
     4
 10
-24.0000000
 20
89.9999771
 30
0.0
 40
5.0000000
 50
360.0000000
 51
424.6228027
  0
LINE
  8
AREA
  6
CONTINUOUS
 62
     4
 10
-17.4000206
 20
121.5000000
 30
0.0
 11
0.0000000
 21
121.5000000
 31
0.0
 62
     4
  0
LINE
  8
AREA
  6
CONTINUOUS
 62
     4
 10
-23.0000000
 20
117.0000000
 30
0.0
 11
-23.0000000
 21
96.3246002
 31
0.0
 62
     4
  0
LINE
  8
AREA
  6
CONTINUOUS
 62
     4
 10
-29.0961895
 20
86.2911835
 30
0.0
 11
-23.3125000
 21
94.5534821
 31
0.0
 62
     4
  0
ARC
  8
AREA
  6
CONTINUOUS
 62
     4
 10
-17.4000206
 20
123.0000000
 30
0.0
 40
1.5000000
 50
270.0000000
 51
360.0000000
  0
LINE
  8
AREA
  6
CONTINUOUS
 62
     4
 10
-17.4000206
 20
130.5000000
 30
0.0
 11
-15.9000196
 21
123.1516037
 31
0.0
 62
     4
  0
LINE
  8
AREA
  6
CONTINUOUS
 62
     4
 10
-17.4000206
 20
130.5000000
 30
0.0
 11
0.0000000
 21
130.5000000
 31
0.0
 62
     4
  0
INSERT
  8
AREA
  2
DXF152
 10
0.0
 20
0.0
 30
0.0
  0
INSERT
  8
AREA
  2
DXF153
 10
0.0
 20
0.0
 30
0.0
  0
LINE
  8
AREA
  6
CONTINUOUS
 62
     4
 10
-17.4000206
 20
121.5000000
 30
0.0
 11
-17.4000206
 21
117.0000000
 31
0.0
 62
     4
  0
LINE
  8
AREA
  6
CONTINUOUS
 62
     4
 10
-92.0000000
 20
0.0000000
 30
0.0
 11
-92.0000000
 21
-31.4876099
 31
0.0
 62
     4
  0
LINE
  8
AREA
  6
CONTINUOUS
 62
     4
 10
-92.0000000
 20
0.0000000
 30
0.0
 11
-92.0000000
 21
41.1045990
 31
0.0
 62
     4
  0
LINE
  8
AREA
  6
CONTINUOUS
 62
     4
 10
92.0000000
 20
0.0000000
 30
0.0
 11
92.0000000
 21
-39.9657097
 31
0.0
 62
     4
  0
LINE
  8
AREA
  6
CONTINUOUS
 62
     4
 10
22.0000000
 20
-38.0000000
 30
0.0
 11
17.0000000
 21
-38.0000000
 31
0.0
 62
     4
  0
INSERT
  8
AREA
  2
DXF159
 10
0.0
 20
0.0
 30
0.0
  0
INSERT
  8
AREA
  2
DXF160
 10
0.0
 20
0.0
 30
0.0
  0
LINE
  8
AREA
  6
CONTINUOUS
 62
     4
 10
-2.0000000
 20
-55.0000000
 30
0.0
 11
2.0000000
 21
-55.0000000
 31
0.0
 62
     4
  0
LINE
  8
AREA
  6
CONTINUOUS
 62
     4
 10
-20.0000000
 20
-34.0000000
 30
0.0
 11
-20.0000000
 21
-38.0000000
 31
0.0
 62
     4
  0
LINE
  8
AREA
  6
CONTINUOUS
 62
     4
 10
22.0000000
 20
-34.0000000
 30
0.0
 11
22.0000000
 21
-33.0000000
 31
0.0
 62
     4
  0
LINE
  8
AREA
  6
CONTINUOUS
 62
     4
 10
-2.0000000
 20
-53.0000000
 30
0.0
 11
-2.0000000
 21
-55.0000000
 31
0.0
 62
     4
  0
LINE
  8
AREA
  6
CONTINUOUS
 62
     4
 10
2.0000000
 20
-53.0000000
 30
0.0
 11
2.0000000
 21
-55.0000000
 31
0.0
 62
     4
  0
LINE
  8
AREA
  6
CONTINUOUS
 62
     4
 10
22.0000000
 20
-38.0000000
 30
0.0
 11
22.0000000
 21
-39.0000000
 31
0.0
 62
     4
  0
LINE
  8
AREA
  6
CONTINUOUS
 62
     4
 10
-75.0000000
 20
8.4631805
 30
0.0
 11
-77.0000000
 21
8.4631805
 31
0.0
 62
     4
  0
LINE
  8
AREA
  6
CONTINUOUS
 62
     4
 10
-69.0000000
 20
8.4631805
 30
0.0
 11
-67.0000000
 21
8.4631805
 31
0.0
 62
     4
  0
LINE
  8
AREA
  6
CONTINUOUS
 62
     4
 10
-71.0000000
 20
24.4631805
 30
0.0
 11
-67.0000000
 21
8.4631805
 31
0.0
 62
     4
  0
INSERT
  8
AREA
  2
DXF170
 10
0.0
 20
0.0
 30
0.0
  0
LINE
  8
AREA
  6
CONTINUOUS
 62
     4
 10
-70.0000000
 20
12.4631796
 30
0.0
 11
-74.0000000
 21
12.4631796
 31
0.0
 62
     4
  0
LINE
  8
AREA
  6
CONTINUOUS
 62
     4
 10
-70.5000000
 20
14.4631796
 30
0.0
 11
-73.5000000
 21
14.4631796
 31
0.0
 62
     4
  0
LINE
  8
AREA
  6
CONTINUOUS
 62
     4
 10
-73.0000000
 20
24.4631805
 30
0.0
 11
-77.0000000
 21
8.4631805
 31
0.0
 62
     4
  0
INSERT
  8
AREA
  2
DXF174
 10
0.0
 20
0.0
 30
0.0
  0
LINE
  8
AREA
  6
CONTINUOUS
 62
     4
 10
-73.0000000
 20
24.4631805
 30
0.0
 11
-71.0000000
 21
24.4631805
 31
0.0
 62
     4
  0
INSERT
  8
AREA
  2
DXF176
 10
0.0
 20
0.0
 30
0.0
  0
LINE
  8
AREA
  6
CONTINUOUS
 62
     4
 10
78.0000000
 20
-8.4630127
 30
0.0
 11
73.0000000
 21
-8.4630127
 31
0.0
 62
     4
  0
LINE
  8
AREA
  6
CONTINUOUS
 62
     4
 10
82.0000000
 20
-19.4630108
 30
0.0
 11
82.0000000
 21
-20.4630108
 31
0.0
 62
     4
  0
ARC
  8
AREA
  6
CONTINUOUS
 62
     4
 10
78.0000000
 20
-19.4630108
 30
0.0
 40
4.0000000
 50
360.0000000
 51
408.5903931
  0
ARC
  8
AREA
  6
CONTINUOUS
 62
     4
 10
78.0000000
 20
-13.4630098
 30
0.0
 40
4.0000000
 50
311.4096069
 51
360.0000000
  0
LINE
  8
AREA
  6
CONTINUOUS
 62
     4
 10
68.0000000
 20
-8.4629059
 30
0.0
 11
72.0000000
 21
-24.4629097
 31
0.0
 62
     4
  0
LINE
  8
AREA
  6
CONTINUOUS
 62
     4
 10
69.0000000
 20
-20.4629097
 30
0.0
 11
65.0000000
 21
-20.4629097
 31
0.0
 62
     4
  0
LINE
  8
AREA
  6
CONTINUOUS
 62
     4
 10
68.5000000
 20
-18.4629097
 30
0.0
 11
65.5000000
 21
-18.4629097
 31
0.0
 62
     4
  0
LINE
  8
AREA
  6
CONTINUOUS
 62
     4
 10
66.0000000
 20
-8.4629059
 30
0.0
 11
62.0000000
 21
-24.4629097
 31
0.0
 62
     4
  0
LINE
  8
AREA
  6
CONTINUOUS
 62
     4
 10
66.0000000
 20
-8.4629059
 30
0.0
 11
68.0000000
 21
-8.4629059
 31
0.0
 62
     4
  0
LINE
  8
AREA
  6
CONTINUOUS
 62
     4
 10
70.0000000
 20
-24.4629097
 30
0.0
 11
72.0000000
 21
-24.4629097
 31
0.0
 62
     4
  0
LINE
  8
AREA
  6
CONTINUOUS
 62
     4
 10
64.0000000
 20
-24.4629097
 30
0.0
 11
62.0000000
 21
-24.4629097
 31
0.0
 62
     4
  0
INSERT
  8
AREA
  2
DXF188
 10
0.0
 20
0.0
 30
0.0
  0
INSERT
  8
AREA
  2
DXF189
 10
0.0
 20
0.0
 30
0.0
  0
LINE
  8
AREA
  6
CONTINUOUS
 62
     4
 10
75.0000000
 20
-17.4630108
 30
0.0
 11
75.0000000
 21
-22.4630108
 31
0.0
 62
     4
  0
INSERT
  8
AREA
  2
DXF191
 10
0.0
 20
0.0
 30
0.0
  0
LINE
  8
AREA
  6
CONTINUOUS
 62
     4
 10
73.0000000
 20
-8.4630127
 30
0.0
 11
73.0000000
 21
-24.4629097
 31
0.0
 62
     4
  0
LINE
  8
AREA
  6
CONTINUOUS
 62
     4
 10
75.0000000
 20
-17.4630108
 30
0.0
 11
78.0000000
 21
-17.4630108
 31
0.0
 62
     4
  0
LINE
  8
AREA
  6
CONTINUOUS
 62
     4
 10
75.0000000
 20
-15.4630098
 30
0.0
 11
78.0000000
 21
-15.4630098
 31
0.0
 62
     4
  0
LINE
  8
AREA
  6
CONTINUOUS
 62
     4
 10
75.0000000
 20
-22.4630108
 30
0.0
 11
78.0000000
 21
-22.4630108
 31
0.0
 62
     4
  0
LINE
  8
AREA
  6
CONTINUOUS
 62
     4
 10
75.0000000
 20
-10.4630098
 30
0.0
 11
78.0000000
 21
-10.4630098
 31
0.0
 62
     4
  0
LINE
  8
AREA
  6
CONTINUOUS
 62
     4
 10
75.0000000
 20
-10.4630098
 30
0.0
 11
75.0000000
 21
-15.4630098
 31
0.0
 62
     4
  0
INSERT
  8
AREA
  2
DXF198
 10
0.0
 20
0.0
 30
0.0
  0
ARC
  8
AREA
  6
CONTINUOUS
 62
     4
 10
78.0000000
 20
-12.4630098
 30
0.0
 40
4.0000000
 50
360.0000000
 51
450.0000000
  0
LINE
  8
AREA
  6
CONTINUOUS
 62
     4
 10
78.0000000
 20
-24.4629097
 30
0.0
 11
73.0000000
 21
-24.4629097
 31
0.0
 62
     4
  0
INSERT
  8
SSYMB
  2
DXF201
 10
0.0
 20
0.0
 30
0.0
  0
INSERT
  8
SSYMB
  2
DXF202
 10
0.0
 20
0.0
 30
0.0
  0
INSERT
  8
SSYMB
  2
DXF203
 10
0.0
 20
0.0
 30
0.0
  0
INSERT
  8
SSYMB
  2
DXF204
 10
0.0
 20
0.0
 30
0.0
  0
LINE
  8
AREA
  6
CENTER
 62
     2
 10
-139.3874969
 20
0.0000000
 30
0.0
 11
136.0845032
 21
0.0000000
 31
0.0
 62
     2
  0
LINE
  8
AREA
  6
CONTINUOUS
 62
     4
 10
-45.0000000
 20
-78.5000000
 30
0.0
 11
-45.0000000
 21
-81.0000000
 31
0.0
 62
     4
  0
LINE
  8
AREA
  6
CONTINUOUS
 62
     4
 10
45.0000000
 20
-78.5000000
 30
0.0
 11
45.0000000
 21
-81.0000000
 31
0.0
 62
     4
  0
INSERT
  8
AREA
  2
DXF208
 10
0.0
 20
0.0
 30
0.0
  0
INSERT
  8
AREA
  2
DXF209
 10
0.0
 20
0.0
 30
0.0
  0
LINE
  8
AREA
  6
CENTER
 62
     2
 10
0.0000000
 20
224.3970947
 30
0.0
 11
0.0000000
 21
-206.5892029
 31
0.0
 62
     2
  0
LINE
  8
AREA
  6
CONTINUOUS
 62
     4
 10
17.3999004
 20
148.0000000
 30
0.0
 11
-17.4000206
 21
148.0000000
 31
0.0
 62
     4
  0
ARC
  8
0
  6
CONTINUOUS
 62
     4
 10
0.5947266
 20
36.3766899
 30
0.0
 40
4.3766980
 50
630.0000000
 51
360.0000000
  0
LINE
  8
0
  6
CONTINUOUS
 62
     4
 10
-15.6616201
 20
44.5049896
 30
0.0
 11
-4.4074101
 21
44.5049896
 31
0.0
 62
     4
  0
LINE
  8
0
  6
CONTINUOUS
 62
     4
 10
-4.4074101
 20
44.5049896
 30
0.0
 11
-4.4074101
 21
31.9999809
 31
0.0
 62
     4
  0
LINE
  8
0
  6
CONTINUOUS
 62
     4
 10
-15.6616201
 20
44.5049896
 30
0.0
 11
-4.4074101
 21
31.9999809
 31
0.0
 62
     4
  0
LINE
  8
0
  6
CONTINUOUS
 62
     4
 10
4.9713750
 20
44.5049896
 30
0.0
 11
4.9713750
 21
36.3766899
 31
0.0
 62
     4
  0
LINE
  8
0
  6
CONTINUOUS
 62
     4
 10
0.5947266
 20
31.9999809
 30
0.0
 11
-3.4694209
 21
31.9999809
 31
0.0
 62
     4
  0
LINE
  8
0
  6
CONTINUOUS
 62
     4
 10
-12.8480797
 20
19.4951000
 30
0.0
 11
-3.4694209
 21
31.9999809
 31
0.0
 62
     4
  0
LINE
  8
0
  6
CONTINUOUS
 62
     4
 10
-12.8480797
 20
19.4951000
 30
0.0
 11
-1.9063110
 21
19.4951000
 31
0.0
 62
     4
  0
LINE
  8
0
  6
CONTINUOUS
 62
     4
 10
16.5383892
 20
44.5049896
 30
0.0
 11
4.9713750
 21
44.5049896
 31
0.0
 62
     4
  0
LINE
  8
0
  6
CONTINUOUS
 62
     4
 10
16.5383892
 20
44.5049896
 30
0.0
 11
-1.9063110
 21
19.4951000
 31
0.0
 62
     4
  0
INSERT
  8
WORKLAYER
  2
DXF222
 10
0.0
 20
0.0
 30
0.0
  0
INSERT
  8
WORKLAYER
  2
DXF223
 10
0.0
 20
0.0
 30
0.0
  0
INSERT
  8
WORKLAYER
  2
DXF224
 10
0.0
 20
0.0
 30
0.0
  0
INSERT
  8
WORKLAYER
  2
DXF225
 10
0.0
 20
0.0
 30
0.0
  0
INSERT
  8
WORKLAYER
  2
DXF226
 10
0.0
 20
0.0
 30
0.0
  0
INSERT
  8
WORKLAYER
  2
DXF227
 10
0.0
 20
0.0
 30
0.0
  0
INSERT
  8
0
  2
DXF228
 10
0.0
 20
0.0
 30
0.0
  0
INSERT
  8
0
  2
DXF229
 10
0.0
 20
0.0
 30
0.0
  0
INSERT
  8
0
  2
DXF230
 10
0.0
 20
0.0
 30
0.0
  0
INSERT
  8
0
  2
DXF231
 10
0.0
 20
0.0
 30
0.0
  0
INSERT
  8
WORKLAYER
  2
DXF232
 10
0.0
 20
0.0
 30
0.0
  0
INSERT
  8
WORKLAYER
  2
DXF233
 10
0.0
 20
0.0
 30
0.0
  0
INSERT
  8
0
  2
DXF234
 10
0.0
 20
0.0
 30
0.0
  0
INSERT
  8
0
  2
DXF235
 10
0.0
 20
0.0
 30
0.0
  0
INSERT
  8
0
  2
DXF236
 10
0.0
 20
0.0
 30
0.0
  0
INSERT
  8
0
  2
DXF237
 10
0.0
 20
0.0
 30
0.0
  0
INSERT
  8
WORKLAYER
  2
DXF238
 10
0.0
 20
0.0
 30
0.0
  0
INSERT
  8
WORKLAYER
  2
DXF239
 10
0.0
 20
0.0
 30
0.0
  0
INSERT
  8
WORKLAYER
  2
DXF240
 10
0.0
 20
0.0
 30
0.0
  0
ENDSEC
  0
EOF
