  0
SECTION
  2
HEADER
  9
$ACADVER 
  1
AC1006
  9
$INSBASE
 10
0.0
 20
0.0
 30
0.0
  9
$EXTMIN
 10
-140.9998779
 20
-236.2635040
  9
$EXTMAX
 10
406.3120117
 20
234.8388977
  9
$LIMMIN
 10
-140.9998779
 20
-236.2635040
  9
$LIMMAX
 10
406.3120117
 20
234.8388977
  9
$ORTHOMODE
 70
     0
  9
$REGENMODE
 70
     1
  9
$FILLMODE
 70
     1
  9
$QTEXTMODE
 70
     0
  9
$MIRRTEXT
 70
     1
  9
$DRAGMODE
 70
     2
  9
$LTSCALE
 40
1.0
  9
$OSMODE
 70
     0
  9
$ATTMODE
 70
     1
  9
$TEXTSIZE
 40
4.0
  9
$TRACEWID
 40
0.05
  9
$TEXTSTYLE
  7
STANDARD
  9
$CLAYER
  8
0
  9
$CELTYPE
  6
BYLAYER
  9
$CECOLOR
 62
   256
  9
$DIMSCALE
 40
1.0
  9
$DIMASZ
 40
0.18
  9
$DIMEXO
 40
0.0625
  9
$DIMDLI
 40
0.38
  9
$DIMRND
 40
0.0
  9
$DIMDLE
 40
0.0
  9
$DIMEXE
 40
0.18
  9
$DIMTP
 40
0.0
  9
$DIMTM
 40
0.0
  9
$DIMTXT
 40
0.18
  9
$DIMCEN
 40
0.09
  9
$DIMTSZ
 40
0.0
  9
$DIMTOL
 70
     0
  9
$DIMLIM
 70
     0
  9
$DIMTIH
 70
     1
  9
$DIMTOH
 70
     1
  9
$DIMSE1
 70
     0
  9
$DIMSE2
 70
     0
  9
$DIMTAD
 70
     0
  9
$DIMZIN
 70
     0
  9
$DIMBLK
  1

  9
$DIMASO
 70
     1
  9
$DIMSHO
 70
     0
  9
$DIMPOST
  1

  9
$DIMAPOST
  1

  9
$DIMALT
 70
     0
  9
$DIMALTD
 70
     2
  9
$DIMALTF
 40
25.4
  9
$DIMLFAC
 40
1.0
  9
$DIMTOFL
 70
     0
  9
$DIMTVP
 40
0.0
  9
$DIMTIX
 70
     0
  9
$DIMSOXD
 70
     0
  9
$DIMSAH
 70
     0
  9
$DIMBLK1
  1

  9
$DIMBLK2
  1

  9
$LUNITS
 70
     2
  9
$LUPREC
 70
     4
  9
$AXISMODE
 70
     0
  9
$AXISUNIT
 10
0.0
 20
0.0
  9
$SKETCHINC
 40
0.1
  9
$FILLETRAD
 40
0.0
  9
$AUNITS
 70
     0
  9
$AUPREC
 70
     0
  9
$MENU
  1
acad
  9
$ELEVATION
 40
0.0
  9
$THICKNESS
 40
0.0
  9
$LIMCHECK
 70
     0
  9
$BLIPMODE
 70
     1
  9
$CHAMFERA
 40
0.0
  9
$CHAMFERB
 40
0.0
  9
$SKPOLY
 70
     0
  9
$TDCREATE
 40
2448026.6008101851
  9
$TDUPDATE
 40
2448026.6181597221
  9
$TDINDWG
 40
0.0173495370
  9
$TDUSRTIMER
 40
0.0173495370
  9
$USRTIMER
 70
     1
  9
$ANGBASE
 50
0.0
  9
$ANGDIR
 70
     0
  9
$PDMODE
 70
     0
  9
$PDSIZE
 40
0.0
  9
$PLINEWID
 40
0.0
  9
$COORDS
 70
     2
  9
$SPLFRAME
 70
     0
  9
$SPLINETYPE
 70
     6
  9
$SPLINESEGS
 70
     8
  9
$ATTDIA
 70
     0
  9
$ATTREQ
 70
     1
  9
$HANDLING
 70
     0
  9
$HANDSEED
  5
0
  9
$SURFTAB1
 70
     6
  9
$SURFTAB2
 70
     6
  9
$SURFTYPE
 70
     6
  9
$SURFU
 70
     6
  9
$SURFV
 70
     6
  9
$FLATLAND
 70
     0
  9
$UCSNAME
  2

  9
$UCSORG
 10
0.0
 20
0.0
 30
0.0
  9
$UCSXDIR
 10
1.0
 20
0.0
 30
0.0
  9
$UCSYDIR
 10
0.0
 20
1.0
 30
0.0
  9
$USERI1
 70
     0
  9
$USERI2
 70
     0
  9
$USERI3
 70
     0
  9
$USERI4
 70
     0
  9
$USERI5
 70
     0
  9
$USERR1
 40
0.0
  9
$USERR2
 40
0.0
  9
$USERR3
 40
0.0
  9
$USERR4
 40
0.0
  9
$USERR5
 40
0.0
  9
$WORLDVIEW
 70
     1
  0
ENDSEC
  0
SECTION
  2
TABLES
  0
TABLE
  2
VPORT
 70
     2
  0
VPORT
  2
*ACTIVE
 70
     0
 10
0.0
 20
0.0
 11
1.0
 21
1.0
 12
27.083333
 22
15.399368
 13
0.0
 23
0.0
 14
1.0
 24
1.0
 15
0.0
 25
0.0
 16
0.0
 26
0.0
 36
1.0
 17
0.0
 27
0.0
 37
0.0
 40
30.798736
 41
1.75873
 42
50.0
 43
0.0
 44
0.0
 50
0.0
 51
0.0
 71
     0
 72
   100
 73
     1
 74
     1
 75
     1
 76
     0
 77
     0
 78
     0
  0
ENDTAB
  0
TABLE
  2
LTYPE
 70
     5
  0
LTYPE
  2
CONTINUOUS
 70
    64
  3
________________________
 72
    65
 73
     0
 40
0.0
  0
LTYPE
  2
DOT
 70
    64
  3
_ _ _ _ _ _ _ _ _ _ _ _
 72
    65
 73
     2
 40
0.375
 49
0.25
 49
-0.125
  0
LTYPE
  2
HIDDEN
 70
    64
  3
__ __ __ __ __ __ __ __
 72
    65
 73
     2
 40
0.75
 49
0.5
 49
-0.25
  0
LTYPE
  2
CENTER
 70
    64
  3
____ _ ____ _ ____ _ ___
 72
    65
 73
     4
 40
2.0
 49
1.25
 49
-0.25
 49
0.25
 49
-0.25
  0
LTYPE
  2
PHANTOM
 70
    64
  3
_____ _ _ _____ _ _ ____
 72
    65
 73
     6
 40
2.5
 49
1.25
 49
-0.25
 49
0.25
 49
-0.25
 49
0.25
 49
-0.25
  0
ENDTAB
  0
TABLE
  2
LAYER
 70
     5
  0
LAYER
  2
0
 70
    64
 62
     7
  6
CONTINUOUS
  0
LAYER
  2
WORKLAYER
 70
    64
 62
     7
  6
CONTINUOUS
  0
LAYER
  2
AREA
 70
    64
 62
     7
  6
CONTINUOUS
  0
LAYER
  2
SSYMB
 70
    64
 62
     7
  6
CONTINUOUS
  0
ENDTAB
  0
TABLE
  2
STYLE
 70
     3
  0
STYLE
  2
STANDARD
 70
    64
 40
0.0
 41
1.0
 50
0.0
 71
     0
 42
4.0
  3
txt
  4

  0
STYLE
  2
KANJI
 70
    64
 40
0.0
 41
1.0
 50
0.0
 71
     0
 42
2.0
  3
TXT
  4
BIGFONT
  0
ENDTAB
  0
TABLE
  2
VIEW
 70
     0
  0
ENDTAB
  0
TABLE
  2
UCS
 70
     0
  0
ENDTAB
  0
TABLE
  2
DWGMGR
 70
     0
  0
ENDTAB
  0
ENDSEC
  0
SECTION
  2
BLOCKS
  0
BLOCK
  8
WORKLAYER
  2
DXF1
 70
    64
 10
0.0
 20
0.0
 30
0.0
  3
DXF1
  0
LINE
  8
WORKLAYER
  6
CONTINUOUS
 62
     4
 10
-9.8000069
 20
200.2429962
 30
0.0
 11
9.7999954
 21
200.2429962
 31
0.0
 62
     4
  0
LINE
  8
WORKLAYER
  6
CONTINUOUS
 62
     4
 10
3.5499952
 20
228.2429962
 30
0.0
 11
-3.5500069
 21
228.2429962
 31
0.0
 62
     4
  0
LINE
  8
WORKLAYER
  6
CONTINUOUS
 62
     4
 10
-9.8000069
 20
218.7964020
 30
0.0
 11
-9.8000069
 21
200.2429962
 31
0.0
 62
     4
  0
ARC
  8
WORKLAYER
  6
CONTINUOUS
 62
     4
 10
0.0000000
 20
212.6417999
 30
0.0
 40
16.0000000
 50
102.8191986
 51
115.9445038
  0
LINE
  8
WORKLAYER
  6
CONTINUOUS
 62
     4
 10
-9.8000069
 20
218.7964020
 30
0.0
 11
-4.3499990
 21
221.9431000
 31
0.0
 62
     4
  0
ARC
  8
WORKLAYER
  6
CONTINUOUS
 62
     4
 10
0.0000000
 20
240.5442963
 30
0.0
 40
16.0000000
 50
244.0554962
 51
254.2241058
  0
LINE
  8
WORKLAYER
  6
CONTINUOUS
 62
     4
 10
-7.0000081
 20
227.0292969
 30
0.0
 11
-7.0000081
 21
226.1566925
 31
0.0
 62
     4
  0
LINE
  8
WORKLAYER
  6
CONTINUOUS
 62
     4
 10
-4.3499990
 20
225.1468964
 30
0.0
 11
-4.3499990
 21
221.9431000
 31
0.0
 62
     4
  0
ARC
  8
WORKLAYER
  6
CONTINUOUS
 62
     4
 10
0.0000000
 20
212.6417999
 30
0.0
 40
16.0000000
 50
64.0555191
 51
77.1808167
  0
LINE
  8
WORKLAYER
  6
CONTINUOUS
 62
     4
 10
9.7999954
 20
218.7964020
 30
0.0
 11
4.3500061
 21
221.9431000
 31
0.0
 62
     4
  0
ARC
  8
WORKLAYER
  6
CONTINUOUS
 62
     4
 10
0.0000000
 20
240.5442963
 30
0.0
 40
16.0000000
 50
285.7759094
 51
295.9444885
  0
LINE
  8
WORKLAYER
  6
CONTINUOUS
 62
     4
 10
7.0000000
 20
227.0292969
 30
0.0
 11
7.0000000
 21
226.1566925
 31
0.0
 62
     4
  0
LINE
  8
WORKLAYER
  6
CONTINUOUS
 62
     4
 10
4.3500061
 20
225.1468964
 30
0.0
 11
4.3500061
 21
221.9431000
 31
0.0
 62
     4
  0
LINE
  8
WORKLAYER
  6
CONTINUOUS
 62
     4
 10
9.7999954
 20
218.7964020
 30
0.0
 11
9.7999954
 21
200.2429962
 31
0.0
 62
     4
  0
LINE
  8
WORKLAYER
  6
CONTINUOUS
 62
     4
 10
-4.3499990
 20
221.9431000
 30
0.0
 11
4.3500061
 21
221.9431000
 31
0.0
 62
     4
  0
LINE
  8
WORKLAYER
  6
CONTINUOUS
 62
     4
 10
-4.3499990
 20
225.1468964
 30
0.0
 11
4.3500061
 21
225.1468964
 31
0.0
 62
     4
  0
LINE
  8
WORKLAYER
  6
CONTINUOUS
 62
     3
 10
-7.0000081
 20
227.0292969
 30
0.0
 11
7.0000000
 21
227.0292969
 31
0.0
 62
     3
  0
LINE
  8
WORKLAYER
  6
CONTINUOUS
 62
     3
 10
7.0000000
 20
226.1566925
 30
0.0
 11
-7.0000081
 21
226.1566925
 31
0.0
 62
     3
  0
ARC
  8
WORKLAYER
  6
CONTINUOUS
 62
     4
 10
0.0000000
 20
209.4875031
 30
0.0
 40
10.5197802
 50
62.2386894
 51
117.7612991
  0
LINE
  8
WORKLAYER
  6
CONTINUOUS
 62
     4
 10
-4.8999977
 20
218.7964020
 30
0.0
 11
-4.8999977
 21
200.2429962
 31
0.0
 62
     4
  0
LINE
  8
WORKLAYER
  6
CONTINUOUS
 62
     4
 10
4.8999939
 20
218.7964020
 30
0.0
 11
4.8999939
 21
200.2429962
 31
0.0
 62
     4
  0
ARC
  8
WORKLAYER
  6
CONTINUOUS
 62
     4
 10
-7.3499990
 20
214.5529022
 30
0.0
 40
4.9000049
 50
60.0000000
 51
120.0000000
  0
ARC
  8
WORKLAYER
  6
CONTINUOUS
 62
     4
 10
7.3500061
 20
214.5529022
 30
0.0
 40
4.9000049
 50
60.0000000
 51
120.0000000
  0
ENDBLK
  0
BLOCK
  8
WORKLAYER
  2
DXF3
 70
    64
 10
0.0
 20
0.0
 30
0.0
  3
DXF3
  0
LINE
  8
WORKLAYER
  6
CONTINUOUS
 62
     4
 10
257.0001221
 20
-111.0000000
 30
0.0
 11
257.0001221
 21
-108.0000000
 31
0.0
 62
     4
  0
ARC
  8
WORKLAYER
  6
CONTINUOUS
 62
     4
 10
255.0001221
 20
-111.0000000
 30
0.0
 40
2.0000000
 50
270.0000000
 51
0.0000000
  0
ENDBLK
  0
BLOCK
  8
WORKLAYER
  2
DXF4
 70
    64
 10
0.0
 20
0.0
 30
0.0
  3
DXF4
  0
LINE
  8
WORKLAYER
  6
CONTINUOUS
 62
     4
 10
222.5001221
 20
-225.0000000
 30
0.0
 11
397.5001221
 21
-225.0000000
 31
0.0
 62
     4
  0
LINE
  8
WORKLAYER
  6
CONTINUOUS
 62
     4
 10
397.5001221
 20
-225.0000000
 30
0.0
 11
397.5001221
 21
-205.0000000
 31
0.0
 62
     4
  0
LINE
  8
WORKLAYER
  6
CONTINUOUS
 62
     4
 10
395.5001221
 20
-203.0000000
 30
0.0
 11
310.0001221
 21
-203.0000000
 31
0.0
 62
     4
  0
LINE
  8
WORKLAYER
  6
CONTINUOUS
 62
     4
 10
310.0001221
 20
-203.0000000
 30
0.0
 11
224.5001221
 21
-203.0000000
 31
0.0
 62
     4
  0
LINE
  8
WORKLAYER
  6
CONTINUOUS
 62
     4
 10
222.5001221
 20
-205.0000000
 30
0.0
 11
222.5001221
 21
-225.0000000
 31
0.0
 62
     4
  0
ARC
  8
WORKLAYER
  6
CONTINUOUS
 62
     4
 10
360.7702332
 20
-198.0000000
 30
0.0
 40
5.0000000
 50
203.6284943
 51
270.0000000
  0
ARC
  8
WORKLAYER
  6
CONTINUOUS
 62
     4
 10
259.2300110
 20
-198.0000000
 30
0.0
 40
5.0000000
 50
270.0000000
 51
336.3714905
  0
ARC
  8
WORKLAYER
  6
CONTINUOUS
 62
     4
 10
395.5001221
 20
-205.0000000
 30
0.0
 40
2.0000000
 50
0.0000000
 51
90.0000000
  0
ARC
  8
WORKLAYER
  6
CONTINUOUS
 62
     4
 10
224.5001221
 20
-205.0000000
 30
0.0
 40
2.0000000
 50
90.0000000
 51
180.0000000
  0
LINE
  8
WORKLAYER
  6
CONTINUOUS
 62
     4
 10
391.0001221
 20
-131.0000000
 30
0.0
 11
391.0001221
 21
-115.0000000
 31
0.0
 62
     4
  0
LINE
  8
WORKLAYER
  6
CONTINUOUS
 62
     4
 10
389.0001221
 20
-113.0000000
 30
0.0
 11
310.0001221
 21
-113.0000000
 31
0.0
 62
     4
  0
LINE
  8
WORKLAYER
  6
CONTINUOUS
 62
     4
 10
310.0001221
 20
-113.0000000
 30
0.0
 11
231.0001221
 21
-113.0000000
 31
0.0
 62
     4
  0
LINE
  8
WORKLAYER
  6
CONTINUOUS
 62
     4
 10
229.0001221
 20
-115.0000000
 30
0.0
 11
229.0001221
 21
-131.0000000
 31
0.0
 62
     4
  0
LINE
  8
WORKLAYER
  6
CONTINUOUS
 62
     4
 10
231.0001221
 20
-133.0000000
 30
0.0
 11
310.0001221
 21
-133.0000000
 31
0.0
 62
     4
  0
LINE
  8
WORKLAYER
  6
CONTINUOUS
 62
     4
 10
310.0001221
 20
-133.0000000
 30
0.0
 11
389.0001221
 21
-133.0000000
 31
0.0
 62
     4
  0
ARC
  8
WORKLAYER
  6
CONTINUOUS
 62
     4
 10
257.7630310
 20
-138.0000000
 30
0.0
 40
5.0000000
 50
24.1607094
 51
90.0000000
  0
ARC
  8
WORKLAYER
  6
CONTINUOUS
 62
     4
 10
362.2372131
 20
-138.0000000
 30
0.0
 40
5.0000000
 50
90.0000000
 51
155.8394012
  0
ARC
  8
WORKLAYER
  6
CONTINUOUS
 62
     4
 10
389.0001221
 20
-115.0000000
 30
0.0
 40
2.0000000
 50
0.0000000
 51
90.0000000
  0
ARC
  8
WORKLAYER
  6
CONTINUOUS
 62
     4
 10
389.0001221
 20
-131.0000000
 30
0.0
 40
2.0000000
 50
270.0000000
 51
0.0000000
  0
ARC
  8
WORKLAYER
  6
CONTINUOUS
 62
     4
 10
231.0001221
 20
-131.0000000
 30
0.0
 40
2.0000000
 50
180.0000000
 51
270.0000000
  0
ARC
  8
WORKLAYER
  6
CONTINUOUS
 62
     4
 10
231.0001221
 20
-115.0000000
 30
0.0
 40
2.0000000
 50
90.0000000
 51
180.0000000
  0
LINE
  8
WORKLAYER
  6
CONTINUOUS
 62
     4
 10
356.1894226
 20
-200.0039978
 30
0.0
 11
350.9379272
 21
-188.0000000
 31
0.0
 62
     4
  0
LINE
  8
WORKLAYER
  6
CONTINUOUS
 62
     4
 10
352.2712097
 20
-148.0000000
 30
0.0
 11
357.6752319
 21
-135.9535980
 31
0.0
 62
     4
  0
LINE
  8
WORKLAYER
  6
CONTINUOUS
 62
     4
 10
269.0623169
 20
-188.0000000
 30
0.0
 11
267.7290344
 21
-148.0000000
 31
0.0
 62
     4
  0
LINE
  8
WORKLAYER
  6
CONTINUOUS
 62
     4
 10
350.9379272
 20
-188.0000000
 30
0.0
 11
352.2712097
 21
-148.0000000
 31
0.0
 62
     4
  0
LINE
  8
WORKLAYER
  6
CONTINUOUS
 62
     4
 10
262.3250122
 20
-135.9535980
 30
0.0
 11
267.7290344
 21
-148.0000000
 31
0.0
 62
     4
  0
LINE
  8
WORKLAYER
  6
CONTINUOUS
 62
     4
 10
263.8108215
 20
-200.0039978
 30
0.0
 11
269.0623169
 21
-188.0000000
 31
0.0
 62
     4
  0
LINE
  8
WORKLAYER
  6
CENTER
 62
     2
 10
240.0001221
 20
-228.0000000
 30
0.0
 11
240.0001221
 21
-200.0000000
 31
0.0
 62
     2
  0
LINE
  8
WORKLAYER
  6
CENTER
 62
     2
 10
380.0001221
 20
-228.0000000
 30
0.0
 11
380.0001221
 21
-200.0000000
 31
0.0
 62
     2
  0
ENDBLK
  0
BLOCK
  8
WORKLAYER
  2
DXF5
 70
    64
 10
0.0
 20
0.0
 30
0.0
  3
DXF5
  0
LINE
  8
WORKLAYER
  6
CONTINUOUS
 62
     4
 10
363.0001221
 20
-111.0000000
 30
0.0
 11
350.0001221
 21
-111.0000000
 31
0.0
 62
     4
  0
LINE
  8
WORKLAYER
  6
CONTINUOUS
 62
     4
 10
338.0001221
 20
-111.0000000
 30
0.0
 11
310.0001221
 21
-111.0000000
 31
0.0
 62
     4
  0
LINE
  8
WORKLAYER
  6
CONTINUOUS
 62
     4
 10
310.0001221
 20
-111.0000000
 30
0.0
 11
282.0001221
 21
-111.0000000
 31
0.0
 62
     4
  0
LINE
  8
WORKLAYER
  6
CONTINUOUS
 62
     4
 10
270.0001221
 20
-111.0000000
 30
0.0
 11
257.0001221
 21
-111.0000000
 31
0.0
 62
     4
  0
ENDBLK
  0
BLOCK
  8
WORKLAYER
  2
DXF7
 70
    64
 10
0.0
 20
0.0
 30
0.0
  3
DXF7
  0
LINE
  8
WORKLAYER
  6
CONTINUOUS
 62
     4
 10
302.2974243
 20
200.2429962
 30
0.0
 11
317.7028198
 21
200.2429962
 31
0.0
 62
     4
  0
LINE
  8
WORKLAYER
  6
CONTINUOUS
 62
     4
 10
313.5501099
 20
228.2429962
 30
0.0
 11
306.4501343
 21
228.2429962
 31
0.0
 62
     4
  0
ARC
  8
WORKLAYER
  6
CONTINUOUS
 62
     4
 10
310.0001221
 20
212.6417999
 30
0.0
 40
16.0000000
 50
102.8191986
 51
115.9445038
  0
LINE
  8
WORKLAYER
  6
CONTINUOUS
 62
     4
 10
302.2974243
 20
220.0072937
 30
0.0
 11
305.6501160
 21
221.9431000
 31
0.0
 62
     4
  0
ARC
  8
WORKLAYER
  6
CONTINUOUS
 62
     4
 10
310.0001221
 20
240.5442963
 30
0.0
 40
16.0000000
 50
244.0554962
 51
254.2241058
  0
LINE
  8
WORKLAYER
  6
CONTINUOUS
 62
     4
 10
303.0001221
 20
227.0292969
 30
0.0
 11
303.0001221
 21
226.1566925
 31
0.0
 62
     4
  0
LINE
  8
WORKLAYER
  6
CONTINUOUS
 62
     4
 10
305.6501160
 20
225.1468964
 30
0.0
 11
305.6501160
 21
221.9431000
 31
0.0
 62
     4
  0
ARC
  8
WORKLAYER
  6
CONTINUOUS
 62
     4
 10
310.0001221
 20
212.6417999
 30
0.0
 40
16.0000000
 50
64.0555191
 51
77.1808167
  0
LINE
  8
WORKLAYER
  6
CONTINUOUS
 62
     4
 10
317.7028198
 20
220.0072937
 30
0.0
 11
314.3501282
 21
221.9431000
 31
0.0
 62
     4
  0
ARC
  8
WORKLAYER
  6
CONTINUOUS
 62
     4
 10
310.0001221
 20
240.5442963
 30
0.0
 40
16.0000000
 50
285.7759094
 51
295.9444885
  0
LINE
  8
WORKLAYER
  6
CONTINUOUS
 62
     4
 10
317.0001221
 20
227.0292969
 30
0.0
 11
317.0001221
 21
226.1566925
 31
0.0
 62
     4
  0
LINE
  8
WORKLAYER
  6
CONTINUOUS
 62
     4
 10
314.3501282
 20
225.1468964
 30
0.0
 11
314.3501282
 21
221.9431000
 31
0.0
 62
     4
  0
LINE
  8
WORKLAYER
  6
CONTINUOUS
 62
     4
 10
305.6501160
 20
221.9431000
 30
0.0
 11
314.3501282
 21
221.9431000
 31
0.0
 62
     4
  0
LINE
  8
WORKLAYER
  6
CONTINUOUS
 62
     4
 10
305.6501160
 20
225.1468964
 30
0.0
 11
314.3501282
 21
225.1468964
 31
0.0
 62
     4
  0
LINE
  8
WORKLAYER
  6
CONTINUOUS
 62
     3
 10
303.0001221
 20
227.0292969
 30
0.0
 11
317.0001221
 21
227.0292969
 31
0.0
 62
     3
  0
LINE
  8
WORKLAYER
  6
CONTINUOUS
 62
     3
 10
317.0001221
 20
226.1566925
 30
0.0
 11
303.0001221
 21
226.1566925
 31
0.0
 62
     3
  0
LINE
  8
WORKLAYER
  6
CONTINUOUS
 62
     4
 10
302.2974243
 20
220.0072937
 30
0.0
 11
302.2974243
 21
200.2429962
 31
0.0
 62
     4
  0
LINE
  8
WORKLAYER
  6
CONTINUOUS
 62
     4
 10
317.7028198
 20
220.0072937
 30
0.0
 11
317.7028198
 21
200.2429962
 31
0.0
 62
     4
  0
ARC
  8
WORKLAYER
  6
CONTINUOUS
 62
     4
 10
306.1487122
 20
213.3365021
 30
0.0
 40
7.7027302
 50
60.0000000
 51
120.0000000
  0
ARC
  8
WORKLAYER
  6
CONTINUOUS
 62
     4
 10
313.8515320
 20
213.3365021
 30
0.0
 40
7.7027302
 50
59.9997292
 51
120.0000000
  0
LINE
  8
WORKLAYER
  6
CENTER
 62
     2
 10
310.0001221
 20
-235.5762024
 30
0.0
 11
310.0001221
 21
234.8388977
 31
0.0
 62
     2
  0
ENDBLK
  0
BLOCK
  8
WORKLAYER
  2
DXF8
 70
    64
 10
0.0
 20
0.0
 30
0.0
  3
DXF8
  0
LINE
  8
WORKLAYER
  6
CONTINUOUS
 62
     4
 10
52.8897324
 20
-111.0000000
 30
0.0
 11
6.0000000
 21
-111.0000000
 31
0.0
 62
     4
  0
LINE
  8
WORKLAYER
  6
CONTINUOUS
 62
     4
 10
-6.0000000
 20
-111.0000000
 30
0.0
 11
-52.9998779
 21
-111.0000000
 31
0.0
 62
     4
  0
ENDBLK
  0
BLOCK
  8
WORKLAYER
  2
DXF9
 70
    64
 10
0.0
 20
0.0
 30
0.0
  3
DXF9
  0
ARC
  8
WORKLAYER
  6
CONTINUOUS
 62
     4
 10
286.0001221
 20
109.0000000
 30
0.0
 40
5.0000000
 50
360.0000000
 51
413.1300964
  0
ARC
  8
WORKLAYER
  6
CONTINUOUS
 62
     4
 10
292.0001221
 20
117.0000000
 30
0.0
 40
5.0000000
 50
180.0000000
 51
233.1300964
  0
ENDBLK
  0
BLOCK
  8
AREA
  2
DXF10
 70
    64
 10
0.0
 20
0.0
 30
0.0
  3
DXF10
  0
LINE
  8
AREA
  6
CONTINUOUS
 62
     4
 10
286.2876282
 20
112.8125000
 30
0.0
 11
275.7126160
 21
95.1875916
 31
0.0
 62
     4
  0
ARC
  8
AREA
  6
CONTINUOUS
 62
     4
 10
282.0001221
 20
115.3849030
 30
0.0
 40
5.0000000
 50
329.0361938
 51
360.0000000
  0
ENDBLK
  0
BLOCK
  8
AREA
  2
DXF13
 70
    64
 10
0.0
 20
0.0
 30
0.0
  3
DXF13
  0
LINE
  8
AREA
  6
CONTINUOUS
 62
     4
 10
292.6001282
 20
171.0000000
 30
0.0
 11
292.6001282
 21
153.5000000
 31
0.0
 62
     4
  0
LINE
  8
AREA
  6
CONTINUOUS
 62
     4
 10
292.6001282
 20
171.0000000
 30
0.0
 11
293.6001282
 21
172.0000000
 31
0.0
 62
     4
  0
ENDBLK
  0
BLOCK
  8
AREA
  2
DXF20
 70
    64
 10
0.0
 20
0.0
 30
0.0
  3
DXF20
  0
LINE
  8
AREA
  6
CONTINUOUS
 62
     4
 10
288.0001221
 20
114.0000000
 30
0.0
 11
302.0001221
 21
114.0000000
 31
0.0
 62
     4
  0
LINE
  8
AREA
  6
CONTINUOUS
 62
     4
 10
302.0001221
 20
114.0000000
 30
0.0
 11
310.0001221
 21
114.0000000
 31
0.0
 62
     4
  0
ENDBLK
  0
BLOCK
  8
WORKLAYER
  2
DXF22
 70
    64
 10
0.0
 20
0.0
 30
0.0
  3
DXF22
  0
LINE
  8
WORKLAYER
  6
CENTER
 62
     2
 10
260.5026245
 20
-49.4975014
 30
0.0
 11
252.0173645
 21
-57.9827690
 31
0.0
 62
     2
  0
LINE
  8
WORKLAYER
  6
CENTER
 62
     2
 10
260.5026245
 20
-49.4975014
 30
0.0
 11
268.9878845
 21
-41.0122299
 31
0.0
 62
     2
  0
ENDBLK
  0
BLOCK
  8
WORKLAYER
  2
DXF24
 70
    64
 10
0.0
 20
0.0
 30
0.0
  3
DXF24
  0
LINE
  8
WORKLAYER
  6
CENTER
 62
     2
 10
260.5026245
 20
49.4975014
 30
0.0
 11
252.0173645
 21
57.9827690
 31
0.0
 62
     2
  0
LINE
  8
WORKLAYER
  6
CENTER
 62
     2
 10
260.5026245
 20
49.4975014
 30
0.0
 11
268.9878845
 21
41.0122299
 31
0.0
 62
     2
  0
ENDBLK
  0
BLOCK
  8
WORKLAYER
  2
DXF26
 70
    64
 10
0.0
 20
0.0
 30
0.0
  3
DXF26
  0
LINE
  8
WORKLAYER
  6
CONTINUOUS
 62
     4
 10
229.0001221
 20
-92.0000381
 30
0.0
 11
229.0001221
 21
-106.0000000
 31
0.0
 62
     4
  0
ARC
  8
WORKLAYER
  6
CONTINUOUS
 62
     4
 10
231.0001221
 20
-106.0000000
 30
0.0
 40
2.0000000
 50
180.0000000
 51
270.0000000
  0
ARC
  8
WORKLAYER
  6
CONTINUOUS
 62
     4
 10
231.0001221
 20
-92.0000381
 30
0.0
 40
2.0000000
 50
464.4775085
 51
180.0000000
  0
ARC
  8
WORKLAYER
  6
CONTINUOUS
 62
     4
 10
230.0001221
 20
-88.1270218
 30
0.0
 40
2.0000000
 50
284.4775085
 51
360.0000000
  0
LINE
  8
WORKLAYER
  6
CONTINUOUS
 62
     4
 10
231.0001221
 20
-108.0000000
 30
0.0
 11
310.0001221
 21
-108.0000000
 31
0.0
 62
     4
  0
ENDBLK
  0
BLOCK
  8
WORKLAYER
  2
DXF31
 70
    64
 10
0.0
 20
0.0
 30
0.0
  3
DXF31
  0
LINE
  8
WORKLAYER
  6
CONTINUOUS
 62
     4
 10
307.0001221
 20
87.4486084
 30
0.0
 11
307.0001221
 21
109.0000000
 31
0.0
 62
     4
  0
ARC
  8
WORKLAYER
  6
CONTINUOUS
 62
     4
 10
302.0001221
 20
109.0000000
 30
0.0
 40
5.0000000
 50
0.0000000
 51
90.0000000
  0
ENDBLK
  0
BLOCK
  8
AREA
  2
DXF32
 70
    64
 10
0.0
 20
0.0
 30
0.0
  3
DXF32
  0
LINE
  8
AREA
  6
CONTINUOUS
 62
     4
 10
275.0001221
 20
92.6151123
 30
0.0
 11
275.0001221
 21
80.1950989
 31
0.0
 62
     4
  0
ARC
  8
AREA
  6
CONTINUOUS
 62
     4
 10
280.0001221
 20
92.6151123
 30
0.0
 40
5.0000000
 50
149.0361938
 51
180.0000000
  0
ENDBLK
  0
BLOCK
  8
WORKLAYER
  2
DXF39
 70
    64
 10
0.0
 20
0.0
 30
0.0
  3
DXF39
  0
LINE
  8
WORKLAYER
  6
CONTINUOUS
 62
     4
 10
25.0000019
 20
-52.5000000
 30
0.0
 11
17.0000019
 21
-52.5000000
 31
0.0
 62
     4
  0
LINE
  8
WORKLAYER
  6
CONTINUOUS
 62
     4
 10
17.0000019
 20
-52.5000000
 30
0.0
 11
-22.9999981
 21
-52.5000000
 31
0.0
 62
     4
  0
ENDBLK
  0
BLOCK
  8
WORKLAYER
  2
DXF40
 70
    64
 10
0.0
 20
0.0
 30
0.0
  3
DXF40
  0
LINE
  8
WORKLAYER
  6
CONTINUOUS
 62
     4
 10
25.0000019
 20
-56.5000000
 30
0.0
 11
17.0000019
 21
-56.5000000
 31
0.0
 62
     4
  0
LINE
  8
WORKLAYER
  6
CONTINUOUS
 62
     4
 10
5.3381963
 20
-56.5000000
 30
0.0
 11
-22.9999981
 21
-56.5000000
 31
0.0
 62
     4
  0
ENDBLK
  0
BLOCK
  8
WORKLAYER
  2
DXF42
 70
    64
 10
0.0
 20
0.0
 30
0.0
  3
DXF42
  0
LINE
  8
WORKLAYER
  6
CONTINUOUS
 62
     4
 10
2.0000000
 20
-73.5000000
 30
0.0
 11
2.0000000
 21
-71.5000000
 31
0.0
 62
     4
  0
ARC
  8
WORKLAYER
  6
CONTINUOUS
 62
     4
 10
17.0000019
 20
-71.5000000
 30
0.0
 40
15.0000000
 50
450.0000000
 51
180.0000000
  0
ENDBLK
  0
BLOCK
  8
WORKLAYER
  2
DXF43
 70
    64
 10
0.0
 20
0.0
 30
0.0
  3
DXF43
  0
LINE
  8
WORKLAYER
  6
CONTINUOUS
 62
     4
 10
-2.0000000
 20
-73.5000000
 30
0.0
 11
-2.0000000
 21
-71.5000000
 31
0.0
 62
     4
  0
ARC
  8
WORKLAYER
  6
CONTINUOUS
 62
     4
 10
17.0000019
 20
-71.5000000
 30
0.0
 40
19.0000000
 50
487.8637085
 51
180.0000000
  0
ENDBLK
  0
BLOCK
  8
WORKLAYER
  2
DXF46
 70
    64
 10
0.0
 20
0.0
 30
0.0
  3
DXF46
  0
LINE
  8
WORKLAYER
  6
CONTINUOUS
 62
     4
 10
25.0000019
 20
-57.5000000
 30
0.0
 11
25.0000019
 21
-56.5000000
 31
0.0
 62
     4
  0
LINE
  8
WORKLAYER
  6
CONTINUOUS
 62
     4
 10
25.0000019
 20
-52.5000000
 30
0.0
 11
25.0000019
 21
-51.5000000
 31
0.0
 62
     4
  0
ENDBLK
  0
BLOCK
  8
AREA
  2
DXF58
 70
    64
 10
0.0
 20
0.0
 30
0.0
  3
DXF58
  0
LINE
  8
AREA
  6
CONTINUOUS
 62
     4
 10
0.0000000
 20
-24.2500000
 30
0.0
 11
13.0000019
 21
-24.2500000
 31
0.0
 62
     4
  0
LINE
  8
AREA
  6
CONTINUOUS
 62
     4
 10
13.0000019
 20
-24.2500000
 30
0.0
 11
13.0000019
 21
-25.7500000
 31
0.0
 62
     4
  0
LINE
  8
AREA
  6
CONTINUOUS
 62
     4
 10
13.0000019
 20
-25.7500000
 30
0.0
 11
0.0000000
 21
-25.7500000
 31
0.0
 62
     4
  0
LINE
  8
AREA
  6
CONTINUOUS
 62
     4
 10
0.0000000
 20
-25.7500000
 30
0.0
 11
0.0000000
 21
-24.2500000
 31
0.0
 62
     4
  0
ENDBLK
  0
BLOCK
  8
AREA
  2
DXF59
 70
    64
 10
0.0
 20
0.0
 30
0.0
  3
DXF59
  0
LINE
  8
AREA
  6
CONTINUOUS
 62
     4
 10
79.0000000
 20
-3.0999911
 30
0.0
 11
79.0000000
 21
-4.8000031
 31
0.0
 62
     4
  0
ARC
  8
AREA
  6
CONTINUOUS
 62
     4
 10
74.8000488
 20
-4.8000031
 30
0.0
 40
4.1999998
 50
270.0000000
 51
360.0000000
  0
ARC
  8
AREA
  6
CONTINUOUS
 62
     4
 10
74.8000488
 20
-3.0999911
 30
0.0
 40
4.1999998
 50
360.0000000
 51
407.5692139
  0
ENDBLK
  0
BLOCK
  8
AREA
  2
DXF62
 70
    64
 10
0.0
 20
0.0
 30
0.0
  3
DXF62
  0
LINE
  8
AREA
  6
CONTINUOUS
 62
     4
 10
-68.9998779
 20
2.0431061
 30
0.0
 11
-70.9475708
 21
-3.8000031
 31
0.0
 62
     4
  0
LINE
  8
AREA
  6
CONTINUOUS
 62
     4
 10
-71.6808777
 20
-6.0000000
 30
0.0
 11
-72.6808777
 21
-9.0000000
 31
0.0
 62
     4
  0
ENDBLK
  0
BLOCK
  8
AREA
  2
DXF67
 70
    64
 10
0.0
 20
0.0
 30
0.0
  3
DXF67
  0
LINE
  8
AREA
  6
CONTINUOUS
 62
     4
 10
-68.9998779
 20
2.0431061
 30
0.0
 11
-67.0521851
 21
-3.8000031
 31
0.0
 62
     4
  0
LINE
  8
AREA
  6
CONTINUOUS
 62
     4
 10
-66.3188782
 20
-6.0000000
 30
0.0
 11
-65.3188782
 21
-9.0000000
 31
0.0
 62
     4
  0
ENDBLK
  0
BLOCK
  8
AREA
  2
DXF73
 70
    64
 10
0.0
 20
0.0
 30
0.0
  3
DXF73
  0
LINE
  8
AREA
  6
CONTINUOUS
 62
     4
 10
57.3095131
 20
-9.0000000
 30
0.0
 11
58.2679405
 21
-6.0000000
 31
0.0
 62
     4
  0
LINE
  8
AREA
  6
CONTINUOUS
 62
     4
 10
58.9706421
 20
-3.8000031
 30
0.0
 11
60.7500038
 21
1.7702030
 31
0.0
 62
     4
  0
ENDBLK
  0
BLOCK
  8
AREA
  2
DXF78
 70
    64
 10
0.0
 20
0.0
 30
0.0
  3
DXF78
  0
LINE
  8
AREA
  6
CONTINUOUS
 62
     4
 10
64.1905518
 20
-9.0000000
 30
0.0
 11
63.2323036
 21
-6.0000000
 31
0.0
 62
     4
  0
LINE
  8
AREA
  6
CONTINUOUS
 62
     4
 10
62.5292931
 20
-3.8000031
 30
0.0
 11
60.7500038
 21
1.7702030
 31
0.0
 62
     4
  0
ENDBLK
  0
BLOCK
  8
AREA
  2
DXF84
 70
    64
 10
0.0
 20
0.0
 30
0.0
  3
DXF84
  0
LINE
  8
AREA
  6
CONTINUOUS
 62
     4
 10
76.8000488
 20
-3.0999911
 30
0.0
 11
76.8000488
 21
-4.8000031
 31
0.0
 62
     4
  0
ARC
  8
AREA
  6
CONTINUOUS
 62
     4
 10
74.8000488
 20
-4.8000031
 30
0.0
 40
2.0000000
 50
270.0000000
 51
360.0000000
  0
ARC
  8
AREA
  6
CONTINUOUS
 62
     4
 10
74.8000488
 20
-3.0999911
 30
0.0
 40
2.0000000
 50
360.0000000
 51
450.0000000
  0
ENDBLK
  0
BLOCK
  8
AREA
  2
DXF88
 70
    64
 10
0.0
 20
0.0
 30
0.0
  3
DXF88
  0
LINE
  8
AREA
  6
CONTINUOUS
 62
     4
 10
79.0000000
 20
3.1000061
 30
0.0
 11
79.0000000
 21
4.8000031
 31
0.0
 62
     4
  0
ARC
  8
AREA
  6
CONTINUOUS
 62
     4
 10
74.8000488
 20
4.8000031
 30
0.0
 40
4.1999998
 50
360.0000000
 51
450.0000000
  0
ARC
  8
AREA
  6
CONTINUOUS
 62
     4
 10
74.8000488
 20
3.1000061
 30
0.0
 40
4.1999998
 50
312.4307861
 51
360.0000000
  0
ENDBLK
  0
BLOCK
  8
AREA
  2
DXF90
 70
    64
 10
0.0
 20
0.0
 30
0.0
  3
DXF90
  0
LINE
  8
AREA
  6
CONTINUOUS
 62
     4
 10
76.8000488
 20
3.1000061
 30
0.0
 11
76.8000488
 21
4.8000031
 31
0.0
 62
     4
  0
ARC
  8
AREA
  6
CONTINUOUS
 62
     4
 10
74.8000488
 20
4.8000031
 30
0.0
 40
2.0000000
 50
360.0000000
 51
450.0000000
  0
ARC
  8
AREA
  6
CONTINUOUS
 62
     4
 10
74.8000488
 20
3.1000061
 30
0.0
 40
2.0000000
 50
270.0000000
 51
360.0000000
  0
ENDBLK
  0
BLOCK
  8
WORKLAYER
  2
DXF96
 70
    64
 10
0.0
 20
0.0
 30
0.0
  3
DXF96
  0
LINE
  8
WORKLAYER
  6
CONTINUOUS
 62
     4
 10
-3.0000000
 20
69.8526917
 30
0.0
 11
-3.0000000
 21
109.0000000
 31
0.0
 62
     4
  0
ARC
  8
WORKLAYER
  6
CONTINUOUS
 62
     4
 10
-8.0000000
 20
109.0000000
 30
0.0
 40
5.0000000
 50
360.0000000
 51
450.0000000
  0
ENDBLK
  0
BLOCK
  8
WORKLAYER
  2
DXF97
 70
    64
 10
0.0
 20
0.0
 30
0.0
  3
DXF97
  0
LINE
  8
WORKLAYER
  6
CONTINUOUS
 62
     4
 10
3.0000000
 20
69.8526917
 30
0.0
 11
3.0000000
 21
109.0000000
 31
0.0
 62
     4
  0
ARC
  8
WORKLAYER
  6
CONTINUOUS
 62
     4
 10
8.0000000
 20
109.0000000
 30
0.0
 40
5.0000000
 50
450.0000000
 51
180.0000000
  0
ENDBLK
  0
BLOCK
  8
AREA
  2
DXF99
 70
    64
 10
0.0
 20
0.0
 30
0.0
  3
DXF99
  0
LINE
  8
AREA
  6
CONTINUOUS
 62
     4
 10
-18.9999981
 20
109.0000000
 30
0.0
 11
-18.9999981
 21
78.0000000
 31
0.0
 62
     4
  0
ARC
  8
AREA
  6
CONTINUOUS
 62
     4
 10
-23.9999981
 20
78.0000000
 30
0.0
 40
5.0000000
 50
270.0000000
 51
360.0000000
  0
ENDBLK
  0
BLOCK
  8
WORKLAYER
  2
DXF100
 70
    64
 10
0.0
 20
0.0
 30
0.0
  3
DXF100
  0
ARC
  8
WORKLAYER
  6
CONTINUOUS
 62
     4
 10
-23.9999981
 20
109.0000000
 30
0.0
 40
5.0000000
 50
360.0000000
 51
413.1300964
  0
ARC
  8
WORKLAYER
  6
CONTINUOUS
 62
     4
 10
-17.9999981
 20
117.0000000
 30
0.0
 40
5.0000000
 50
180.0000000
 51
233.1300964
  0
ENDBLK
  0
BLOCK
  8
AREA
  2
DXF101
 70
    64
 10
0.0
 20
0.0
 30
0.0
  3
DXF101
  0
LINE
  8
AREA
  6
CONTINUOUS
 62
     4
 10
-17.3998985
 20
171.0000000
 30
0.0
 11
-17.3998985
 21
153.5000000
 31
0.0
 62
     4
  0
LINE
  8
AREA
  6
CONTINUOUS
 62
     4
 10
-17.3998985
 20
171.0000000
 30
0.0
 11
-16.3998985
 21
172.0000000
 31
0.0
 62
     4
  0
ENDBLK
  0
BLOCK
  8
AREA
  2
DXF104
 70
    64
 10
0.0
 20
0.0
 30
0.0
  3
DXF104
  0
LINE
  8
AREA
  6
CONTINUOUS
 62
     4
 10
-34.9998779
 20
92.6151123
 30
0.0
 11
-34.9998779
 21
78.0000000
 31
0.0
 62
     4
  0
ARC
  8
AREA
  6
CONTINUOUS
 62
     4
 10
-39.9998779
 20
78.0000000
 30
0.0
 40
5.0000000
 50
270.0000000
 51
360.0000000
  0
ARC
  8
AREA
  6
CONTINUOUS
 62
     4
 10
-29.9998779
 20
92.6151123
 30
0.0
 40
5.0000000
 50
509.0361938
 51
180.0000000
  0
ENDBLK
  0
BLOCK
  8
AREA
  2
DXF108
 70
    64
 10
0.0
 20
0.0
 30
0.0
  3
DXF108
  0
LINE
  8
AREA
  6
CONTINUOUS
 62
     4
 10
19.0000019
 20
107.1518021
 30
0.0
 11
19.0000019
 21
104.9803009
 31
0.0
 62
     4
  0
LINE
  8
AREA
  6
CONTINUOUS
 62
     4
 10
19.0000019
 20
109.0000000
 30
0.0
 11
19.0000019
 21
76.9187927
 31
0.0
 62
     4
  0
ARC
  8
AREA
  6
CONTINUOUS
 62
     4
 10
24.0000019
 20
76.9187927
 30
0.0
 40
5.0000000
 50
180.0000000
 51
256.2998047
  0
ENDBLK
  0
BLOCK
  8
AREA
  2
DXF111
 70
    64
 10
0.0
 20
0.0
 30
0.0
  3
DXF111
  0
LINE
  8
AREA
  6
CONTINUOUS
 62
     4
 10
-23.7123985
 20
112.8125000
 30
0.0
 11
-34.2873878
 21
95.1875916
 31
0.0
 62
     4
  0
ARC
  8
AREA
  6
CONTINUOUS
 62
     4
 10
-27.9999981
 20
115.3849030
 30
0.0
 40
5.0000000
 50
329.0361938
 51
360.0000000
  0
ENDBLK
  0
BLOCK
  8
AREA
  2
DXF114
 70
    64
 10
0.0
 20
0.0
 30
0.0
  3
DXF114
  0
LINE
  8
AREA
  6
CONTINUOUS
 62
     4
 10
17.4001427
 20
171.0000000
 30
0.0
 11
17.4001427
 21
153.5000000
 31
0.0
 62
     4
  0
LINE
  8
AREA
  6
CONTINUOUS
 62
     4
 10
17.4001427
 20
171.0000000
 30
0.0
 11
16.4001427
 21
172.0000000
 31
0.0
 62
     4
  0
ENDBLK
  0
BLOCK
  8
AREA
  2
DXF118
 70
    64
 10
0.0
 20
0.0
 30
0.0
  3
DXF118
  0
LINE
  8
AREA
  6
CONTINUOUS
 62
     4
 10
35.0000038
 20
92.6151123
 30
0.0
 11
35.0000038
 21
68.6181870
 31
0.0
 62
     4
  0
ARC
  8
AREA
  6
CONTINUOUS
 62
     4
 10
40.0000038
 20
68.6181870
 30
0.0
 40
5.0000000
 50
180.0000000
 51
228.8605042
  0
ENDBLK
  0
BLOCK
  8
AREA
  2
DXF125
 70
    64
 10
0.0
 20
0.0
 30
0.0
  3
DXF125
  0
LINE
  8
AREA
  6
CONTINUOUS
 62
     4
 10
332.0000305
 20
114.0000000
 30
0.0
 11
318.0000305
 21
114.0000000
 31
0.0
 62
     4
  0
LINE
  8
AREA
  6
CONTINUOUS
 62
     4
 10
318.0000305
 20
114.0000000
 30
0.0
 11
310.0001221
 21
114.0000000
 31
0.0
 62
     4
  0
ENDBLK
  0
BLOCK
  8
AREA
  2
DXF132
 70
    64
 10
0.0
 20
0.0
 30
0.0
  3
DXF132
  0
LINE
  8
AREA
  6
CONTINUOUS
 62
     4
 10
327.4000244
 20
171.0000000
 30
0.0
 11
327.4000244
 21
153.5000000
 31
0.0
 62
     4
  0
LINE
  8
AREA
  6
CONTINUOUS
 62
     4
 10
327.4000244
 20
171.0000000
 30
0.0
 11
326.4000244
 21
172.0000000
 31
0.0
 62
     4
  0
ENDBLK
  0
BLOCK
  8
AREA
  2
DXF135
 70
    64
 10
0.0
 20
0.0
 30
0.0
  3
DXF135
  0
LINE
  8
AREA
  6
CONTINUOUS
 62
     4
 10
333.7125244
 20
112.8125000
 30
0.0
 11
344.2875366
 21
95.1875916
 31
0.0
 62
     4
  0
ARC
  8
AREA
  6
CONTINUOUS
 62
     4
 10
338.0000305
 20
115.3849030
 30
0.0
 40
5.0000000
 50
180.0000000
 51
210.9638062
  0
ENDBLK
  0
BLOCK
  8
WORKLAYER
  2
DXF136
 70
    64
 10
0.0
 20
0.0
 30
0.0
  3
DXF136
  0
ARC
  8
WORKLAYER
  6
CONTINUOUS
 62
     4
 10
334.0000305
 20
109.0000000
 30
0.0
 40
5.0000000
 50
486.8699036
 51
180.0000000
  0
ARC
  8
WORKLAYER
  6
CONTINUOUS
 62
     4
 10
328.0000305
 20
117.0000000
 30
0.0
 40
5.0000000
 50
306.8699036
 51
360.0000000
  0
ENDBLK
  0
BLOCK
  8
WORKLAYER
  2
DXF137
 70
    64
 10
0.0
 20
0.0
 30
0.0
  3
DXF137
  0
LINE
  8
WORKLAYER
  6
CONTINUOUS
 62
     4
 10
313.0001221
 20
87.4486084
 30
0.0
 11
313.0001221
 21
109.0000000
 31
0.0
 62
     4
  0
ARC
  8
WORKLAYER
  6
CONTINUOUS
 62
     4
 10
318.0000305
 20
109.0000000
 30
0.0
 40
5.0000000
 50
90.0000000
 51
180.0000000
  0
ENDBLK
  0
BLOCK
  8
AREA
  2
DXF139
 70
    64
 10
0.0
 20
0.0
 30
0.0
  3
DXF139
  0
LINE
  8
AREA
  6
CONTINUOUS
 62
     4
 10
345.0000305
 20
92.6151123
 30
0.0
 11
345.0000305
 21
80.1950989
 31
0.0
 62
     4
  0
ARC
  8
AREA
  6
CONTINUOUS
 62
     4
 10
340.0000305
 20
92.6151123
 30
0.0
 40
5.0000000
 50
0.0000000
 51
30.9638100
  0
ENDBLK
  0
BLOCK
  8
WORKLAYER
  2
DXF144
 70
    64
 10
0.0
 20
0.0
 30
0.0
  3
DXF144
  0
LINE
  8
WORKLAYER
  6
CONTINUOUS
 62
     4
 10
78.0001221
 20
-88.1270218
 30
0.0
 11
78.0001221
 21
-76.1350021
 31
0.0
 62
     4
  0
ARC
  8
WORKLAYER
  6
CONTINUOUS
 62
     4
 10
102.5001221
 20
-76.1350021
 30
0.0
 40
24.5000000
 50
473.9483948
 51
180.0000000
  0
ENDBLK
  0
BLOCK
  8
WORKLAYER
  2
DXF157
 70
    64
 10
0.0
 20
0.0
 30
0.0
  3
DXF157
  0
LINE
  8
WORKLAYER
  6
CONTINUOUS
 62
     4
 10
48.0000038
 20
24.2021008
 30
0.0
 11
48.0000038
 21
40.0000000
 31
0.0
 62
     4
  0
ARC
  8
WORKLAYER
  6
CONTINUOUS
 62
     4
 10
15.0000019
 20
40.0000000
 30
0.0
 40
33.0000000
 50
360.0000000
 51
408.8605042
  0
ARC
  8
WORKLAYER
  6
CONTINUOUS
 62
     4
 10
15.0000019
 20
40.0000000
 30
0.0
 40
33.0000000
 50
408.8605042
 51
450.0000000
  0
ENDBLK
  0
BLOCK
  8
WORKLAYER
  2
DXF162
 70
    64
 10
0.0
 20
0.0
 30
0.0
  3
DXF162
  0
LINE
  8
WORKLAYER
  6
CONTINUOUS
 62
     4
 10
391.0000305
 20
-92.0000381
 30
0.0
 11
391.0000305
 21
-106.0000000
 31
0.0
 62
     4
  0
ARC
  8
WORKLAYER
  6
CONTINUOUS
 62
     4
 10
389.0000305
 20
-106.0000000
 30
0.0
 40
2.0000000
 50
270.0000000
 51
360.0000000
  0
ARC
  8
WORKLAYER
  6
CONTINUOUS
 62
     4
 10
389.0000305
 20
-92.0000381
 30
0.0
 40
2.0000000
 50
360.0000000
 51
435.5224915
  0
ARC
  8
WORKLAYER
  6
CONTINUOUS
 62
     4
 10
390.0000305
 20
-88.1270218
 30
0.0
 40
2.0000000
 50
180.0000000
 51
255.5225067
  0
LINE
  8
WORKLAYER
  6
CONTINUOUS
 62
     4
 10
389.0000305
 20
-108.0000000
 30
0.0
 11
310.0001221
 21
-108.0000000
 31
0.0
 62
     4
  0
ENDBLK
  0
BLOCK
  8
WORKLAYER
  2
DXF164
 70
    64
 10
0.0
 20
0.0
 30
0.0
  3
DXF164
  0
LINE
  8
WORKLAYER
  6
CENTER
 62
     2
 10
359.4975281
 20
49.4975014
 30
0.0
 11
367.9827881
 21
57.9827690
 31
0.0
 62
     2
  0
LINE
  8
WORKLAYER
  6
CENTER
 62
     2
 10
359.4975281
 20
49.4975014
 30
0.0
 11
351.0122681
 21
41.0122299
 31
0.0
 62
     2
  0
ENDBLK
  0
BLOCK
  8
WORKLAYER
  2
DXF166
 70
    64
 10
0.0
 20
0.0
 30
0.0
  3
DXF166
  0
LINE
  8
WORKLAYER
  6
CENTER
 62
     2
 10
359.4975281
 20
-49.4975014
 30
0.0
 11
367.9827881
 21
-57.9827690
 31
0.0
 62
     2
  0
LINE
  8
WORKLAYER
  6
CENTER
 62
     2
 10
359.4975281
 20
-49.4975014
 30
0.0
 11
351.0122681
 21
-41.0122299
 31
0.0
 62
     2
  0
ENDBLK
  0
BLOCK
  8
WORKLAYER
  2
DXF170
 70
    64
 10
0.0
 20
0.0
 30
0.0
  3
DXF170
  0
LINE
  8
WORKLAYER
  6
CONTINUOUS
 62
     4
 10
363.0000305
 20
-108.0000000
 30
0.0
 11
363.0000305
 21
-111.0000000
 31
0.0
 62
     4
  0
LINE
  8
WORKLAYER
  6
CONTINUOUS
 62
     4
 10
363.0000305
 20
-110.0000000
 30
0.0
 11
350.0001221
 21
-110.0000000
 31
0.0
 62
     4
  0
LINE
  8
WORKLAYER
  6
CONTINUOUS
 62
     4
 10
338.0001221
 20
-110.0000000
 30
0.0
 11
282.0001221
 21
-110.0000000
 31
0.0
 62
     4
  0
LINE
  8
WORKLAYER
  6
CONTINUOUS
 62
     4
 10
270.0001221
 20
-110.0000000
 30
0.0
 11
257.0001221
 21
-110.0000000
 31
0.0
 62
     4
  0
ARC
  8
WORKLAYER
  6
CONTINUOUS
 62
     4
 10
365.0000305
 20
-111.0000000
 30
0.0
 40
2.0000000
 50
180.0000000
 51
270.0000000
  0
ENDBLK
  0
BLOCK
  8
WORKLAYER
  2
DXF171
 70
    64
 10
0.0
 20
0.0
 30
0.0
  3
DXF171
  0
LINE
  8
WORKLAYER
  6
CONTINUOUS
 62
     4
 10
-79.5175781
 20
-89.6028214
 30
0.0
 11
-61.4116783
 21
-84.7512970
 31
0.0
 62
     4
  0
ARC
  8
WORKLAYER
  6
CONTINUOUS
 62
     4
 10
-78.9998779
 20
-91.5346527
 30
0.0
 40
2.0000000
 50
465.0000000
 51
180.0000000
  0
ARC
  8
WORKLAYER
  6
CONTINUOUS
 62
     4
 10
-63.9998779
 20
-75.0921021
 30
0.0
 40
10.0000000
 50
285.0000000
 51
360.0000000
  0
ENDBLK
  0
BLOCK
  8
WORKLAYER
  2
DXF173
 70
    64
 10
0.0
 20
0.0
 30
0.0
  3
DXF173
  0
LINE
  8
WORKLAYER
  6
CONTINUOUS
 62
     4
 10
63.3515015
 20
15.7543898
 30
0.0
 11
106.3738251
 21
43.0077095
 31
0.0
 62
     4
  0
ARC
  8
WORKLAYER
  6
CONTINUOUS
 62
     4
 10
58.0001221
 20
24.2021008
 30
0.0
 40
10.0000000
 50
180.0000000
 51
302.3529968
  0
ENDBLK
  0
BLOCK
  8
WORKLAYER
  2
DXF174
 70
    64
 10
0.0
 20
0.0
 30
0.0
  3
DXF174
  0
LINE
  8
WORKLAYER
  6
CONTINUOUS
 62
     4
 10
-77.1107788
 20
-29.0835991
 30
0.0
 11
-67.5672607
 21
-19.8348999
 31
0.0
 62
     4
  0
ARC
  8
WORKLAYER
  6
CONTINUOUS
 62
     4
 10
-105.2957764
 20
0.0000000
 30
0.0
 40
40.5000000
 50
277.0137024
 51
314.1010132
  0
ENDBLK
  0
BLOCK
  8
WORKLAYER
  2
DXF175
 70
    64
 10
0.0
 20
0.0
 30
0.0
  3
DXF175
  0
LINE
  8
WORKLAYER
  6
CONTINUOUS
 62
     4
 10
-71.9027710
 20
67.1444092
 30
0.0
 11
-106.2368774
 21
46.3556099
 31
0.0
 62
     4
  0
ARC
  8
WORKLAYER
  6
CONTINUOUS
 62
     4
 10
-127.2134781
 20
81.0000000
 30
0.0
 40
40.5000000
 50
297.1758118
 51
301.1942139
  0
ARC
  8
WORKLAYER
  6
CONTINUOUS
 62
     4
 10
-110.9998779
 20
49.4188995
 30
0.0
 40
5.0000000
 50
180.0000000
 51
297.1758118
  0
ENDBLK
  0
BLOCK
  8
WORKLAYER
  2
DXF180
 70
    64
 10
0.0
 20
0.0
 30
0.0
  3
DXF180
  0
LINE
  8
WORKLAYER
  6
CONTINUOUS
 62
     4
 10
-53.9998779
 20
-75.0921021
 30
0.0
 11
-53.9998779
 21
5.0000000
 31
0.0
 62
     4
  0
ARC
  8
WORKLAYER
  6
CONTINUOUS
 62
     4
 10
-61.9998779
 20
-25.5799007
 30
0.0
 40
8.0000000
 50
360.0000000
 51
494.1010132
  0
ENDBLK
  0
BLOCK
  8
WORKLAYER
  2
DXF181
 70
    64
 10
0.0
 20
0.0
 30
0.0
  3
DXF181
  0
LINE
  8
WORKLAYER
  6
CONTINUOUS
 62
     4
 10
-50.9261780
 20
73.0000000
 30
0.0
 11
-39.9998779
 21
73.0000000
 31
0.0
 62
     4
  0
LINE
  8
WORKLAYER
  6
CONTINUOUS
 62
     4
 10
-39.9998779
 20
73.0000000
 30
0.0
 11
-3.0000000
 21
73.0000000
 31
0.0
 62
     4
  0
LINE
  8
WORKLAYER
  6
CONTINUOUS
 62
     4
 10
3.0000000
 20
73.0000000
 30
0.0
 11
15.0000019
 21
73.0000000
 31
0.0
 62
     4
  0
ARC
  8
WORKLAYER
  6
CONTINUOUS
 62
     4
 10
-50.9261780
 20
32.5000000
 30
0.0
 40
40.5000000
 50
450.0000000
 51
481.1942139
  0
ENDBLK
  0
BLOCK
  8
WORKLAYER
  2
DXF182
 70
    64
 10
0.0
 20
0.0
 30
0.0
  3
DXF182
  0
LINE
  8
WORKLAYER
  6
CONTINUOUS
 62
     4
 10
-137.9998779
 20
87.5000000
 30
0.0
 11
-117.9998779
 21
87.5000000
 31
0.0
 62
     4
  0
LINE
  8
WORKLAYER
  6
CONTINUOUS
 62
     4
 10
-115.9998779
 20
85.5000000
 30
0.0
 11
-115.9998779
 21
0.0000000
 31
0.0
 62
     4
  0
LINE
  8
WORKLAYER
  6
CONTINUOUS
 62
     4
 10
-115.9998779
 20
0.0000000
 30
0.0
 11
-115.9998779
 21
-85.5000000
 31
0.0
 62
     4
  0
LINE
  8
WORKLAYER
  6
CONTINUOUS
 62
     4
 10
-117.9998779
 20
-87.5000000
 30
0.0
 11
-137.9998779
 21
-87.5000000
 31
0.0
 62
     4
  0
LINE
  8
WORKLAYER
  6
CONTINUOUS
 62
     4
 10
-137.9998779
 20
-87.5000000
 30
0.0
 11
-137.9998779
 21
87.5000000
 31
0.0
 62
     4
  0
ARC
  8
WORKLAYER
  6
CONTINUOUS
 62
     4
 10
-117.9998779
 20
-85.5000000
 30
0.0
 40
2.0000000
 50
270.0000000
 51
360.0000000
  0
ARC
  8
WORKLAYER
  6
CONTINUOUS
 62
     4
 10
-117.9998779
 20
85.5000000
 30
0.0
 40
2.0000000
 50
360.0000000
 51
450.0000000
  0
ENDBLK
  0
BLOCK
  8
WORKLAYER
  2
DXF183
 70
    64
 10
0.0
 20
0.0
 30
0.0
  3
DXF183
  0
LINE
  8
WORKLAYER
  6
CONTINUOUS
 62
     4
 10
118.0001221
 20
87.5000000
 30
0.0
 11
138.0001221
 21
87.5000000
 31
0.0
 62
     4
  0
LINE
  8
WORKLAYER
  6
CONTINUOUS
 62
     4
 10
138.0001221
 20
87.5000000
 30
0.0
 11
138.0001221
 21
-87.5000000
 31
0.0
 62
     4
  0
LINE
  8
WORKLAYER
  6
CONTINUOUS
 62
     4
 10
138.0001221
 20
-87.5000000
 30
0.0
 11
118.0001221
 21
-87.5000000
 31
0.0
 62
     4
  0
LINE
  8
WORKLAYER
  6
CONTINUOUS
 62
     4
 10
116.0001221
 20
-85.5000000
 30
0.0
 11
116.0001221
 21
0.0000000
 31
0.0
 62
     4
  0
LINE
  8
WORKLAYER
  6
CONTINUOUS
 62
     4
 10
116.0001221
 20
0.0000000
 30
0.0
 11
116.0001221
 21
85.5000000
 31
0.0
 62
     4
  0
ARC
  8
WORKLAYER
  6
CONTINUOUS
 62
     4
 10
118.0001221
 20
-85.5000000
 30
0.0
 40
2.0000000
 50
180.0000000
 51
270.0000000
  0
ARC
  8
WORKLAYER
  6
CONTINUOUS
 62
     4
 10
118.0001221
 20
85.5000000
 30
0.0
 40
2.0000000
 50
450.0000000
 51
180.0000000
  0
ENDBLK
  0
BLOCK
  8
WORKLAYER
  2
DXF184
 70
    64
 10
0.0
 20
0.0
 30
0.0
  3
DXF184
  0
LINE
  8
WORKLAYER
  6
CONTINUOUS
 62
     4
 10
81.0001221
 20
-92.0000381
 30
0.0
 11
81.0001221
 21
-106.0000000
 31
0.0
 62
     4
  0
LINE
  8
WORKLAYER
  6
CONTINUOUS
 62
     4
 10
79.0001221
 20
-108.0000000
 30
0.0
 11
0.0000000
 21
-108.0000000
 31
0.0
 62
     4
  0
LINE
  8
WORKLAYER
  6
CONTINUOUS
 62
     4
 10
0.0000000
 20
-108.0000000
 30
0.0
 11
-78.9998779
 21
-108.0000000
 31
0.0
 62
     4
  0
LINE
  8
WORKLAYER
  6
CONTINUOUS
 62
     4
 10
-80.9998779
 20
-106.0000000
 30
0.0
 11
-80.9998779
 21
-91.5346527
 31
0.0
 62
     4
  0
ARC
  8
WORKLAYER
  6
CONTINUOUS
 62
     4
 10
-78.9998779
 20
-106.0000000
 30
0.0
 40
2.0000000
 50
180.0000000
 51
270.0000000
  0
ARC
  8
WORKLAYER
  6
CONTINUOUS
 62
     4
 10
79.0001221
 20
-106.0000000
 30
0.0
 40
2.0000000
 50
270.0000000
 51
360.0000000
  0
ARC
  8
WORKLAYER
  6
CONTINUOUS
 62
     4
 10
79.0001221
 20
-92.0000381
 30
0.0
 40
2.0000000
 50
360.0000000
 51
435.5224915
  0
ARC
  8
WORKLAYER
  6
CONTINUOUS
 62
     4
 10
80.0001221
 20
-88.1270218
 30
0.0
 40
2.0000000
 50
180.0000000
 51
255.5225067
  0
ENDBLK
  0
BLOCK
  8
WORKLAYER
  2
DXF185
 70
    64
 10
0.0
 20
0.0
 30
0.0
  3
DXF185
  0
LINE
  8
WORKLAYER
  6
CONTINUOUS
 62
     4
 10
52.8897324
 20
-110.0000000
 30
0.0
 11
6.0000000
 21
-110.0000000
 31
0.0
 62
     4
  0
LINE
  8
WORKLAYER
  6
CONTINUOUS
 62
     4
 10
-6.0000000
 20
-110.0000000
 30
0.0
 11
-52.8897285
 21
-110.0000000
 31
0.0
 62
     4
  0
ENDBLK
  0
BLOCK
  8
SSYMB
  2
DXF186
 70
    64
 10
0.0
 20
0.0
 30
0.0
  3
DXF186
  0
LINE
  8
SSYMB
  6
CONTINUOUS
 62
     4
 10
-10.6029081
 20
-96.0000381
 30
0.0
 11
-9.3589478
 21
-96.0000381
 31
0.0
 62
     4
  0
LINE
  8
SSYMB
  6
CONTINUOUS
 62
     4
 10
-9.3589478
 20
-96.0000381
 30
0.0
 11
-9.3589478
 21
-106.0000000
 31
0.0
 62
     4
  0
LINE
  8
SSYMB
  6
CONTINUOUS
 62
     4
 10
-9.3589478
 20
-106.0000000
 30
0.0
 11
-10.8589478
 21
-106.0000000
 31
0.0
 62
     4
  0
LINE
  8
SSYMB
  6
CONTINUOUS
 62
     4
 10
-10.8589478
 20
-106.0000000
 30
0.0
 11
-10.8589478
 21
-99.0000381
 31
0.0
 62
     4
  0
LINE
  8
SSYMB
  6
CONTINUOUS
 62
     4
 10
-10.8589478
 20
-99.0000381
 30
0.0
 11
-12.9587975
 21
-99.0000381
 31
0.0
 62
     4
  0
LINE
  8
SSYMB
  6
CONTINUOUS
 62
     4
 10
-12.9587975
 20
-99.0000381
 30
0.0
 11
-12.9587975
 21
-98.3559418
 31
0.0
 62
     4
  0
ARC
  8
SSYMB
  6
CONTINUOUS
 62
     4
 10
-12.9587975
 20
-96.0000381
 30
0.0
 40
2.3559999
 50
270.0000000
 51
360.0000000
  0
ENDBLK
  0
BLOCK
  8
SSYMB
  2
DXF187
 70
    64
 10
0.0
 20
0.0
 30
0.0
  3
DXF187
  0
LINE
  8
SSYMB
  6
CONTINUOUS
 62
     4
 10
6.3069463
 20
-100.5298996
 30
0.0
 11
10.8371019
 21
-96.0000381
 31
0.0
 62
     4
  0
LINE
  8
SSYMB
  6
CONTINUOUS
 62
     4
 10
10.8371019
 20
-96.0000381
 30
0.0
 11
12.9590416
 21
-96.0000381
 31
0.0
 62
     4
  0
LINE
  8
SSYMB
  6
CONTINUOUS
 62
     4
 10
12.9590416
 20
-96.0000381
 30
0.0
 11
8.8890991
 21
-100.0699005
 31
0.0
 62
     4
  0
LINE
  8
SSYMB
  6
CONTINUOUS
 62
     4
 10
8.8890991
 20
-100.0699005
 30
0.0
 11
13.0409517
 21
-106.0000000
 31
0.0
 62
     4
  0
LINE
  8
SSYMB
  6
CONTINUOUS
 62
     4
 10
13.0409517
 20
-106.0000000
 30
0.0
 11
11.2101421
 21
-106.0000000
 31
0.0
 62
     4
  0
LINE
  8
SSYMB
  6
CONTINUOUS
 62
     4
 10
11.2101421
 20
-106.0000000
 30
0.0
 11
7.8119512
 21
-101.1468964
 31
0.0
 62
     4
  0
LINE
  8
SSYMB
  6
CONTINUOUS
 62
     4
 10
7.8119512
 20
-101.1468964
 30
0.0
 11
6.3069463
 21
-102.6520004
 31
0.0
 62
     4
  0
LINE
  8
SSYMB
  6
CONTINUOUS
 62
     4
 10
6.3069463
 20
-102.6520004
 30
0.0
 11
6.3069463
 21
-106.0000000
 31
0.0
 62
     4
  0
LINE
  8
SSYMB
  6
CONTINUOUS
 62
     4
 10
6.3069463
 20
-106.0000000
 30
0.0
 11
4.8069463
 21
-106.0000000
 31
0.0
 62
     4
  0
LINE
  8
SSYMB
  6
CONTINUOUS
 62
     4
 10
4.8069463
 20
-106.0000000
 30
0.0
 11
4.8069463
 21
-96.0000381
 31
0.0
 62
     4
  0
LINE
  8
SSYMB
  6
CONTINUOUS
 62
     4
 10
4.8069463
 20
-96.0000381
 30
0.0
 11
6.3069463
 21
-96.0000381
 31
0.0
 62
     4
  0
LINE
  8
SSYMB
  6
CONTINUOUS
 62
     4
 10
6.3069463
 20
-96.0000381
 30
0.0
 11
6.3069463
 21
-100.5298996
 31
0.0
 62
     4
  0
ENDBLK
  0
BLOCK
  8
SSYMB
  2
DXF188
 70
    64
 10
0.0
 20
0.0
 30
0.0
  3
DXF188
  0
POLYLINE
  8
SSYMB
 66
     1
 10
0.0
 20
0.0
 30
0.0
  6
CONTINUOUS
 62
     4
 70
     1
  0
VERTEX
  8
SSYMB
  6
CONTINUOUS
 10
-2.2760005
 20
-97.4689026
 30
0.0
 42
0.1600442
 62
     4
  0
VERTEX
  8
SSYMB
  6
CONTINUOUS
 10
-3.0872886
 20
-97.7378311
 30
0.0
 42
0.1008155
 62
     4
  0
VERTEX
  8
SSYMB
  6
CONTINUOUS
 10
-3.7750673
 20
-98.5036926
 30
0.0
 42
0.0734295
 62
     4
  0
VERTEX
  8
SSYMB
  6
CONTINUOUS
 10
-4.2346263
 20
-99.6498795
 30
0.0
 42
0.0594679
 62
     4
  0
VERTEX
  8
SSYMB
  6
CONTINUOUS
 10
-4.3960009
 20
-101.0018997
 30
0.0
 42
0.0594679
 62
     4
  0
VERTEX
  8
SSYMB
  6
CONTINUOUS
 10
-4.2346272
 20
-102.3539200
 30
0.0
 42
0.0734295
 62
     4
  0
VERTEX
  8
SSYMB
  6
CONTINUOUS
 10
-3.7750695
 20
-103.5001068
 30
0.0
 42
0.1008155
 62
     4
  0
VERTEX
  8
SSYMB
  6
CONTINUOUS
 10
-3.0872917
 20
-104.2659683
 30
0.0
 42
0.1614250
 62
     4
  0
VERTEX
  8
SSYMB
  6
CONTINUOUS
 10
-2.2760019
 20
-104.5348969
 30
0.0
 42
0.1614250
 62
     4
  0
VERTEX
  8
SSYMB
  6
CONTINUOUS
 10
-1.4647154
 20
-104.2659683
 30
0.0
 42
0.1008155
 62
     4
  0
VERTEX
  8
SSYMB
  6
CONTINUOUS
 10
-0.7769362
 20
-103.5001068
 30
0.0
 42
0.0734295
 62
     4
  0
VERTEX
  8
SSYMB
  6
CONTINUOUS
 10
-0.3173766
 20
-102.3539200
 30
0.0
 42
0.0594679
 62
     4
  0
VERTEX
  8
SSYMB
  6
CONTINUOUS
 10
-0.1560011
 20
-101.0018997
 30
0.0
 42
0.0594679
 62
     4
  0
VERTEX
  8
SSYMB
  6
CONTINUOUS
 10
-0.3173753
 20
-99.6498795
 30
0.0
 42
0.0734295
 62
     4
  0
VERTEX
  8
SSYMB
  6
CONTINUOUS
 10
-0.7769340
 20
-98.5036926
 30
0.0
 42
0.1004762
 62
     4
  0
VERTEX
  8
SSYMB
  6
CONTINUOUS
 10
-1.4647124
 20
-97.7378311
 30
0.0
 42
0.1614250
 62
     4
  0
SEQEND
  0
POLYLINE
  8
SSYMB
 66
     1
 10
0.0
 20
0.0
 30
0.0
  6
CONTINUOUS
 62
     4
 70
     1
  0
VERTEX
  8
SSYMB
  6
CONTINUOUS
 10
-2.2760003
 20
-95.9909973
 30
0.0
 42
0.1347887
 62
     4
  0
VERTEX
  8
SSYMB
  6
CONTINUOUS
 10
-3.6559575
 20
-96.3722839
 30
0.0
 42
0.1029886
 62
     4
  0
VERTEX
  8
SSYMB
  6
CONTINUOUS
 10
-4.8258286
 20
-97.4580994
 30
0.0
 42
0.0834256
 62
     4
  0
VERTEX
  8
SSYMB
  6
CONTINUOUS
 10
-5.6075125
 20
-99.0831451
 30
0.0
 42
0.0712352
 62
     4
  0
VERTEX
  8
SSYMB
  6
CONTINUOUS
 10
-5.8820009
 20
-101.0000000
 30
0.0
 42
0.0712352
 62
     4
  0
VERTEX
  8
SSYMB
  6
CONTINUOUS
 10
-5.6075125
 20
-102.9168549
 30
0.0
 42
0.0834256
 62
     4
  0
VERTEX
  8
SSYMB
  6
CONTINUOUS
 10
-4.8258319
 20
-104.5419006
 30
0.0
 42
0.1029886
 62
     4
  0
VERTEX
  8
SSYMB
  6
CONTINUOUS
 10
-3.6559572
 20
-105.6277161
 30
0.0
 42
0.1356107
 62
     4
  0
VERTEX
  8
SSYMB
  6
CONTINUOUS
 10
-2.2760024
 20
-106.0090027
 30
0.0
 42
0.1356107
 62
     4
  0
VERTEX
  8
SSYMB
  6
CONTINUOUS
 10
-0.8960474
 20
-105.6277161
 30
0.0
 42
0.1029886
 62
     4
  0
VERTEX
  8
SSYMB
  6
CONTINUOUS
 10
0.2738245
 20
-104.5419006
 30
0.0
 42
0.0834256
 62
     4
  0
VERTEX
  8
SSYMB
  6
CONTINUOUS
 10
1.0555094
 20
-102.9168625
 30
0.0
 42
0.0712352
 62
     4
  0
VERTEX
  8
SSYMB
  6
CONTINUOUS
 10
1.3299990
 20
-101.0000000
 30
0.0
 42
0.0712352
 62
     4
  0
VERTEX
  8
SSYMB
  6
CONTINUOUS
 10
1.0555103
 20
-99.0831375
 30
0.0
 42
0.0834256
 62
     4
  0
VERTEX
  8
SSYMB
  6
CONTINUOUS
 10
0.2738277
 20
-97.4580994
 30
0.0
 42
0.1026268
 62
     4
  0
VERTEX
  8
SSYMB
  6
CONTINUOUS
 10
-0.8960454
 20
-96.3722839
 30
0.0
 42
0.1356107
 62
     4
  0
SEQEND
  0
ENDBLK
  0
BLOCK
  8
SSYMB
  2
DXF189
 70
    64
 10
0.0
 20
0.0
 30
0.0
  3
DXF189
  0
ARC
  8
SSYMB
  6
CONTINUOUS
 62
     4
 10
9.8818970
 20
-38.8937988
 30
0.0
 40
7.2600002
 50
478.0000000
 51
528.9000244
  0
ARC
  8
SSYMB
  6
CONTINUOUS
 62
     4
 10
1.6562501
 20
-24.9787006
 30
0.0
 40
8.9243002
 50
302.6000061
 51
315.3999939
  0
ARC
  8
SSYMB
  6
CONTINUOUS
 62
     4
 10
6.4786382
 20
-30.0760994
 30
0.0
 40
1.9239000
 50
323.0000000
 51
189.8000031
  0
LINE
  8
SSYMB
  6
CONTINUOUS
 62
     4
 10
4.5821528
 20
-30.4039001
 30
0.0
 11
2.9198000
 21
-30.4039001
 31
0.0
 62
     4
  0
ARC
  8
SSYMB
  6
CONTINUOUS
 62
     4
 10
6.4786382
 20
-30.0760994
 30
0.0
 40
3.5639999
 50
305.6000061
 51
185.1999969
  0
ARC
  8
SSYMB
  6
CONTINUOUS
 62
     4
 10
1.6562501
 20
-24.9787006
 30
0.0
 40
10.5710001
 50
302.5000000
 51
310.7000122
  0
ARC
  8
SSYMB
  6
CONTINUOUS
 62
     4
 10
10.2516518
 20
-38.8717995
 30
0.0
 40
5.7750001
 50
480.2000122
 51
508.3999939
  0
LINE
  8
SSYMB
  6
CONTINUOUS
 62
     4
 10
5.3312993
 20
-35.8512001
 30
0.0
 11
10.2438917
 21
-35.8512001
 31
0.0
 62
     4
  0
LINE
  8
SSYMB
  6
CONTINUOUS
 62
     4
 10
10.2438917
 20
-35.8512001
 30
0.0
 11
10.2438917
 21
-37.5000000
 31
0.0
 62
     4
  0
LINE
  8
SSYMB
  6
CONTINUOUS
 62
     4
 10
10.2438917
 20
-37.5000000
 30
0.0
 11
2.7563481
 21
-37.5000000
 31
0.0
 62
     4
  0
ENDBLK
  0
BLOCK
  8
SSYMB
  2
DXF190
 70
    64
 10
0.0
 20
0.0
 30
0.0
  3
DXF190
  0
LINE
  8
SSYMB
  6
CONTINUOUS
 62
     4
 10
6.1117549
 20
-12.5000000
 30
0.0
 11
7.4800410
 21
-12.5000000
 31
0.0
 62
     4
  0
LINE
  8
SSYMB
  6
CONTINUOUS
 62
     4
 10
7.4800410
 20
-12.5000000
 30
0.0
 11
7.4800410
 21
-23.5000000
 31
0.0
 62
     4
  0
LINE
  8
SSYMB
  6
CONTINUOUS
 62
     4
 10
7.4800410
 20
-23.5000000
 30
0.0
 11
5.8301392
 21
-23.5000000
 31
0.0
 62
     4
  0
LINE
  8
SSYMB
  6
CONTINUOUS
 62
     4
 10
5.8301392
 20
-23.5000000
 30
0.0
 11
5.8301392
 21
-15.8000002
 31
0.0
 62
     4
  0
LINE
  8
SSYMB
  6
CONTINUOUS
 62
     4
 10
5.8301392
 20
-15.8000002
 30
0.0
 11
3.5201421
 21
-15.8000002
 31
0.0
 62
     4
  0
LINE
  8
SSYMB
  6
CONTINUOUS
 62
     4
 10
3.5201421
 20
-15.8000002
 30
0.0
 11
3.5201421
 21
-15.0916004
 31
0.0
 62
     4
  0
ARC
  8
SSYMB
  6
CONTINUOUS
 62
     4
 10
3.5201421
 20
-12.5000000
 30
0.0
 40
2.5915999
 50
270.0000000
 51
360.0000000
  0
ENDBLK
  0
BLOCK
  8
WORKLAYER
  2
DXF201
 70
    64
 10
0.0
 20
0.0
 30
0.0
  3
DXF201
  0
LINE
  8
WORKLAYER
  6
CONTINUOUS
 62
     4
 10
-87.5000000
 20
-225.0000000
 30
0.0
 11
87.5000000
 21
-225.0000000
 31
0.0
 62
     4
  0
LINE
  8
WORKLAYER
  6
CONTINUOUS
 62
     4
 10
87.5000000
 20
-225.0000000
 30
0.0
 11
87.5000000
 21
-205.0000000
 31
0.0
 62
     4
  0
LINE
  8
WORKLAYER
  6
CONTINUOUS
 62
     4
 10
85.5000000
 20
-203.0000000
 30
0.0
 11
0.0000000
 21
-203.0000000
 31
0.0
 62
     4
  0
LINE
  8
WORKLAYER
  6
CONTINUOUS
 62
     4
 10
0.0000000
 20
-203.0000000
 30
0.0
 11
-85.5000000
 21
-203.0000000
 31
0.0
 62
     4
  0
LINE
  8
WORKLAYER
  6
CONTINUOUS
 62
     4
 10
-87.5000000
 20
-205.0000000
 30
0.0
 11
-87.5000000
 21
-225.0000000
 31
0.0
 62
     4
  0
ARC
  8
WORKLAYER
  6
CONTINUOUS
 62
     4
 10
50.7700920
 20
-198.0000000
 30
0.0
 40
5.0000000
 50
203.6284943
 51
270.0000000
  0
ARC
  8
WORKLAYER
  6
CONTINUOUS
 62
     4
 10
-50.7701073
 20
-198.0000000
 30
0.0
 40
5.0000000
 50
270.0000000
 51
336.3714905
  0
ARC
  8
WORKLAYER
  6
CONTINUOUS
 62
     4
 10
85.5000000
 20
-205.0000000
 30
0.0
 40
2.0000000
 50
0.0000000
 51
90.0000000
  0
ARC
  8
WORKLAYER
  6
CONTINUOUS
 62
     4
 10
-85.5000000
 20
-205.0000000
 30
0.0
 40
2.0000000
 50
90.0000000
 51
180.0000000
  0
LINE
  8
WORKLAYER
  6
CONTINUOUS
 62
     4
 10
81.0000000
 20
-131.0000000
 30
0.0
 11
81.0000000
 21
-115.0000000
 31
0.0
 62
     4
  0
LINE
  8
WORKLAYER
  6
CONTINUOUS
 62
     4
 10
79.0000000
 20
-113.0000000
 30
0.0
 11
0.0000000
 21
-113.0000000
 31
0.0
 62
     4
  0
LINE
  8
WORKLAYER
  6
CONTINUOUS
 62
     4
 10
0.0000000
 20
-113.0000000
 30
0.0
 11
-79.0000000
 21
-113.0000000
 31
0.0
 62
     4
  0
LINE
  8
WORKLAYER
  6
CONTINUOUS
 62
     4
 10
-81.0000000
 20
-115.0000000
 30
0.0
 11
-81.0000000
 21
-131.0000000
 31
0.0
 62
     4
  0
LINE
  8
WORKLAYER
  6
CONTINUOUS
 62
     4
 10
-79.0000000
 20
-133.0000000
 30
0.0
 11
0.0000000
 21
-133.0000000
 31
0.0
 62
     4
  0
LINE
  8
WORKLAYER
  6
CONTINUOUS
 62
     4
 10
0.0000000
 20
-133.0000000
 30
0.0
 11
79.0000000
 21
-133.0000000
 31
0.0
 62
     4
  0
ARC
  8
WORKLAYER
  6
CONTINUOUS
 62
     4
 10
-52.2370872
 20
-138.0000000
 30
0.0
 40
5.0000000
 50
24.1607094
 51
30.2992706
  0
ARC
  8
WORKLAYER
  6
CONTINUOUS
 62
     4
 10
52.2371025
 20
-138.0000000
 30
0.0
 40
5.0000000
 50
149.7010956
 51
155.8394012
  0
ARC
  8
WORKLAYER
  6
CONTINUOUS
 62
     4
 10
79.0000000
 20
-115.0000000
 30
0.0
 40
2.0000000
 50
0.0000000
 51
90.0000000
  0
ARC
  8
WORKLAYER
  6
CONTINUOUS
 62
     4
 10
79.0000000
 20
-131.0000000
 30
0.0
 40
2.0000000
 50
270.0000000
 51
0.0000000
  0
ARC
  8
WORKLAYER
  6
CONTINUOUS
 62
     4
 10
-79.0000000
 20
-131.0000000
 30
0.0
 40
2.0000000
 50
180.0000000
 51
270.0000000
  0
ARC
  8
WORKLAYER
  6
CONTINUOUS
 62
     4
 10
-79.0000000
 20
-115.0000000
 30
0.0
 40
2.0000000
 50
90.0000000
 51
180.0000000
  0
LINE
  8
WORKLAYER
  6
CONTINUOUS
 62
     4
 10
53.0000038
 20
-111.0000000
 30
0.0
 11
6.0000000
 21
-111.0000000
 31
0.0
 62
     4
  0
LINE
  8
WORKLAYER
  6
CONTINUOUS
 62
     4
 10
-6.0000000
 20
-111.0000000
 30
0.0
 11
-52.8897285
 21
-111.0000000
 31
0.0
 62
     4
  0
LINE
  8
WORKLAYER
  6
CONTINUOUS
 62
     4
 10
46.1893005
 20
-200.0039978
 30
0.0
 11
40.9378014
 21
-188.0000000
 31
0.0
 62
     4
  0
LINE
  8
WORKLAYER
  6
CONTINUOUS
 62
     4
 10
42.2711029
 20
-148.0000000
 30
0.0
 11
47.6750908
 21
-135.9535980
 31
0.0
 62
     4
  0
LINE
  8
WORKLAYER
  6
CONTINUOUS
 62
     4
 10
-40.9378090
 20
-188.0000000
 30
0.0
 11
-42.2710876
 21
-148.0000000
 31
0.0
 62
     4
  0
LINE
  8
WORKLAYER
  6
CONTINUOUS
 62
     4
 10
40.9378014
 20
-188.0000000
 30
0.0
 11
42.2711029
 21
-148.0000000
 31
0.0
 62
     4
  0
LINE
  8
WORKLAYER
  6
CONTINUOUS
 62
     4
 10
-47.6751060
 20
-135.9535980
 30
0.0
 11
-42.2710876
 21
-148.0000000
 31
0.0
 62
     4
  0
LINE
  8
WORKLAYER
  6
CONTINUOUS
 62
     4
 10
-46.1892967
 20
-200.0039978
 30
0.0
 11
-40.9378090
 21
-188.0000000
 31
0.0
 62
     4
  0
LINE
  8
WORKLAYER
  6
CENTER
 62
     2
 10
-70.0000000
 20
-228.0000000
 30
0.0
 11
-70.0000000
 21
-200.0000000
 31
0.0
 62
     2
  0
LINE
  8
WORKLAYER
  6
CENTER
 62
     2
 10
70.0000000
 20
-228.0000000
 30
0.0
 11
70.0000000
 21
-200.0000000
 31
0.0
 62
     2
  0
ENDBLK
  0
BLOCK
  8
WORKLAYER
  2
DXF202
 70
    64
 10
0.0
 20
0.0
 30
0.0
  3
DXF202
  0
LINE
  8
WORKLAYER
  6
CONTINUOUS
 62
     4
 10
-16.9998779
 20
172.0000000
 30
0.0
 11
-12.1878576
 21
172.0000000
 31
0.0
 62
     4
  0
LINE
  8
WORKLAYER
  6
CONTINUOUS
 62
     4
 10
12.1881123
 20
172.0000000
 30
0.0
 11
17.0001221
 21
172.0000000
 31
0.0
 62
     4
  0
LINE
  8
WORKLAYER
  6
CONTINUOUS
 62
     4
 10
17.0001221
 20
172.0000000
 30
0.0
 11
17.0001221
 21
174.0000000
 31
0.0
 62
     4
  0
LINE
  8
WORKLAYER
  6
CONTINUOUS
 62
     4
 10
17.0001221
 20
174.0000000
 30
0.0
 11
0.0000000
 21
174.0000000
 31
0.0
 62
     4
  0
LINE
  8
WORKLAYER
  6
CONTINUOUS
 62
     4
 10
0.0000000
 20
174.0000000
 30
0.0
 11
-16.9998779
 21
174.0000000
 31
0.0
 62
     4
  0
LINE
  8
WORKLAYER
  6
CONTINUOUS
 62
     4
 10
-16.9998779
 20
174.0000000
 30
0.0
 11
-16.9998779
 21
172.0000000
 31
0.0
 62
     4
  0
LINE
  8
WORKLAYER
  6
CONTINUOUS
 62
     4
 10
-12.1878576
 20
174.0000000
 30
0.0
 11
-12.1878576
 21
172.0000000
 31
0.0
 62
     4
  0
LINE
  8
WORKLAYER
  6
CONTINUOUS
 62
     4
 10
12.1881123
 20
174.0000000
 30
0.0
 11
12.1881123
 21
172.0000000
 31
0.0
 62
     4
  0
ENDBLK
  0
BLOCK
  8
WORKLAYER
  2
DXF203
 70
    64
 10
0.0
 20
0.0
 30
0.0
  3
DXF203
  0
LINE
  8
WORKLAYER
  6
CONTINUOUS
 62
     4
 10
-11.4998779
 20
183.5000000
 30
0.0
 11
0.0000000
 21
183.5000000
 31
0.0
 62
     4
  0
LINE
  8
WORKLAYER
  6
CONTINUOUS
 62
     4
 10
0.0000000
 20
183.5000000
 30
0.0
 11
11.5001221
 21
183.5000000
 31
0.0
 62
     4
  0
LINE
  8
WORKLAYER
  6
CONTINUOUS
 62
     4
 10
-11.9998779
 20
178.5000000
 30
0.0
 11
0.0000000
 21
178.5000000
 31
0.0
 62
     4
  0
LINE
  8
WORKLAYER
  6
CONTINUOUS
 62
     4
 10
0.0000000
 20
178.5000000
 30
0.0
 11
12.0001221
 21
178.5000000
 31
0.0
 62
     4
  0
LINE
  8
WORKLAYER
  6
CONTINUOUS
 62
     4
 10
-11.9998779
 20
178.5000000
 30
0.0
 11
-12.9998779
 21
177.5000000
 31
0.0
 62
     4
  0
LINE
  8
WORKLAYER
  6
CONTINUOUS
 62
     4
 10
-12.9998779
 20
177.5000000
 30
0.0
 11
-12.9998779
 21
174.0000000
 31
0.0
 62
     4
  0
LINE
  8
WORKLAYER
  6
CONTINUOUS
 62
     4
 10
13.0001221
 20
177.5000000
 30
0.0
 11
13.0001221
 21
174.0000000
 31
0.0
 62
     4
  0
LINE
  8
WORKLAYER
  6
CONTINUOUS
 62
     4
 10
13.0001221
 20
177.5000000
 30
0.0
 11
12.0001221
 21
178.5000000
 31
0.0
 62
     4
  0
LINE
  8
WORKLAYER
  6
CONTINUOUS
 62
     2
 10
-12.1878576
 20
178.5000000
 30
0.0
 11
-12.1878576
 21
174.0000000
 31
0.0
 62
     2
  0
LINE
  8
WORKLAYER
  6
CONTINUOUS
 62
     2
 10
12.1881123
 20
178.5000000
 30
0.0
 11
12.1881123
 21
174.0000000
 31
0.0
 62
     2
  0
LINE
  8
WORKLAYER
  6
CONTINUOUS
 62
     4
 10
11.5001221
 20
183.5000000
 30
0.0
 11
11.5001221
 21
178.5000000
 31
0.0
 62
     4
  0
LINE
  8
WORKLAYER
  6
CONTINUOUS
 62
     4
 10
-11.4998779
 20
183.5000000
 30
0.0
 11
-11.4998779
 21
178.5000000
 31
0.0
 62
     4
  0
ENDBLK
  0
BLOCK
  8
WORKLAYER
  2
DXF204
 70
    64
 10
0.0
 20
0.0
 30
0.0
  3
DXF204
  0
LINE
  8
WORKLAYER
  6
CONTINUOUS
 62
     4
 10
5.0001259
 20
183.5000000
 30
0.0
 11
5.0001259
 21
185.0144043
 31
0.0
 62
     4
  0
LINE
  8
WORKLAYER
  6
CONTINUOUS
 62
     4
 10
-4.9998741
 20
185.0144043
 30
0.0
 11
-4.9998741
 21
183.5000000
 31
0.0
 62
     4
  0
LINE
  8
WORKLAYER
  6
CONTINUOUS
 62
     4
 10
-3.9998739
 20
188.7463989
 30
0.0
 11
-4.9998741
 21
185.0144043
 31
0.0
 62
     4
  0
LINE
  8
WORKLAYER
  6
CONTINUOUS
 62
     4
 10
4.0001259
 20
188.7463989
 30
0.0
 11
5.0001259
 21
185.0144043
 31
0.0
 62
     4
  0
LINE
  8
WORKLAYER
  6
CONTINUOUS
 62
     2
 10
4.0001259
 20
188.7463989
 30
0.0
 11
-3.9998739
 21
188.7463989
 31
0.0
 62
     2
  0
LINE
  8
WORKLAYER
  6
CONTINUOUS
 62
     2
 10
4.0001259
 20
191.7463989
 30
0.0
 11
-3.9998739
 21
191.7463989
 31
0.0
 62
     2
  0
LINE
  8
WORKLAYER
  6
CONTINUOUS
 62
     4
 10
-3.9998739
 20
200.2429962
 30
0.0
 11
-3.9998739
 21
188.7463989
 31
0.0
 62
     4
  0
LINE
  8
WORKLAYER
  6
CONTINUOUS
 62
     4
 10
4.0001259
 20
188.7463989
 30
0.0
 11
4.0001259
 21
200.2429962
 31
0.0
 62
     4
  0
LINE
  8
WORKLAYER
  6
CONTINUOUS
 62
     2
 10
-4.9998741
 20
185.0144043
 30
0.0
 11
5.0001259
 21
185.0144043
 31
0.0
 62
     2
  0
LINE
  8
WORKLAYER
  6
CONTINUOUS
 62
     2
 10
-3.9998739
 20
190.0144043
 30
0.0
 11
-2.9998739
 21
191.7463989
 31
0.0
 62
     2
  0
LINE
  8
WORKLAYER
  6
CONTINUOUS
 62
     2
 10
4.0001259
 20
190.0144043
 30
0.0
 11
3.0001261
 21
191.7463989
 31
0.0
 62
     2
  0
LINE
  8
WORKLAYER
  6
CONTINUOUS
 62
     2
 10
-2.9998739
 20
200.2429962
 30
0.0
 11
-2.9998739
 21
191.7463989
 31
0.0
 62
     2
  0
LINE
  8
WORKLAYER
  6
CONTINUOUS
 62
     2
 10
3.0001261
 20
191.7463989
 30
0.0
 11
3.0001261
 21
200.2429962
 31
0.0
 62
     2
  0
ENDBLK
  0
BLOCK
  8
WORKLAYER
  2
DXF205
 70
    64
 10
0.0
 20
0.0
 30
0.0
  3
DXF205
  0
LINE
  8
WORKLAYER
  6
CONTINUOUS
 62
     4
 10
293.0001221
 20
172.0000000
 30
0.0
 11
297.8121338
 21
172.0000000
 31
0.0
 62
     4
  0
LINE
  8
WORKLAYER
  6
CONTINUOUS
 62
     4
 10
322.1881104
 20
172.0000000
 30
0.0
 11
327.0001221
 21
172.0000000
 31
0.0
 62
     4
  0
LINE
  8
WORKLAYER
  6
CONTINUOUS
 62
     4
 10
327.0001221
 20
172.0000000
 30
0.0
 11
327.0001221
 21
174.0000000
 31
0.0
 62
     4
  0
LINE
  8
WORKLAYER
  6
CONTINUOUS
 62
     4
 10
327.0001221
 20
174.0000000
 30
0.0
 11
310.0000305
 21
174.0000000
 31
0.0
 62
     4
  0
LINE
  8
WORKLAYER
  6
CONTINUOUS
 62
     4
 10
310.0000305
 20
174.0000000
 30
0.0
 11
293.0001221
 21
174.0000000
 31
0.0
 62
     4
  0
LINE
  8
WORKLAYER
  6
CONTINUOUS
 62
     4
 10
293.0001221
 20
174.0000000
 30
0.0
 11
293.0001221
 21
172.0000000
 31
0.0
 62
     4
  0
LINE
  8
WORKLAYER
  6
CONTINUOUS
 62
     4
 10
297.8121338
 20
174.0000000
 30
0.0
 11
297.8121338
 21
172.0000000
 31
0.0
 62
     4
  0
LINE
  8
WORKLAYER
  6
CONTINUOUS
 62
     4
 10
322.1881104
 20
174.0000000
 30
0.0
 11
322.1881104
 21
172.0000000
 31
0.0
 62
     4
  0
ENDBLK
  0
BLOCK
  8
WORKLAYER
  2
DXF206
 70
    64
 10
0.0
 20
0.0
 30
0.0
  3
DXF206
  0
LINE
  8
WORKLAYER
  6
CONTINUOUS
 62
     4
 10
298.5001221
 20
183.5000000
 30
0.0
 11
310.0000305
 21
183.5000000
 31
0.0
 62
     4
  0
LINE
  8
WORKLAYER
  6
CONTINUOUS
 62
     4
 10
310.0000305
 20
183.5000000
 30
0.0
 11
321.5001221
 21
183.5000000
 31
0.0
 62
     4
  0
LINE
  8
WORKLAYER
  6
CONTINUOUS
 62
     4
 10
298.0001221
 20
178.5000000
 30
0.0
 11
310.0001221
 21
178.5000000
 31
0.0
 62
     4
  0
LINE
  8
WORKLAYER
  6
CONTINUOUS
 62
     4
 10
310.0001221
 20
178.5000000
 30
0.0
 11
322.0001221
 21
178.5000000
 31
0.0
 62
     4
  0
LINE
  8
WORKLAYER
  6
CONTINUOUS
 62
     4
 10
298.0001221
 20
178.5000000
 30
0.0
 11
297.0001221
 21
177.5000000
 31
0.0
 62
     4
  0
LINE
  8
WORKLAYER
  6
CONTINUOUS
 62
     4
 10
297.0001221
 20
177.5000000
 30
0.0
 11
297.0001221
 21
174.0000000
 31
0.0
 62
     4
  0
LINE
  8
WORKLAYER
  6
CONTINUOUS
 62
     4
 10
323.0001221
 20
177.5000000
 30
0.0
 11
323.0001221
 21
174.0000000
 31
0.0
 62
     4
  0
LINE
  8
WORKLAYER
  6
CONTINUOUS
 62
     4
 10
323.0001221
 20
177.5000000
 30
0.0
 11
322.0001221
 21
178.5000000
 31
0.0
 62
     4
  0
LINE
  8
WORKLAYER
  6
CONTINUOUS
 62
     2
 10
297.8121338
 20
178.5000000
 30
0.0
 11
297.8121338
 21
174.0000000
 31
0.0
 62
     2
  0
LINE
  8
WORKLAYER
  6
CONTINUOUS
 62
     2
 10
322.1881104
 20
178.5000000
 30
0.0
 11
322.1881104
 21
174.0000000
 31
0.0
 62
     2
  0
LINE
  8
WORKLAYER
  6
CONTINUOUS
 62
     4
 10
321.5001221
 20
183.5000000
 30
0.0
 11
321.5001221
 21
178.5000000
 31
0.0
 62
     4
  0
LINE
  8
WORKLAYER
  6
CONTINUOUS
 62
     4
 10
298.5001221
 20
183.5000000
 30
0.0
 11
298.5001221
 21
178.5000000
 31
0.0
 62
     4
  0
ENDBLK
  0
BLOCK
  8
WORKLAYER
  2
DXF207
 70
    64
 10
0.0
 20
0.0
 30
0.0
  3
DXF207
  0
LINE
  8
WORKLAYER
  6
CONTINUOUS
 62
     4
 10
315.0001221
 20
183.5000000
 30
0.0
 11
315.0001221
 21
185.0144043
 31
0.0
 62
     4
  0
LINE
  8
WORKLAYER
  6
CONTINUOUS
 62
     4
 10
305.0001221
 20
185.0144043
 30
0.0
 11
305.0001221
 21
183.5000000
 31
0.0
 62
     4
  0
LINE
  8
WORKLAYER
  6
CONTINUOUS
 62
     4
 10
306.0001221
 20
188.7463989
 30
0.0
 11
305.0001221
 21
185.0144043
 31
0.0
 62
     4
  0
LINE
  8
WORKLAYER
  6
CONTINUOUS
 62
     4
 10
314.0001221
 20
188.7463989
 30
0.0
 11
315.0001221
 21
185.0144043
 31
0.0
 62
     4
  0
LINE
  8
WORKLAYER
  6
CONTINUOUS
 62
     2
 10
314.0001221
 20
188.7463989
 30
0.0
 11
306.0001221
 21
188.7463989
 31
0.0
 62
     2
  0
LINE
  8
WORKLAYER
  6
CONTINUOUS
 62
     2
 10
314.0001221
 20
191.7463989
 30
0.0
 11
306.0001221
 21
191.7463989
 31
0.0
 62
     2
  0
LINE
  8
WORKLAYER
  6
CONTINUOUS
 62
     4
 10
306.0001221
 20
200.2429962
 30
0.0
 11
306.0001221
 21
188.7463989
 31
0.0
 62
     4
  0
LINE
  8
WORKLAYER
  6
CONTINUOUS
 62
     4
 10
314.0001221
 20
188.7463989
 30
0.0
 11
314.0001221
 21
200.2429962
 31
0.0
 62
     4
  0
LINE
  8
WORKLAYER
  6
CONTINUOUS
 62
     2
 10
305.0001221
 20
185.0144043
 30
0.0
 11
315.0001221
 21
185.0144043
 31
0.0
 62
     2
  0
LINE
  8
WORKLAYER
  6
CONTINUOUS
 62
     2
 10
306.0001221
 20
190.0144043
 30
0.0
 11
307.0001221
 21
191.7463989
 31
0.0
 62
     2
  0
LINE
  8
WORKLAYER
  6
CONTINUOUS
 62
     2
 10
314.0001221
 20
190.0144043
 30
0.0
 11
313.0001221
 21
191.7463989
 31
0.0
 62
     2
  0
LINE
  8
WORKLAYER
  6
CONTINUOUS
 62
     2
 10
307.0001221
 20
200.2429962
 30
0.0
 11
307.0001221
 21
191.7463989
 31
0.0
 62
     2
  0
LINE
  8
WORKLAYER
  6
CONTINUOUS
 62
     2
 10
313.0001221
 20
191.7463989
 30
0.0
 11
313.0001221
 21
200.2429962
 31
0.0
 62
     2
  0
ENDBLK
  0
BLOCK
  8
0
  2
DXF208
 70
    64
 10
0.0
 20
0.0
 30
0.0
  3
DXF208
  0
LINE
  8
0
  6
CONTINUOUS
 62
     4
 10
-49.3897285
 20
-141.0000000
 30
0.0
 11
-47.9200783
 21
-140.1515045
 31
0.0
 62
     4
  0
LINE
  8
0
  6
CONTINUOUS
 62
     4
 10
-52.8897285
 20
-113.0000000
 30
0.0
 11
-52.8897285
 21
-108.0000000
 31
0.0
 62
     4
  0
LINE
  8
0
  6
CONTINUOUS
 62
     4
 10
-64.8897247
 20
-113.0000000
 30
0.0
 11
-64.8897247
 21
-108.0000000
 31
0.0
 62
     4
  0
LINE
  8
0
  6
CONTINUOUS
 62
     4
 10
-69.8593750
 20
-133.0000000
 30
0.0
 11
-47.9200783
 21
-133.0000000
 31
0.0
 62
     4
  0
LINE
  8
0
  6
CONTINUOUS
 62
     4
 10
-68.3897095
 20
-141.0000000
 30
0.0
 11
-49.3897285
 21
-141.0000000
 31
0.0
 62
     4
  0
LINE
  8
0
  6
CONTINUOUS
 62
     4
 10
-47.9200783
 20
-140.1515045
 30
0.0
 11
-47.9200783
 21
-133.0000000
 31
0.0
 62
     4
  0
LINE
  8
0
  6
CONTINUOUS
 62
     4
 10
-69.8593750
 20
-140.1515045
 30
0.0
 11
-69.8593750
 21
-133.0000000
 31
0.0
 62
     4
  0
LINE
  8
0
  6
CONTINUOUS
 62
     4
 10
-68.3897247
 20
-141.0000000
 30
0.0
 11
-69.8593750
 21
-140.1515045
 31
0.0
 62
     4
  0
ARC
  8
0
  6
CONTINUOUS
 62
     4
 10
-58.8897285
 20
-124.5455017
 30
0.0
 40
16.4544792
 50
250.5287933
 51
289.4711914
  0
LINE
  8
0
  6
CONTINUOUS
 62
     4
 10
-64.3745346
 20
-140.0588989
 30
0.0
 11
-64.3745346
 21
-133.0000000
 31
0.0
 62
     4
  0
LINE
  8
0
  6
CONTINUOUS
 62
     4
 10
-53.4048996
 20
-140.0588989
 30
0.0
 11
-53.4048996
 21
-133.0000000
 31
0.0
 62
     4
  0
ARC
  8
0
  6
CONTINUOUS
 62
     4
 10
-68.3897095
 20
-131.9636993
 30
0.0
 40
9.0363007
 50
270.0000000
 51
296.3810120
  0
ARC
  8
0
  6
CONTINUOUS
 62
     4
 10
-49.3897285
 20
-131.9636993
 30
0.0
 40
9.0363007
 50
243.6190033
 51
270.0000000
  0
ENDBLK
  0
BLOCK
  8
0
  2
DXF209
 70
    64
 10
0.0
 20
0.0
 30
0.0
  3
DXF209
  0
LINE
  8
0
  6
CONTINUOUS
 62
     4
 10
-9.5000000
 20
-141.0000000
 30
0.0
 11
-10.9696484
 21
-140.1515045
 31
0.0
 62
     4
  0
LINE
  8
0
  6
CONTINUOUS
 62
     4
 10
-6.0000000
 20
-113.0000000
 30
0.0
 11
-6.0000000
 21
-108.0000000
 31
0.0
 62
     4
  0
LINE
  8
0
  6
CONTINUOUS
 62
     4
 10
6.0000000
 20
-113.0000000
 30
0.0
 11
6.0000000
 21
-108.0000000
 31
0.0
 62
     4
  0
LINE
  8
0
  6
CONTINUOUS
 62
     4
 10
10.9696522
 20
-133.0000000
 30
0.0
 11
-10.9696484
 21
-133.0000000
 31
0.0
 62
     4
  0
LINE
  8
0
  6
CONTINUOUS
 62
     4
 10
9.4999847
 20
-141.0000000
 30
0.0
 11
-9.5000000
 21
-141.0000000
 31
0.0
 62
     4
  0
LINE
  8
0
  6
CONTINUOUS
 62
     4
 10
-10.9696484
 20
-140.1515045
 30
0.0
 11
-10.9696484
 21
-133.0000000
 31
0.0
 62
     4
  0
LINE
  8
0
  6
CONTINUOUS
 62
     4
 10
10.9696522
 20
-140.1515045
 30
0.0
 11
10.9696522
 21
-133.0000000
 31
0.0
 62
     4
  0
LINE
  8
0
  6
CONTINUOUS
 62
     4
 10
9.5000000
 20
-141.0000000
 30
0.0
 11
10.9696522
 21
-140.1515045
 31
0.0
 62
     4
  0
ARC
  8
0
  6
CONTINUOUS
 62
     4
 10
0.0000000
 20
-124.5455017
 30
0.0
 40
16.4544792
 50
610.5288086
 51
289.4711914
  0
LINE
  8
0
  6
CONTINUOUS
 62
     4
 10
5.4848180
 20
-140.0588989
 30
0.0
 11
5.4848180
 21
-133.0000000
 31
0.0
 62
     4
  0
LINE
  8
0
  6
CONTINUOUS
 62
     4
 10
-5.4848328
 20
-140.0588989
 30
0.0
 11
-5.4848328
 21
-133.0000000
 31
0.0
 62
     4
  0
ARC
  8
0
  6
CONTINUOUS
 62
     4
 10
9.4999847
 20
-131.9636993
 30
0.0
 40
9.0363007
 50
603.6190186
 51
270.0000000
  0
ARC
  8
0
  6
CONTINUOUS
 62
     4
 10
-9.5000000
 20
-131.9636993
 30
0.0
 40
9.0363007
 50
270.0000000
 51
296.3810120
  0
ENDBLK
  0
BLOCK
  8
0
  2
DXF210
 70
    64
 10
0.0
 20
0.0
 30
0.0
  3
DXF210
  0
LINE
  8
0
  6
CONTINUOUS
 62
     4
 10
49.3897324
 20
-141.0000000
 30
0.0
 11
47.9200821
 21
-140.1515045
 31
0.0
 62
     4
  0
LINE
  8
0
  6
CONTINUOUS
 62
     4
 10
52.8897324
 20
-113.0000000
 30
0.0
 11
52.8897324
 21
-108.0000000
 31
0.0
 62
     4
  0
LINE
  8
0
  6
CONTINUOUS
 62
     4
 10
64.8897247
 20
-113.0000000
 30
0.0
 11
64.8897247
 21
-108.0000000
 31
0.0
 62
     4
  0
LINE
  8
0
  6
CONTINUOUS
 62
     4
 10
69.8593750
 20
-133.0000000
 30
0.0
 11
47.9200821
 21
-133.0000000
 31
0.0
 62
     4
  0
LINE
  8
0
  6
CONTINUOUS
 62
     4
 10
68.3897095
 20
-141.0000000
 30
0.0
 11
49.3897324
 21
-141.0000000
 31
0.0
 62
     4
  0
LINE
  8
0
  6
CONTINUOUS
 62
     4
 10
47.9200821
 20
-140.1515045
 30
0.0
 11
47.9200821
 21
-133.0000000
 31
0.0
 62
     4
  0
LINE
  8
0
  6
CONTINUOUS
 62
     4
 10
69.8593750
 20
-140.1515045
 30
0.0
 11
69.8593750
 21
-133.0000000
 31
0.0
 62
     4
  0
LINE
  8
0
  6
CONTINUOUS
 62
     4
 10
68.3897247
 20
-141.0000000
 30
0.0
 11
69.8593750
 21
-140.1515045
 31
0.0
 62
     4
  0
ARC
  8
0
  6
CONTINUOUS
 62
     4
 10
58.8897324
 20
-124.5455017
 30
0.0
 40
16.4544792
 50
610.5288086
 51
289.4711914
  0
LINE
  8
0
  6
CONTINUOUS
 62
     4
 10
64.3745422
 20
-140.0588989
 30
0.0
 11
64.3745422
 21
-133.0000000
 31
0.0
 62
     4
  0
LINE
  8
0
  6
CONTINUOUS
 62
     4
 10
53.4048920
 20
-140.0588989
 30
0.0
 11
53.4048920
 21
-133.0000000
 31
0.0
 62
     4
  0
ARC
  8
0
  6
CONTINUOUS
 62
     4
 10
68.3897095
 20
-131.9636993
 30
0.0
 40
9.0363007
 50
603.6190186
 51
270.0000000
  0
ARC
  8
0
  6
CONTINUOUS
 62
     4
 10
49.3897324
 20
-131.9636993
 30
0.0
 40
9.0363007
 50
270.0000000
 51
296.3810120
  0
ENDBLK
  0
BLOCK
  8
0
  2
DXF211
 70
    64
 10
0.0
 20
0.0
 30
0.0
  3
DXF211
  0
LINE
  8
0
  6
CONTINUOUS
 62
     4
 10
368.5001221
 20
-141.0000000
 30
0.0
 11
367.0304260
 21
-140.1515045
 31
0.0
 62
     4
  0
LINE
  8
0
  6
CONTINUOUS
 62
     4
 10
372.0001221
 20
-113.0000000
 30
0.0
 11
372.0001221
 21
-108.0000000
 31
0.0
 62
     4
  0
LINE
  8
0
  6
CONTINUOUS
 62
     4
 10
384.0001221
 20
-113.0000000
 30
0.0
 11
384.0001221
 21
-108.0000000
 31
0.0
 62
     4
  0
LINE
  8
0
  6
CONTINUOUS
 62
     4
 10
388.9698181
 20
-133.0000000
 30
0.0
 11
367.0304260
 21
-133.0000000
 31
0.0
 62
     4
  0
LINE
  8
0
  6
CONTINUOUS
 62
     4
 10
387.5001221
 20
-141.0000000
 30
0.0
 11
368.5001221
 21
-141.0000000
 31
0.0
 62
     4
  0
LINE
  8
0
  6
CONTINUOUS
 62
     4
 10
367.0304260
 20
-140.1515045
 30
0.0
 11
367.0304260
 21
-133.0000000
 31
0.0
 62
     4
  0
LINE
  8
0
  6
CONTINUOUS
 62
     4
 10
388.9698181
 20
-140.1515045
 30
0.0
 11
388.9698181
 21
-133.0000000
 31
0.0
 62
     4
  0
LINE
  8
0
  6
CONTINUOUS
 62
     4
 10
387.5001221
 20
-141.0000000
 30
0.0
 11
388.9698181
 21
-140.1515045
 31
0.0
 62
     4
  0
ARC
  8
0
  6
CONTINUOUS
 62
     4
 10
378.0001221
 20
-124.5455017
 30
0.0
 40
16.4544792
 50
610.5288086
 51
289.4711914
  0
LINE
  8
0
  6
CONTINUOUS
 62
     4
 10
383.4849243
 20
-140.0588989
 30
0.0
 11
383.4849243
 21
-133.0000000
 31
0.0
 62
     4
  0
LINE
  8
0
  6
CONTINUOUS
 62
     4
 10
372.5153198
 20
-140.0588989
 30
0.0
 11
372.5153198
 21
-133.0000000
 31
0.0
 62
     4
  0
ARC
  8
0
  6
CONTINUOUS
 62
     4
 10
387.5001221
 20
-131.9636993
 30
0.0
 40
9.0363007
 50
603.6190186
 51
270.0000000
  0
ARC
  8
0
  6
CONTINUOUS
 62
     4
 10
368.5001221
 20
-131.9636993
 30
0.0
 40
9.0363007
 50
270.0000000
 51
296.3810120
  0
ENDBLK
  0
BLOCK
  8
0
  2
DXF212
 70
    64
 10
0.0
 20
0.0
 30
0.0
  3
DXF212
  0
LINE
  8
0
  6
CONTINUOUS
 62
     4
 10
334.5001221
 20
-141.0000000
 30
0.0
 11
333.0304260
 21
-140.1515045
 31
0.0
 62
     4
  0
LINE
  8
0
  6
CONTINUOUS
 62
     4
 10
338.0001221
 20
-113.0000000
 30
0.0
 11
338.0001221
 21
-108.0000000
 31
0.0
 62
     4
  0
LINE
  8
0
  6
CONTINUOUS
 62
     4
 10
350.0001221
 20
-113.0000000
 30
0.0
 11
350.0001221
 21
-108.0000000
 31
0.0
 62
     4
  0
LINE
  8
0
  6
CONTINUOUS
 62
     4
 10
354.9698181
 20
-133.0000000
 30
0.0
 11
333.0304260
 21
-133.0000000
 31
0.0
 62
     4
  0
LINE
  8
0
  6
CONTINUOUS
 62
     4
 10
353.5001221
 20
-141.0000000
 30
0.0
 11
334.5001221
 21
-141.0000000
 31
0.0
 62
     4
  0
LINE
  8
0
  6
CONTINUOUS
 62
     4
 10
333.0304260
 20
-140.1515045
 30
0.0
 11
333.0304260
 21
-133.0000000
 31
0.0
 62
     4
  0
LINE
  8
0
  6
CONTINUOUS
 62
     4
 10
354.9698181
 20
-140.1515045
 30
0.0
 11
354.9698181
 21
-133.0000000
 31
0.0
 62
     4
  0
LINE
  8
0
  6
CONTINUOUS
 62
     4
 10
353.5001221
 20
-141.0000000
 30
0.0
 11
354.9698181
 21
-140.1515045
 31
0.0
 62
     4
  0
ARC
  8
0
  6
CONTINUOUS
 62
     4
 10
344.0001221
 20
-124.5455017
 30
0.0
 40
16.4544792
 50
610.5288086
 51
289.4711914
  0
LINE
  8
0
  6
CONTINUOUS
 62
     4
 10
349.4849243
 20
-140.0588989
 30
0.0
 11
349.4849243
 21
-133.0000000
 31
0.0
 62
     4
  0
LINE
  8
0
  6
CONTINUOUS
 62
     4
 10
338.5153198
 20
-140.0588989
 30
0.0
 11
338.5153198
 21
-133.0000000
 31
0.0
 62
     4
  0
ARC
  8
0
  6
CONTINUOUS
 62
     4
 10
353.5001221
 20
-131.9636993
 30
0.0
 40
9.0363007
 50
603.6190186
 51
270.0000000
  0
ARC
  8
0
  6
CONTINUOUS
 62
     4
 10
334.5001221
 20
-131.9636993
 30
0.0
 40
9.0363007
 50
270.0000000
 51
296.3810120
  0
ENDBLK
  0
BLOCK
  8
0
  2
DXF213
 70
    64
 10
0.0
 20
0.0
 30
0.0
  3
DXF213
  0
LINE
  8
0
  6
CONTINUOUS
 62
     4
 10
251.5001221
 20
-141.0000000
 30
0.0
 11
252.9698181
 21
-140.1515045
 31
0.0
 62
     4
  0
LINE
  8
0
  6
CONTINUOUS
 62
     4
 10
248.0001221
 20
-113.0000000
 30
0.0
 11
248.0001221
 21
-108.0000000
 31
0.0
 62
     4
  0
LINE
  8
0
  6
CONTINUOUS
 62
     4
 10
236.0001221
 20
-113.0000000
 30
0.0
 11
236.0001221
 21
-108.0000000
 31
0.0
 62
     4
  0
LINE
  8
0
  6
CONTINUOUS
 62
     4
 10
231.0304260
 20
-133.0000000
 30
0.0
 11
252.9698181
 21
-133.0000000
 31
0.0
 62
     4
  0
LINE
  8
0
  6
CONTINUOUS
 62
     4
 10
232.5001221
 20
-141.0000000
 30
0.0
 11
251.5001221
 21
-141.0000000
 31
0.0
 62
     4
  0
LINE
  8
0
  6
CONTINUOUS
 62
     4
 10
252.9698181
 20
-140.1515045
 30
0.0
 11
252.9698181
 21
-133.0000000
 31
0.0
 62
     4
  0
LINE
  8
0
  6
CONTINUOUS
 62
     4
 10
231.0304260
 20
-140.1515045
 30
0.0
 11
231.0304260
 21
-133.0000000
 31
0.0
 62
     4
  0
LINE
  8
0
  6
CONTINUOUS
 62
     4
 10
232.5001221
 20
-141.0000000
 30
0.0
 11
231.0304260
 21
-140.1515045
 31
0.0
 62
     4
  0
ARC
  8
0
  6
CONTINUOUS
 62
     4
 10
242.0001221
 20
-124.5455017
 30
0.0
 40
16.4544792
 50
250.5287933
 51
289.4711914
  0
LINE
  8
0
  6
CONTINUOUS
 62
     4
 10
236.5153198
 20
-140.0588989
 30
0.0
 11
236.5153198
 21
-133.0000000
 31
0.0
 62
     4
  0
LINE
  8
0
  6
CONTINUOUS
 62
     4
 10
247.4849243
 20
-140.0588989
 30
0.0
 11
247.4849243
 21
-133.0000000
 31
0.0
 62
     4
  0
ARC
  8
0
  6
CONTINUOUS
 62
     4
 10
232.5001221
 20
-131.9636993
 30
0.0
 40
9.0363007
 50
270.0000000
 51
296.3810120
  0
ARC
  8
0
  6
CONTINUOUS
 62
     4
 10
251.5001221
 20
-131.9636993
 30
0.0
 40
9.0363007
 50
243.6190033
 51
270.0000000
  0
ENDBLK
  0
BLOCK
  8
0
  2
DXF214
 70
    64
 10
0.0
 20
0.0
 30
0.0
  3
DXF214
  0
LINE
  8
0
  6
CONTINUOUS
 62
     4
 10
285.5001221
 20
-141.0000000
 30
0.0
 11
286.9698181
 21
-140.1515045
 31
0.0
 62
     4
  0
LINE
  8
0
  6
CONTINUOUS
 62
     4
 10
282.0001221
 20
-113.0000000
 30
0.0
 11
282.0001221
 21
-108.0000000
 31
0.0
 62
     4
  0
LINE
  8
0
  6
CONTINUOUS
 62
     4
 10
270.0001221
 20
-113.0000000
 30
0.0
 11
270.0001221
 21
-108.0000000
 31
0.0
 62
     4
  0
LINE
  8
0
  6
CONTINUOUS
 62
     4
 10
265.0304260
 20
-133.0000000
 30
0.0
 11
286.9698181
 21
-133.0000000
 31
0.0
 62
     4
  0
LINE
  8
0
  6
CONTINUOUS
 62
     4
 10
266.5001221
 20
-141.0000000
 30
0.0
 11
285.5001221
 21
-141.0000000
 31
0.0
 62
     4
  0
LINE
  8
0
  6
CONTINUOUS
 62
     4
 10
286.9698181
 20
-140.1515045
 30
0.0
 11
286.9698181
 21
-133.0000000
 31
0.0
 62
     4
  0
LINE
  8
0
  6
CONTINUOUS
 62
     4
 10
265.0304260
 20
-140.1515045
 30
0.0
 11
265.0304260
 21
-133.0000000
 31
0.0
 62
     4
  0
LINE
  8
0
  6
CONTINUOUS
 62
     4
 10
266.5001221
 20
-141.0000000
 30
0.0
 11
265.0304260
 21
-140.1515045
 31
0.0
 62
     4
  0
ARC
  8
0
  6
CONTINUOUS
 62
     4
 10
276.0001221
 20
-124.5455017
 30
0.0
 40
16.4544792
 50
250.5287933
 51
289.4711914
  0
LINE
  8
0
  6
CONTINUOUS
 62
     4
 10
270.5153198
 20
-140.0588989
 30
0.0
 11
270.5153198
 21
-133.0000000
 31
0.0
 62
     4
  0
LINE
  8
0
  6
CONTINUOUS
 62
     4
 10
281.4849243
 20
-140.0588989
 30
0.0
 11
281.4849243
 21
-133.0000000
 31
0.0
 62
     4
  0
ARC
  8
0
  6
CONTINUOUS
 62
     4
 10
266.5001221
 20
-131.9636993
 30
0.0
 40
9.0363007
 50
270.0000000
 51
296.3810120
  0
ARC
  8
0
  6
CONTINUOUS
 62
     4
 10
285.5001221
 20
-131.9636993
 30
0.0
 40
9.0363007
 50
243.6190033
 51
270.0000000
  0
ENDBLK
  0
ENDSEC
  0
SECTION
  2
ENTITIES
  0
INSERT
  8
WORKLAYER
  2
DXF1
 10
0.0
 20
0.0
 30
0.0
  0
LINE
  8
WORKLAYER
  6
CONTINUOUS
 62
     4
 10
363.0001221
 20
-111.0000000
 30
0.0
 11
363.0001221
 21
-108.0000000
 31
0.0
 62
     4
  0
INSERT
  8
WORKLAYER
  2
DXF3
 10
0.0
 20
0.0
 30
0.0
  0
INSERT
  8
WORKLAYER
  2
DXF4
 10
0.0
 20
0.0
 30
0.0
  0
INSERT
  8
WORKLAYER
  2
DXF5
 10
0.0
 20
0.0
 30
0.0
  0
LINE
  8
WORKLAYER
  6
CONTINUOUS
 62
     4
 10
310.0001221
 20
220.0072937
 30
0.0
 11
310.0001221
 21
200.2429962
 31
0.0
 62
     4
  0
INSERT
  8
WORKLAYER
  2
DXF7
 10
0.0
 20
0.0
 30
0.0
  0
INSERT
  8
WORKLAYER
  2
DXF8
 10
0.0
 20
0.0
 30
0.0
  0
INSERT
  8
WORKLAYER
  2
DXF9
 10
0.0
 20
0.0
 30
0.0
  0
INSERT
  8
AREA
  2
DXF10
 10
0.0
 20
0.0
 30
0.0
  0
LINE
  8
AREA
  6
CONTINUOUS
 62
     4
 10
293.6001282
 20
172.0000000
 30
0.0
 11
310.0001221
 21
172.0000000
 31
0.0
 62
     4
  0
LINE
  8
AREA
  6
CONTINUOUS
 62
     4
 10
287.0001221
 20
140.0000000
 30
0.0
 11
310.0001221
 21
140.0000000
 31
0.0
 62
     4
  0
INSERT
  8
AREA
  2
DXF13
 10
0.0
 20
0.0
 30
0.0
  0
LINE
  8
AREA
  6
CONTINUOUS
 62
     4
 10
292.6001282
 20
153.5000000
 30
0.0
 11
294.0698242
 21
146.3000031
 31
0.0
 62
     4
  0
LINE
  8
AREA
  6
CONTINUOUS
 62
     4
 10
287.0001221
 20
140.0000000
 30
0.0
 11
287.0001221
 21
115.3849030
 31
0.0
 62
     4
  0
ARC
  8
AREA
  6
CONTINUOUS
 62
     4
 10
292.6001282
 20
146.0000000
 30
0.0
 40
1.5000000
 50
270.0000000
 51
371.5364990
  0
LINE
  8
AREA
  6
CONTINUOUS
 62
     4
 10
292.6001282
 20
144.5000000
 30
0.0
 11
292.6001282
 21
140.0000000
 31
0.0
 62
     4
  0
LINE
  8
AREA
  6
CONTINUOUS
 62
     4
 10
292.6001282
 20
171.0000000
 30
0.0
 11
310.0001221
 21
171.0000000
 31
0.0
 62
     4
  0
LINE
  8
AREA
  6
CONTINUOUS
 62
     4
 10
292.6001282
 20
153.5000000
 30
0.0
 11
310.0001221
 21
153.5000000
 31
0.0
 62
     4
  0
INSERT
  8
AREA
  2
DXF20
 10
0.0
 20
0.0
 30
0.0
  0
LINE
  8
AREA
  6
CONTINUOUS
 62
     4
 10
292.6001282
 20
144.5000000
 30
0.0
 11
310.0001221
 21
144.5000000
 31
0.0
 62
     4
  0
INSERT
  8
WORKLAYER
  2
DXF22
 10
0.0
 20
0.0
 30
0.0
  0
CIRCLE
  8
WORKLAYER
  6
CONTINUOUS
 62
     4
 10
260.5026245
 20
49.4975014
 30
0.0
 40
9.5000000
  0
INSERT
  8
WORKLAYER
  2
DXF24
 10
0.0
 20
0.0
 30
0.0
  0
LINE
  8
WORKLAYER
  6
CONTINUOUS
 62
     4
 10
231.0001221
 20
-90.0000381
 30
0.0
 11
310.0001221
 21
-90.0000381
 31
0.0
 62
     4
  0
INSERT
  8
WORKLAYER
  2
DXF26
 10
0.0
 20
0.0
 30
0.0
  0
ARC
  8
WORKLAYER
  6
CONTINUOUS
 62
     4
 10
310.0001221
 20
0.0000000
 30
0.0
 40
87.5000000
 50
450.0000000
 51
270.0000000
  0
ARC
  8
WORKLAYER
  6
CENTER
 62
     2
 10
310.0001221
 20
0.0000000
 30
0.0
 40
70.0000000
 50
450.0000000
 51
270.0000000
  0
CIRCLE
  8
WORKLAYER
  6
CONTINUOUS
 62
     4
 10
260.5026245
 20
-49.4975014
 30
0.0
 40
9.5000000
  0
LINE
  8
AREA
  6
CONTINUOUS
 62
     4
 10
291.0001221
 20
109.0000000
 30
0.0
 11
291.0001221
 21
85.4122925
 31
0.0
 62
     4
  0
INSERT
  8
WORKLAYER
  2
DXF31
 10
0.0
 20
0.0
 30
0.0
  0
INSERT
  8
AREA
  2
DXF32
 10
0.0
 20
0.0
 30
0.0
  0
ARC
  8
WORKLAYER
  6
DOT
 62
     2
 10
295.0001221
 20
40.0000000
 30
0.0
 40
33.0000000
 50
179.7980957
 51
180.0000000
  0
LINE
  8
WORKLAYER
  6
CONTINUOUS
 62
     4
 10
232.0001221
 20
-88.1270218
 30
0.0
 11
232.0001221
 21
-39.6515999
 31
0.0
 62
     4
  0
LINE
  8
WORKLAYER
  6
CENTER
 62
     2
 10
406.3120117
 20
0.0000000
 30
0.0
 11
207.9438171
 21
0.0000000
 31
0.0
 62
     2
  0
CIRCLE
  8
WORKLAYER
  6
CONTINUOUS
 62
     4
 10
310.0001221
 20
0.0000000
 30
0.0
 40
32.5000000
  0
ARC
  8
AREA
  6
CONTINUOUS
 62
     4
 10
-8.0000000
 20
69.8526917
 30
0.0
 40
5.0000000
 50
270.0000000
 51
360.0000000
  0
ARC
  8
AREA
  6
CONTINUOUS
 62
     4
 10
8.0000000
 20
69.8526917
 30
0.0
 40
5.0000000
 50
180.0000000
 51
270.0000000
  0
INSERT
  8
WORKLAYER
  2
DXF39
 10
0.0
 20
0.0
 30
0.0
  0
INSERT
  8
WORKLAYER
  2
DXF40
 10
0.0
 20
0.0
 30
0.0
  0
LINE
  8
WORKLAYER
  6
CONTINUOUS
 62
     4
 10
2.0000000
 20
-73.5000000
 30
0.0
 11
-2.0000000
 21
-73.5000000
 31
0.0
 62
     4
  0
INSERT
  8
WORKLAYER
  2
DXF42
 10
0.0
 20
0.0
 30
0.0
  0
INSERT
  8
WORKLAYER
  2
DXF43
 10
0.0
 20
0.0
 30
0.0
  0
LINE
  8
WORKLAYER
  6
CONTINUOUS
 62
     4
 10
-22.9999981
 20
-56.5000000
 30
0.0
 11
-22.9999981
 21
-52.5000000
 31
0.0
 62
     4
  0
LINE
  8
AREA
  6
CONTINUOUS
 62
     4
 10
33.0000038
 20
-54.5000000
 30
0.0
 11
25.0000019
 21
-51.5000000
 31
0.0
 62
     4
  0
INSERT
  8
WORKLAYER
  2
DXF46
 10
0.0
 20
0.0
 30
0.0
  0
LINE
  8
AREA
  6
CONTINUOUS
 62
     4
 10
33.0000038
 20
-54.5000000
 30
0.0
 11
25.0000019
 21
-57.5000000
 31
0.0
 62
     4
  0
LINE
  8
AREA
  6
CONTINUOUS
 62
     4
 10
-12.9225483
 20
-20.0000000
 30
0.0
 11
-9.8540039
 21
-20.0000000
 31
0.0
 62
     4
  0
ARC
  8
AREA
  6
CONTINUOUS
 62
     4
 10
-6.5000000
 20
-19.0000000
 30
0.0
 40
6.5000000
 50
322.0104065
 51
188.8498993
  0
ARC
  8
AREA
  6
CONTINUOUS
 62
     4
 10
-6.5000000
 20
-19.0000000
 30
0.0
 40
3.5000000
 50
330.1878052
 51
196.6013947
  0
LINE
  8
WORKLAYER
  6
CONTINUOUS
 62
     4
 10
-9.5392456
 20
-34.5000000
 30
0.0
 11
0.0000000
 21
-34.5000000
 31
0.0
 62
     4
  0
LINE
  8
AREA
  6
CONTINUOUS
 62
     4
 10
-10.2530479
 20
-29.5077991
 30
0.0
 11
-3.4353640
 21
-20.7616005
 31
0.0
 62
     4
  0
LINE
  8
AREA
  6
CONTINUOUS
 62
     4
 10
-7.8869019
 20
-31.3521004
 30
0.0
 11
-1.3771969
 21
-23.0007896
 31
0.0
 62
     4
  0
ARC
  8
AREA
  6
CONTINUOUS
 62
     4
 10
0.0000000
 20
-37.5000000
 30
0.0
 40
13.0000000
 50
502.0170898
 51
180.0000000
  0
ARC
  8
AREA
  6
CONTINUOUS
 62
     4
 10
0.0000000
 20
-37.5000000
 30
0.0
 40
10.0000000
 50
502.0170898
 51
522.5424194
  0
LINE
  8
AREA
  6
CONTINUOUS
 62
     4
 10
-12.9999981
 20
-37.5000000
 30
0.0
 11
0.0000000
 21
-37.5000000
 31
0.0
 62
     4
  0
LINE
  8
AREA
  6
CONTINUOUS
 62
     4
 10
0.0000000
 20
-34.5000000
 30
0.0
 11
0.0000000
 21
-37.5000000
 31
0.0
 62
     4
  0
INSERT
  8
AREA
  2
DXF58
 10
0.0
 20
0.0
 30
0.0
  0
INSERT
  8
AREA
  2
DXF59
 10
0.0
 20
0.0
 30
0.0
  0
LINE
  8
AREA
  6
CONTINUOUS
 62
     4
 10
-65.3188782
 20
-9.0000000
 30
0.0
 11
-62.9998779
 21
-9.0000000
 31
0.0
 62
     4
  0
LINE
  8
AREA
  6
CONTINUOUS
 62
     4
 10
-68.9998779
 20
9.0000000
 30
0.0
 11
-74.9998779
 21
-9.0000000
 31
0.0
 62
     4
  0
INSERT
  8
AREA
  2
DXF62
 10
0.0
 20
0.0
 30
0.0
  0
LINE
  8
WORKLAYER
  6
CONTINUOUS
 62
     4
 10
-68.9998779
 20
-6.0000000
 30
0.0
 11
-71.6808777
 21
-6.0000000
 31
0.0
 62
     4
  0
LINE
  8
WORKLAYER
  6
CONTINUOUS
 62
     4
 10
-68.9998779
 20
-3.8000031
 30
0.0
 11
-70.9475708
 21
-3.8000031
 31
0.0
 62
     4
  0
LINE
  8
AREA
  6
CONTINUOUS
 62
     4
 10
-72.6808777
 20
-9.0000000
 30
0.0
 11
-74.9998779
 21
-9.0000000
 31
0.0
 62
     4
  0
LINE
  8
AREA
  6
CONTINUOUS
 62
     4
 10
-68.9998779
 20
9.0000000
 30
0.0
 11
-62.9998779
 21
-9.0000000
 31
0.0
 62
     4
  0
INSERT
  8
AREA
  2
DXF67
 10
0.0
 20
0.0
 30
0.0
  0
LINE
  8
WORKLAYER
  6
CONTINUOUS
 62
     4
 10
-68.9998779
 20
-6.0000000
 30
0.0
 11
-66.3188782
 21
-6.0000000
 31
0.0
 62
     4
  0
LINE
  8
WORKLAYER
  6
CONTINUOUS
 62
     4
 10
-68.9998779
 20
-3.8000031
 30
0.0
 11
-67.0521851
 21
-3.8000031
 31
0.0
 62
     4
  0
LINE
  8
AREA
  6
CONTINUOUS
 62
     4
 10
67.5000000
 20
9.0000000
 30
0.0
 11
67.5000000
 21
-9.0000000
 31
0.0
 62
     4
  0
LINE
  8
AREA
  6
CONTINUOUS
 62
     4
 10
64.1905518
 20
-9.0000000
 30
0.0
 11
66.5000000
 21
-9.0000000
 31
0.0
 62
     4
  0
LINE
  8
AREA
  6
CONTINUOUS
 62
     4
 10
55.0000038
 20
-9.0000000
 30
0.0
 11
60.7500038
 21
9.0000000
 31
0.0
 62
     4
  0
INSERT
  8
AREA
  2
DXF73
 10
0.0
 20
0.0
 30
0.0
  0
LINE
  8
WORKLAYER
  6
CONTINUOUS
 62
     4
 10
60.7500038
 20
-6.0000000
 30
0.0
 11
58.2679405
 21
-6.0000000
 31
0.0
 62
     4
  0
LINE
  8
WORKLAYER
  6
CONTINUOUS
 62
     4
 10
60.7500038
 20
-3.8000031
 30
0.0
 11
58.9706421
 21
-3.8000031
 31
0.0
 62
     4
  0
LINE
  8
AREA
  6
CONTINUOUS
 62
     4
 10
57.3095131
 20
-9.0000000
 30
0.0
 11
55.0000038
 21
-9.0000000
 31
0.0
 62
     4
  0
LINE
  8
AREA
  6
CONTINUOUS
 62
     4
 10
66.5000000
 20
-9.0000000
 30
0.0
 11
60.7500038
 21
9.0000000
 31
0.0
 62
     4
  0
INSERT
  8
AREA
  2
DXF78
 10
0.0
 20
0.0
 30
0.0
  0
LINE
  8
WORKLAYER
  6
CONTINUOUS
 62
     4
 10
60.7500038
 20
-6.0000000
 30
0.0
 11
63.2323036
 21
-6.0000000
 31
0.0
 62
     4
  0
LINE
  8
WORKLAYER
  6
CONTINUOUS
 62
     4
 10
60.7500038
 20
-3.8000031
 30
0.0
 11
62.5292931
 21
-3.8000031
 31
0.0
 62
     4
  0
LINE
  8
AREA
  6
CONTINUOUS
 62
     4
 10
69.7000122
 20
-1.0999910
 30
0.0
 11
69.7000122
 21
-6.8000031
 31
0.0
 62
     4
  0
LINE
  8
WORKLAYER
  6
CONTINUOUS
 62
     4
 10
74.8000488
 20
-6.8000031
 30
0.0
 11
69.7000122
 21
-6.8000031
 31
0.0
 62
     4
  0
LINE
  8
WORKLAYER
  6
CONTINUOUS
 62
     4
 10
74.8000488
 20
1.1000060
 30
0.0
 11
69.7000122
 21
1.1000060
 31
0.0
 62
     4
  0
INSERT
  8
AREA
  2
DXF84
 10
0.0
 20
0.0
 30
0.0
  0
LINE
  8
WORKLAYER
  6
CONTINUOUS
 62
     4
 10
74.8000488
 20
-1.0999910
 30
0.0
 11
69.7000122
 21
-1.0999910
 31
0.0
 62
     4
  0
LINE
  8
AREA
  6
CONTINUOUS
 62
     4
 10
69.7000122
 20
1.1000060
 30
0.0
 11
69.7000122
 21
6.8000031
 31
0.0
 62
     4
  0
LINE
  8
AREA
  6
CONTINUOUS
 62
     4
 10
67.5000000
 20
-9.0000000
 30
0.0
 11
74.8000488
 21
-9.0000000
 31
0.0
 62
     4
  0
INSERT
  8
AREA
  2
DXF88
 10
0.0
 20
0.0
 30
0.0
  0
LINE
  8
WORKLAYER
  6
CONTINUOUS
 62
     4
 10
74.8000488
 20
6.8000031
 30
0.0
 11
69.7000122
 21
6.8000031
 31
0.0
 62
     4
  0
INSERT
  8
AREA
  2
DXF90
 10
0.0
 20
0.0
 30
0.0
  0
LINE
  8
AREA
  6
CONTINUOUS
 62
     4
 10
67.5000000
 20
9.0000000
 30
0.0
 11
74.8000488
 21
9.0000000
 31
0.0
 62
     4
  0
LINE
  8
AREA
  6
CONTINUOUS
 62
     4
 10
17.4001427
 20
144.5000000
 30
0.0
 11
-17.3998985
 21
144.5000000
 31
0.0
 62
     4
  0
LINE
  8
AREA
  6
CONTINUOUS
 62
     4
 10
17.4001427
 20
153.5000000
 30
0.0
 11
-17.3998985
 21
153.5000000
 31
0.0
 62
     4
  0
LINE
  8
AREA
  6
CONTINUOUS
 62
     4
 10
17.4001427
 20
171.0000000
 30
0.0
 11
-17.3998985
 21
171.0000000
 31
0.0
 62
     4
  0
LINE
  8
AREA
  6
CONTINUOUS
 62
     4
 10
-21.9999981
 20
114.0000000
 30
0.0
 11
22.0000019
 21
114.0000000
 31
0.0
 62
     4
  0
INSERT
  8
WORKLAYER
  2
DXF96
 10
0.0
 20
0.0
 30
0.0
  0
INSERT
  8
WORKLAYER
  2
DXF97
 10
0.0
 20
0.0
 30
0.0
  0
LINE
  8
AREA
  6
CONTINUOUS
 62
     4
 10
-16.3998985
 20
172.0000000
 30
0.0
 11
0.0000000
 21
172.0000000
 31
0.0
 62
     4
  0
INSERT
  8
AREA
  2
DXF99
 10
0.0
 20
0.0
 30
0.0
  0
INSERT
  8
WORKLAYER
  2
DXF100
 10
0.0
 20
0.0
 30
0.0
  0
INSERT
  8
AREA
  2
DXF101
 10
0.0
 20
0.0
 30
0.0
  0
LINE
  8
AREA
  6
CONTINUOUS
 62
     4
 10
-17.3998985
 20
153.5000000
 30
0.0
 11
-15.9302979
 21
146.3000031
 31
0.0
 62
     4
  0
LINE
  8
AREA
  6
CONTINUOUS
 62
     4
 10
-22.9999981
 20
140.0000000
 30
0.0
 11
-22.9999981
 21
115.3849030
 31
0.0
 62
     4
  0
INSERT
  8
AREA
  2
DXF104
 10
0.0
 20
0.0
 30
0.0
  0
ARC
  8
AREA
  6
CONTINUOUS
 62
     4
 10
-17.3998985
 20
146.0000000
 30
0.0
 40
1.5000000
 50
270.0000000
 51
371.5364990
  0
LINE
  8
AREA
  6
CONTINUOUS
 62
     4
 10
-17.3998985
 20
144.5000000
 30
0.0
 11
-17.3998985
 21
140.0000000
 31
0.0
 62
     4
  0
LINE
  8
AREA
  6
CONTINUOUS
 62
     4
 10
16.4001427
 20
172.0000000
 30
0.0
 11
0.0000000
 21
172.0000000
 31
0.0
 62
     4
  0
INSERT
  8
AREA
  2
DXF108
 10
0.0
 20
0.0
 30
0.0
  0
ARC
  8
AREA
  6
CONTINUOUS
 62
     4
 10
21.0000019
 20
119.3246002
 30
0.0
 40
2.0000000
 50
351.0232849
 51
360.0000000
  0
LINE
  8
AREA
  6
CONTINUOUS
 62
     4
 10
23.0000019
 20
140.0000000
 30
0.0
 11
23.0000019
 21
115.3849030
 31
0.0
 62
     4
  0
INSERT
  8
AREA
  2
DXF111
 10
0.0
 20
0.0
 30
0.0
  0
ARC
  8
AREA
  6
CONTINUOUS
 62
     4
 10
17.4001427
 20
146.0000000
 30
0.0
 40
1.5000000
 50
528.4635010
 51
270.0000000
  0
LINE
  8
AREA
  6
CONTINUOUS
 62
     4
 10
17.4001427
 20
153.5000000
 30
0.0
 11
15.9304218
 21
146.3000031
 31
0.0
 62
     4
  0
INSERT
  8
AREA
  2
DXF114
 10
0.0
 20
0.0
 30
0.0
  0
LINE
  8
AREA
  6
CONTINUOUS
 62
     4
 10
17.4001427
 20
144.5000000
 30
0.0
 11
17.4001427
 21
140.0000000
 31
0.0
 62
     4
  0
ARC
  8
WORKLAYER
  6
CONTINUOUS
 62
     4
 10
18.0000019
 20
117.0000000
 30
0.0
 40
5.0000000
 50
306.8699036
 51
360.0000000
  0
ARC
  8
WORKLAYER
  6
CONTINUOUS
 62
     4
 10
24.0000019
 20
109.0000000
 30
0.0
 40
5.0000000
 50
486.8699036
 51
180.0000000
  0
INSERT
  8
AREA
  2
DXF118
 10
0.0
 20
0.0
 30
0.0
  0
LINE
  8
AREA
  6
CONTINUOUS
 62
     4
 10
23.7126427
 20
112.8125000
 30
0.0
 11
34.2876015
 21
95.1875916
 31
0.0
 62
     4
  0
ARC
  8
AREA
  6
CONTINUOUS
 62
     4
 10
30.0000019
 20
92.6151123
 30
0.0
 40
5.0000000
 50
360.0000000
 51
390.9638062
  0
ARC
  8
AREA
  6
CONTINUOUS
 62
     4
 10
28.0000019
 20
115.3849030
 30
0.0
 40
5.0000000
 50
180.0000000
 51
210.9638062
  0
LINE
  8
AREA
  6
CONTINUOUS
 62
     4
 10
23.0000019
 20
140.0000000
 30
0.0
 11
0.0000000
 21
140.0000000
 31
0.0
 62
     4
  0
LINE
  8
AREA
  6
CONTINUOUS
 62
     4
 10
-22.9999981
 20
140.0000000
 30
0.0
 11
0.0000000
 21
140.0000000
 31
0.0
 62
     4
  0
LINE
  8
AREA
  6
CONTINUOUS
 62
     4
 10
327.4000244
 20
144.5000000
 30
0.0
 11
310.0001221
 21
144.5000000
 31
0.0
 62
     4
  0
INSERT
  8
AREA
  2
DXF125
 10
0.0
 20
0.0
 30
0.0
  0
LINE
  8
AREA
  6
CONTINUOUS
 62
     4
 10
327.4000244
 20
153.5000000
 30
0.0
 11
310.0001221
 21
153.5000000
 31
0.0
 62
     4
  0
LINE
  8
AREA
  6
CONTINUOUS
 62
     4
 10
327.4000244
 20
171.0000000
 30
0.0
 11
310.0001221
 21
171.0000000
 31
0.0
 62
     4
  0
LINE
  8
AREA
  6
CONTINUOUS
 62
     4
 10
327.4000244
 20
144.5000000
 30
0.0
 11
327.4000244
 21
140.0000000
 31
0.0
 62
     4
  0
ARC
  8
AREA
  6
CONTINUOUS
 62
     4
 10
327.4000244
 20
146.0000000
 30
0.0
 40
1.5000000
 50
528.4635010
 51
270.0000000
  0
LINE
  8
AREA
  6
CONTINUOUS
 62
     4
 10
333.0000305
 20
140.0000000
 30
0.0
 11
333.0000305
 21
115.3849030
 31
0.0
 62
     4
  0
LINE
  8
AREA
  6
CONTINUOUS
 62
     4
 10
327.4000244
 20
153.5000000
 30
0.0
 11
325.9303284
 21
146.3000031
 31
0.0
 62
     4
  0
INSERT
  8
AREA
  2
DXF132
 10
0.0
 20
0.0
 30
0.0
  0
LINE
  8
AREA
  6
CONTINUOUS
 62
     4
 10
333.0000305
 20
140.0000000
 30
0.0
 11
310.0001221
 21
140.0000000
 31
0.0
 62
     4
  0
LINE
  8
AREA
  6
CONTINUOUS
 62
     4
 10
326.4000244
 20
172.0000000
 30
0.0
 11
310.0001221
 21
172.0000000
 31
0.0
 62
     4
  0
INSERT
  8
AREA
  2
DXF135
 10
0.0
 20
0.0
 30
0.0
  0
INSERT
  8
WORKLAYER
  2
DXF136
 10
0.0
 20
0.0
 30
0.0
  0
INSERT
  8
WORKLAYER
  2
DXF137
 10
0.0
 20
0.0
 30
0.0
  0
LINE
  8
AREA
  6
CONTINUOUS
 62
     4
 10
329.0000305
 20
109.0000000
 30
0.0
 11
329.0000305
 21
85.4122925
 31
0.0
 62
     4
  0
INSERT
  8
AREA
  2
DXF139
 10
0.0
 20
0.0
 30
0.0
  0
LINE
  8
WORKLAYER
  6
CONTINUOUS
 62
     4
 10
51.9521523
 20
10.0000000
 30
0.0
 11
-48.9998779
 21
10.0000000
 31
0.0
 62
     4
  0
LINE
  8
WORKLAYER
  6
CONTINUOUS
 62
     4
 10
-78.9998779
 20
-90.0000381
 30
0.0
 11
79.0000000
 21
-90.0000381
 31
0.0
 62
     4
  0
LINE
  8
WORKLAYER
  6
CONTINUOUS
 62
     4
 10
-53.9998779
 20
-82.7652969
 30
0.0
 11
70.0182495
 21
-82.7652969
 31
0.0
 62
     4
  0
LINE
  8
WORKLAYER
  6
CONTINUOUS
 62
     4
 10
48.0000038
 20
15.0000000
 30
0.0
 11
-48.9998779
 21
15.0000000
 31
0.0
 62
     4
  0
INSERT
  8
WORKLAYER
  2
DXF144
 10
0.0
 20
0.0
 30
0.0
  0
ARC
  8
WORKLAYER
  6
CONTINUOUS
 62
     4
 10
111.0001221
 20
-51.0228004
 30
0.0
 40
5.0000000
 50
360.0000000
 51
473.9483948
  0
LINE
  8
WORKLAYER
  6
CENTER
 62
     2
 10
147.3434296
 20
0.0000000
 30
0.0
 11
-140.9998779
 21
0.0000000
 31
0.0
 62
     2
  0
LINE
  8
WORKLAYER
  6
CONTINUOUS
 62
     4
 10
-110.9998779
 20
-46.0000000
 30
0.0
 11
-58.9998779
 21
-46.0000000
 31
0.0
 62
     4
  0
LINE
  8
WORKLAYER
  6
CONTINUOUS
 62
     4
 10
111.0001221
 20
46.0000000
 30
0.0
 11
51.3731117
 21
46.0000000
 31
0.0
 62
     4
  0
ARC
  8
WORKLAYER
  6
CONTINUOUS
 62
     4
 10
-58.9998779
 20
-51.0000000
 30
0.0
 40
5.0000000
 50
360.0000000
 51
450.0000000
  0
ARC
  8
WORKLAYER
  6
CONTINUOUS
 62
     4
 10
-110.9998779
 20
-51.0000000
 30
0.0
 40
5.0000000
 50
450.0000000
 51
180.0000000
  0
ARC
  8
WORKLAYER
  6
CONTINUOUS
 62
     4
 10
51.3731117
 20
51.0000000
 30
0.0
 40
5.0000000
 50
196.8265076
 51
270.0000000
  0
ARC
  8
WORKLAYER
  6
CONTINUOUS
 62
     4
 10
111.0001221
 20
51.0000000
 30
0.0
 40
5.0000000
 50
270.0000000
 51
360.0000000
  0
LINE
  8
WORKLAYER
  6
CENTER
 62
     2
 10
113.0001221
 20
70.0000000
 30
0.0
 11
141.0001221
 21
70.0000000
 31
0.0
 62
     2
  0
LINE
  8
WORKLAYER
  6
CENTER
 62
     2
 10
113.0001221
 20
-70.0000000
 30
0.0
 11
141.0001221
 21
-70.0000000
 31
0.0
 62
     2
  0
LINE
  8
WORKLAYER
  6
CENTER
 62
     2
 10
-112.9998779
 20
-70.0000000
 30
0.0
 11
-140.9998779
 21
-70.0000000
 31
0.0
 62
     2
  0
LINE
  8
WORKLAYER
  6
CENTER
 62
     2
 10
-112.9998779
 20
70.0000000
 30
0.0
 11
-140.9998779
 21
70.0000000
 31
0.0
 62
     2
  0
INSERT
  8
WORKLAYER
  2
DXF157
 10
0.0
 20
0.0
 30
0.0
  0
ARC
  8
WORKLAYER
  6
CONTINUOUS
 62
     4
 10
-48.9998779
 20
5.0000000
 30
0.0
 40
5.0000000
 50
450.0000000
 51
180.0000000
  0
CIRCLE
  8
WORKLAYER
  6
CONTINUOUS
 62
     4
 10
359.4975281
 20
-49.4975014
 30
0.0
 40
9.5000000
  0
ARC
  8
WORKLAYER
  6
CENTER
 62
     2
 10
310.0001221
 20
0.0000000
 30
0.0
 40
70.0000000
 50
270.0000000
 51
450.0000000
  0
ARC
  8
WORKLAYER
  6
CONTINUOUS
 62
     4
 10
310.0001221
 20
0.0000000
 30
0.0
 40
87.5000000
 50
270.0000000
 51
450.0000000
  0
INSERT
  8
WORKLAYER
  2
DXF162
 10
0.0
 20
0.0
 30
0.0
  0
LINE
  8
WORKLAYER
  6
CONTINUOUS
 62
     4
 10
389.0000305
 20
-90.0000381
 30
0.0
 11
310.0001221
 21
-90.0000381
 31
0.0
 62
     4
  0
INSERT
  8
WORKLAYER
  2
DXF164
 10
0.0
 20
0.0
 30
0.0
  0
CIRCLE
  8
WORKLAYER
  6
CONTINUOUS
 62
     4
 10
359.4975281
 20
49.4975014
 30
0.0
 40
9.5000000
  0
INSERT
  8
WORKLAYER
  2
DXF166
 10
0.0
 20
0.0
 30
0.0
  0
ARC
  8
WORKLAYER
  6
DOT
 62
     2
 10
325.0000305
 20
40.0000000
 30
0.0
 40
33.0000000
 50
0.0000000
 51
0.2019043
  0
LINE
  8
WORKLAYER
  6
CONTINUOUS
 62
     4
 10
388.0000305
 20
-88.1270218
 30
0.0
 11
388.0000305
 21
-39.6515999
 31
0.0
 62
     4
  0
LINE
  8
WORKLAYER
  6
CENTER
 62
     2
 10
0.0000000
 20
-236.2635040
 30
0.0
 11
0.0000000
 21
232.3311005
 31
0.0
 62
     2
  0
INSERT
  8
WORKLAYER
  2
DXF170
 10
0.0
 20
0.0
 30
0.0
  0
INSERT
  8
WORKLAYER
  2
DXF171
 10
0.0
 20
0.0
 30
0.0
  0
LINE
  8
WORKLAYER
  6
CONTINUOUS
 62
     4
 10
92.5552292
 20
-53.7440910
 30
0.0
 11
108.9705200
 21
-46.4533997
 31
0.0
 62
     4
  0
INSERT
  8
WORKLAYER
  2
DXF173
 10
0.0
 20
0.0
 30
0.0
  0
INSERT
  8
WORKLAYER
  2
DXF174
 10
0.0
 20
0.0
 30
0.0
  0
INSERT
  8
WORKLAYER
  2
DXF175
 10
0.0
 20
0.0
 30
0.0
  0
LINE
  8
WORKLAYER
  6
CONTINUOUS
 62
     4
 10
-113.1198807
 20
-46.1561012
 30
0.0
 11
-100.3504791
 21
-40.1968994
 31
0.0
 62
     4
  0
LINE
  8
WORKLAYER
  6
CONTINUOUS
 62
     4
 10
113.1145248
 20
46.1534004
 30
0.0
 11
106.3737183
 21
43.0077095
 31
0.0
 62
     4
  0
ARC
  8
WORKLAYER
  6
CONTINUOUS
 62
     4
 10
111.0001221
 20
50.6842995
 30
0.0
 40
5.0000000
 50
295.0169983
 51
360.0000000
  0
ARC
  8
WORKLAYER
  6
CONTINUOUS
 62
     4
 10
-110.9998779
 20
-50.6842995
 30
0.0
 40
5.0000000
 50
475.0169067
 51
180.0000000
  0
INSERT
  8
WORKLAYER
  2
DXF180
 10
0.0
 20
0.0
 30
0.0
  0
INSERT
  8
WORKLAYER
  2
DXF181
 10
0.0
 20
0.0
 30
0.0
  0
INSERT
  8
WORKLAYER
  2
DXF182
 10
0.0
 20
0.0
 30
0.0
  0
INSERT
  8
WORKLAYER
  2
DXF183
 10
0.0
 20
0.0
 30
0.0
  0
INSERT
  8
WORKLAYER
  2
DXF184
 10
0.0
 20
0.0
 30
0.0
  0
INSERT
  8
WORKLAYER
  2
DXF185
 10
0.0
 20
0.0
 30
0.0
  0
INSERT
  8
SSYMB
  2
DXF186
 10
0.0
 20
0.0
 30
0.0
  0
INSERT
  8
SSYMB
  2
DXF187
 10
0.0
 20
0.0
 30
0.0
  0
INSERT
  8
SSYMB
  2
DXF188
 10
0.0
 20
0.0
 30
0.0
  0
INSERT
  8
SSYMB
  2
DXF189
 10
0.0
 20
0.0
 30
0.0
  0
INSERT
  8
SSYMB
  2
DXF190
 10
0.0
 20
0.0
 30
0.0
  0
ARC
  8
0
  6
CONTINUOUS
 62
     4
 10
0.8139037
 20
45.5145988
 30
0.0
 40
5.5146399
 50
630.0000000
 51
360.0000000
  0
LINE
  8
0
  6
CONTINUOUS
 62
     4
 10
-19.6690674
 20
55.7561989
 30
0.0
 11
-5.4886479
 21
55.7561989
 31
0.0
 62
     4
  0
LINE
  8
0
  6
CONTINUOUS
 62
     4
 10
-5.4886479
 20
55.7561989
 30
0.0
 11
-5.4886479
 21
40.0000000
 31
0.0
 62
     4
  0
LINE
  8
0
  6
CONTINUOUS
 62
     4
 10
-19.6690674
 20
55.7561989
 30
0.0
 11
-5.4886479
 21
40.0000000
 31
0.0
 62
     4
  0
LINE
  8
0
  6
CONTINUOUS
 62
     4
 10
6.3285522
 20
55.7561989
 30
0.0
 11
6.3285522
 21
45.5145988
 31
0.0
 62
     4
  0
LINE
  8
0
  6
CONTINUOUS
 62
     4
 10
0.8139037
 20
40.0000000
 30
0.0
 11
-4.3068848
 21
40.0000000
 31
0.0
 62
     4
  0
LINE
  8
0
  6
CONTINUOUS
 62
     4
 10
-16.1240883
 20
24.2437992
 30
0.0
 11
-4.3068848
 21
40.0000000
 31
0.0
 62
     4
  0
LINE
  8
0
  6
CONTINUOUS
 62
     4
 10
-16.1240883
 20
24.2437992
 30
0.0
 11
-2.3372800
 21
24.2437992
 31
0.0
 62
     4
  0
LINE
  8
0
  6
CONTINUOUS
 62
     4
 10
20.9029522
 20
55.7561989
 30
0.0
 11
6.3285522
 21
55.7561989
 31
0.0
 62
     4
  0
LINE
  8
0
  6
CONTINUOUS
 62
     4
 10
20.9029522
 20
55.7561989
 30
0.0
 11
-2.3372800
 21
24.2437992
 31
0.0
 62
     4
  0
INSERT
  8
WORKLAYER
  2
DXF201
 10
0.0
 20
0.0
 30
0.0
  0
INSERT
  8
WORKLAYER
  2
DXF202
 10
0.0
 20
0.0
 30
0.0
  0
INSERT
  8
WORKLAYER
  2
DXF203
 10
0.0
 20
0.0
 30
0.0
  0
INSERT
  8
WORKLAYER
  2
DXF204
 10
0.0
 20
0.0
 30
0.0
  0
INSERT
  8
WORKLAYER
  2
DXF205
 10
0.0
 20
0.0
 30
0.0
  0
INSERT
  8
WORKLAYER
  2
DXF206
 10
0.0
 20
0.0
 30
0.0
  0
INSERT
  8
WORKLAYER
  2
DXF207
 10
0.0
 20
0.0
 30
0.0
  0
INSERT
  8
0
  2
DXF208
 10
0.0
 20
0.0
 30
0.0
  0
INSERT
  8
0
  2
DXF209
 10
0.0
 20
0.0
 30
0.0
  0
INSERT
  8
0
  2
DXF210
 10
0.0
 20
0.0
 30
0.0
  0
INSERT
  8
0
  2
DXF211
 10
0.0
 20
0.0
 30
0.0
  0
INSERT
  8
0
  2
DXF212
 10
0.0
 20
0.0
 30
0.0
  0
INSERT
  8
0
  2
DXF213
 10
0.0
 20
0.0
 30
0.0
  0
INSERT
  8
0
  2
DXF214
 10
0.0
 20
0.0
 30
0.0
  0
ENDSEC
  0
EOF
