  0
SECTION
  2
HEADER
  9
$ACADVER
  1
AC1015
  9
$ACADMAINTVER
 70
     6
  9
$DWGCODEPAGE
  3
ANSI_1252
  9
$INSBASE
 10
0.0
 20
0.0
 30
0.0
  9
$EXTMIN
 10
327.7126502562237
 20
-970.2899458213511
 30
0.0
  9
$EXTMAX
 10
743.6424926998068
 20
-732.243120243643
 30
0.0
  9
$LIMMIN
 10
0.0
 20
0.0
  9
$LIMMAX
 10
12.0
 20
9.0
  9
$ORTHOMODE
 70
     0
  9
$REGENMODE
 70
     1
  9
$FILLMODE
 70
     1
  9
$QTEXTMODE
 70
     0
  9
$MIRRTEXT
 70
     1
  9
$LTSCALE
 40
1.0
  9
$ATTMODE
 70
     1
  9
$TEXTSIZE
 40
0.2
  9
$TRACEWID
 40
0.05
  9
$TEXTSTYLE
  7
Standard
  9
$CLAYER
  8
0
  9
$CELTYPE
  6
ByLayer
  9
$CECOLOR
 62
   256
  9
$CELTSCALE
 40
1.0
  9
$DISPSILH
 70
     0
  9
$DIMSCALE
 40
1.0
  9
$DIMASZ
 40
0.18
  9
$DIMEXO
 40
0.0625
  9
$DIMDLI
 40
0.38
  9
$DIMRND
 40
0.0
  9
$DIMDLE
 40
0.0
  9
$DIMEXE
 40
0.18
  9
$DIMTP
 40
0.0
  9
$DIMTM
 40
0.0
  9
$DIMTXT
 40
0.18
  9
$DIMCEN
 40
0.09
  9
$DIMTSZ
 40
0.0
  9
$DIMTOL
 70
     0
  9
$DIMLIM
 70
     0
  9
$DIMTIH
 70
     1
  9
$DIMTOH
 70
     1
  9
$DIMSE1
 70
     0
  9
$DIMSE2
 70
     0
  9
$DIMTAD
 70
     0
  9
$DIMZIN
 70
     0
  9
$DIMBLK
  1

  9
$DIMASO
 70
     1
  9
$DIMSHO
 70
     1
  9
$DIMPOST
  1

  9
$DIMAPOST
  1

  9
$DIMALT
 70
     0
  9
$DIMALTD
 70
     2
  9
$DIMALTF
 40
25.4
  9
$DIMLFAC
 40
1.0
  9
$DIMTOFL
 70
     0
  9
$DIMTVP
 40
0.0
  9
$DIMTIX
 70
     0
  9
$DIMSOXD
 70
     0
  9
$DIMSAH
 70
     0
  9
$DIMBLK1
  1

  9
$DIMBLK2
  1

  9
$DIMSTYLE
  2
Standard
  9
$DIMCLRD
 70
     0
  9
$DIMCLRE
 70
     0
  9
$DIMCLRT
 70
     0
  9
$DIMTFAC
 40
1.0
  9
$DIMGAP
 40
0.09
  9
$DIMJUST
 70
     0
  9
$DIMSD1
 70
     0
  9
$DIMSD2
 70
     0
  9
$DIMTOLJ
 70
     1
  9
$DIMTZIN
 70
     0
  9
$DIMALTZ
 70
     0
  9
$DIMALTTZ
 70
     0
  9
$DIMUPT
 70
     0
  9
$DIMDEC
 70
     4
  9
$DIMTDEC
 70
     4
  9
$DIMALTU
 70
     2
  9
$DIMALTTD
 70
     2
  9
$DIMTXSTY
  7
Standard
  9
$DIMAUNIT
 70
     0
  9
$DIMADEC
 70
     0
  9
$DIMALTRND
 40
0.0
  9
$DIMAZIN
 70
     0
  9
$DIMDSEP
 70
    46
  9
$DIMATFIT
 70
     3
  9
$DIMFRAC
 70
     0
  9
$DIMLDRBLK
  1

  9
$DIMLUNIT
 70
     2
  9
$DIMLWD
 70
    -2
  9
$DIMLWE
 70
    -2
  9
$DIMTMOVE
 70
     0
  9
$LUNITS
 70
     2
  9
$LUPREC
 70
     4
  9
$SKETCHINC
 40
0.1
  9
$FILLETRAD
 40
0.5
  9
$AUNITS
 70
     0
  9
$AUPREC
 70
     0
  9
$MENU
  1
.
  9
$ELEVATION
 40
0.0
  9
$PELEVATION
 40
0.0
  9
$THICKNESS
 40
0.0
  9
$LIMCHECK
 70
     0
  9
$CHAMFERA
 40
0.5
  9
$CHAMFERB
 40
0.5
  9
$CHAMFERC
 40
1.0
  9
$CHAMFERD
 40
0.0
  9
$SKPOLY
 70
     0
  9
$TDCREATE
 40
2455075.623123009
  9
$TDUCREATE
 40
2455075.248123009
  9
$TDUPDATE
 40
2455075.623123021
  9
$TDUUPDATE
 40
2455075.248123021
  9
$TDINDWG
 40
0.0000000116
  9
$TDUSRTIMER
 40
0.0000000116
  9
$USRTIMER
 70
     1
  9
$ANGBASE
 50
0.0
  9
$ANGDIR
 70
     0
  9
$PDMODE
 70
     0
  9
$PDSIZE
 40
0.0
  9
$PLINEWID
 40
0.0
  9
$SPLFRAME
 70
     0
  9
$SPLINETYPE
 70
     6
  9
$SPLINESEGS
 70
     8
  9
$HANDSEED
  5
3BA
  9
$SURFTAB1
 70
     6
  9
$SURFTAB2
 70
     6
  9
$SURFTYPE
 70
     6
  9
$SURFU
 70
     6
  9
$SURFV
 70
     6
  9
$UCSBASE
  2

  9
$UCSNAME
  2

  9
$UCSORG
 10
0.0
 20
0.0
 30
0.0
  9
$UCSXDIR
 10
1.0
 20
0.0
 30
0.0
  9
$UCSYDIR
 10
0.0
 20
1.0
 30
0.0
  9
$UCSORTHOREF
  2

  9
$UCSORTHOVIEW
 70
     0
  9
$UCSORGTOP
 10
0.0
 20
0.0
 30
0.0
  9
$UCSORGBOTTOM
 10
0.0
 20
0.0
 30
0.0
  9
$UCSORGLEFT
 10
0.0
 20
0.0
 30
0.0
  9
$UCSORGRIGHT
 10
0.0
 20
0.0
 30
0.0
  9
$UCSORGFRONT
 10
0.0
 20
0.0
 30
0.0
  9
$UCSORGBACK
 10
0.0
 20
0.0
 30
0.0
  9
$PUCSBASE
  2

  9
$PUCSNAME
  2

  9
$PUCSORG
 10
0.0
 20
0.0
 30
0.0
  9
$PUCSXDIR
 10
1.0
 20
0.0
 30
0.0
  9
$PUCSYDIR
 10
0.0
 20
1.0
 30
0.0
  9
$PUCSORTHOREF
  2

  9
$PUCSORTHOVIEW
 70
     0
  9
$PUCSORGTOP
 10
0.0
 20
0.0
 30
0.0
  9
$PUCSORGBOTTOM
 10
0.0
 20
0.0
 30
0.0
  9
$PUCSORGLEFT
 10
0.0
 20
0.0
 30
0.0
  9
$PUCSORGRIGHT
 10
0.0
 20
0.0
 30
0.0
  9
$PUCSORGFRONT
 10
0.0
 20
0.0
 30
0.0
  9
$PUCSORGBACK
 10
0.0
 20
0.0
 30
0.0
  9
$USERI1
 70
     0
  9
$USERI2
 70
     0
  9
$USERI3
 70
     0
  9
$USERI4
 70
     0
  9
$USERI5
 70
     0
  9
$USERR1
 40
14.0
  9
$USERR2
 40
0.0
  9
$USERR3
 40
0.0
  9
$USERR4
 40
0.0
  9
$USERR5
 40
0.0
  9
$WORLDVIEW
 70
     1
  9
$SHADEDGE
 70
     3
  9
$SHADEDIF
 70
    70
  9
$TILEMODE
 70
     1
  9
$MAXACTVP
 70
    64
  9
$PINSBASE
 10
0.0
 20
0.0
 30
0.0
  9
$PLIMCHECK
 70
     0
  9
$PEXTMIN
 10
1.00000000000000E+20
 20
1.00000000000000E+20
 30
1.00000000000000E+20
  9
$PEXTMAX
 10
-1.00000000000000E+20
 20
-1.00000000000000E+20
 30
-1.00000000000000E+20
  9
$PLIMMIN
 10
0.0
 20
0.0
  9
$PLIMMAX
 10
12.0
 20
9.0
  9
$UNITMODE
 70
     0
  9
$VISRETAIN
 70
     1
  9
$PLINEGEN
 70
     0
  9
$PSLTSCALE
 70
     1
  9
$TREEDEPTH
 70
  3020
  9
$CMLSTYLE
  2
Standard
  9
$CMLJUST
 70
     0
  9
$CMLSCALE
 40
1.0
  9
$PROXYGRAPHICS
 70
     1
  9
$MEASUREMENT
 70
     1
  9
$CELWEIGHT
370
    -1
  9
$ENDCAPS
280
     0
  9
$JOINSTYLE
280
     0
  9
$LWDISPLAY
290
     0
  9
$INSUNITS
 70
     1
  9
$HYPERLINKBASE
  1

  9
$STYLESHEET
  1

  9
$XEDIT
290
     1
  9
$CEPSNTYPE
380
     0
  9
$PSTYLEMODE
290
     1
  9
$FINGERPRINTGUID
  2
{394ED5E9-445A-4DF7-B1D5-CDD2EB9BC40C}
  9
$VERSIONGUID
  2
{FAEB1C32-E019-11D5-929B-00C0DF256EC4}
  9
$EXTNAMES
290
     1
  9
$PSVPSCALE
 40
0.0
  9
$OLESTARTUP
290
     0
  0
ENDSEC
  0
SECTION
  2
CLASSES
  0
CLASS
  1
ACDBDICTIONARYWDFLT
  2
AcDbDictionaryWithDefault
  3
ObjectDBX Classes
 90
        0
280
     0
281
     0
  0
CLASS
  1

  2
exOdDbCircle
  3

 90
        0
280
     0
281
     1
  0
CLASS
  1

  2
exOdDbPolyline
  3

 90
        0
280
     0
281
     1
  0
CLASS
  1

  2
exOdDbSpline
  3

 90
        0
280
     0
281
     1
  0
CLASS
  1
ACDBPLACEHOLDER
  2
AcDbPlaceHolder
  3
ObjectDBX Classes
 90
        0
280
     0
281
     0
  0
CLASS
  1
LAYOUT
  2
AcDbLayout
  3
ObjectDBX Classes
 90
        0
280
     0
281
     0
  0
ENDSEC
  0
SECTION
  2
TABLES
  0
TABLE
  2
VPORT
  5
8
330
0
100
AcDbSymbolTable
 70
     1
  0
VPORT
  5
29
330
8
100
AcDbSymbolTableRecord
100
AcDbViewportTableRecord
  2
*Active
 70
     0
 10
0.0
 20
0.0
 11
1.0
 21
1.0
 12
535.6775714780152
 22
-851.2665330324971
 13
0.0
 23
0.0
 14
0.5
 24
0.5
 15
0.5
 25
0.5
 16
0.0
 26
0.0
 36
1.0
 17
0.0
 27
0.0
 37
0.0
 40
285.4738528637853
 41
1.60267857142857
 42
50.0
 43
0.0
 44
0.0
 50
0.0
 51
0.0
 71
     0
 72
   100
 73
     1
 74
     3
 75
     0
 76
     0
 77
     0
 78
     0
281
     0
 65
     1
110
0.0
120
0.0
130
0.0
111
1.0
121
0.0
131
0.0
112
0.0
122
1.0
132
0.0
 79
     0
146
0.0
  0
ENDTAB
  0
TABLE
  2
LTYPE
  5
5
330
0
100
AcDbSymbolTable
 70
     8
  0
LTYPE
  5
14
330
5
100
AcDbSymbolTableRecord
100
AcDbLinetypeTableRecord
  2
ByBlock
 70
     0
  3

 72
    65
 73
     0
 40
0.0
  0
LTYPE
  5
15
330
5
100
AcDbSymbolTableRecord
100
AcDbLinetypeTableRecord
  2
ByLayer
 70
     0
  3

 72
    65
 73
     0
 40
0.0
  0
LTYPE
  5
16
330
5
100
AcDbSymbolTableRecord
100
AcDbLinetypeTableRecord
  2
Continuous
 70
     0
  3
Solid line
 72
    65
 73
     0
 40
0.0
  0
LTYPE
  5
2A
330
5
100
AcDbSymbolTableRecord
100
AcDbLinetypeTableRecord
  2
DASHED
 70
     0
  3
Dashed
 72
    65
 73
     2
 40
15.0
 49
7.0
 74
     0
 49
-8.0
 74
     0
  0
LTYPE
  5
2B
330
5
100
AcDbSymbolTableRecord
100
AcDbLinetypeTableRecord
  2
DOTTED
 70
     0
  3
Dotted
 72
    65
 73
     2
 40
1.0
 49
0.0
 74
     0
 49
-1.0
 74
     0
  0
LTYPE
  5
2C
330
5
100
AcDbSymbolTableRecord
100
AcDbLinetypeTableRecord
  2
DOT_CENTER
 70
     0
  3
Dot_Center
 72
    65
 73
     4
 40
14.0
 49
12.0
 74
     0
 49
-1.0
 74
     0
 49
0.0
 74
     0
 49
-1.0
 74
     0
  0
LTYPE
  5
2D
330
5
100
AcDbSymbolTableRecord
100
AcDbLinetypeTableRecord
  2
LONG_DASHED
 70
     0
  3
Long_Dashed
 72
    65
 73
     2
 40
15.0
 49
10.0
 74
     0
 49
-5.0
 74
     0
  0
LTYPE
  5
2E
330
5
100
AcDbSymbolTableRecord
100
AcDbLinetypeTableRecord
  2
DASH_CENTER
 70
     0
  3
Dash_Center
 72
    65
 73
     4
 40
14.0
 49
11.0
 74
     0
 49
-1.0
 74
     0
 49
1.0
 74
     0
 49
-1.0
 74
     0
  0
LTYPE
  5
2F
330
5
100
AcDbSymbolTableRecord
100
AcDbLinetypeTableRecord
  2
PHANTOM
 70
     0
  3
Phantom
 72
    65
 73
     6
 40
13.0
 49
10.0
 74
     0
 49
-1.0
 74
     0
 49
0.0
 74
     0
 49
-1.0
 74
     0
 49
0.0
 74
     0
 49
-1.0
 74
     0
  0
LTYPE
  5
30
330
5
100
AcDbSymbolTableRecord
100
AcDbLinetypeTableRecord
  2
CENTER_DASH_DASH
 70
     0
  3
Center_Dash_Dash
 72
    65
 73
     6
 40
14.0
 49
9.0
 74
     0
 49
-1.0
 74
     0
 49
1.0
 74
     0
 49
-1.0
 74
     0
 49
1.0
 74
     0
 49
-1.0
 74
     0
  0
ENDTAB
  0
TABLE
  2
LAYER
  5
2
330
0
100
AcDbSymbolTable
 70
     3
  0
LAYER
  5
10
330
2
100
AcDbSymbolTableRecord
100
AcDbLayerTableRecord
  2
0
 70
     0
 62
     7
  6
Continuous
370
    -3
390
F
  0
LAYER
  5
31
330
2
100
AcDbSymbolTableRecord
100
AcDbLayerTableRecord
  2
1
 70
     0
 62
     7
  6
Continuous
370
    -3
390
F
  0
LAYER
  5
32
330
2
100
AcDbSymbolTableRecord
100
AcDbLayerTableRecord
  2
6_ALL_DRFT_GEOM
 70
     0
 62
     7
  6
Continuous
370
    -3
390
F
  0
ENDTAB
  0
TABLE
  2
STYLE
  5
3
330
0
100
AcDbSymbolTable
 70
     3
  0
STYLE
  5
11
330
3
100
AcDbSymbolTableRecord
100
AcDbTextStyleTableRecord
  2
Standard
 70
     0
 40
0.0
 41
1.0
 50
0.0
 71
     0
 42
0.2
  3
txt
  4

  0
STYLE
  5
FF
330
3
100
AcDbSymbolTableRecord
100
AcDbTextStyleTableRecord
  2
CONVERTER_1
 70
     0
 40
0.0
 41
0.9
 50
0.0
 71
     0
 42
0.2
  3
txt.shx
  4

  0
STYLE
  5
3B8
330
3
100
AcDbSymbolTableRecord
100
AcDbTextStyleTableRecord
  2
CONVERTER_2
 70
     0
 40
0.0
 41
0.855
 50
0.0
 71
     0
 42
0.2
  3
complex.shx
  4

  0
ENDTAB
  0
TABLE
  2
VIEW
  5
6
330
0
100
AcDbSymbolTable
 70
     0
  0
ENDTAB
  0
TABLE
  2
UCS
  5
7
330
0
100
AcDbSymbolTable
 70
     0
  0
ENDTAB
  0
TABLE
  2
APPID
  5
9
330
0
100
AcDbSymbolTable
 70
     1
  0
APPID
  5
12
330
9
100
AcDbSymbolTableRecord
100
AcDbRegAppTableRecord
  2
ACAD
 70
     0
  0
ENDTAB
  0
TABLE
  2
DIMSTYLE
  5
A
330
0
100
AcDbSymbolTable
 70
     1
100
AcDbDimStyleTable
  0
DIMSTYLE
105
27
330
A
100
AcDbSymbolTableRecord
100
AcDbDimStyleTableRecord
  2
Standard
 70
     0
340
11
  0
ENDTAB
  0
TABLE
  2
BLOCK_RECORD
  5
1
330
0
100
AcDbSymbolTable
 70
     6
  0
BLOCK_RECORD
  5
1F
330
1
100
AcDbSymbolTableRecord
100
AcDbBlockTableRecord
  2
*Model_Space
340
22
  0
BLOCK_RECORD
  5
1B
330
1
100
AcDbSymbolTableRecord
100
AcDbBlockTableRecord
  2
*Paper_Space
340
1E
  0
BLOCK_RECORD
  5
23
330
1
100
AcDbSymbolTableRecord
100
AcDbBlockTableRecord
  2
*Paper_Space0
340
26
  0
BLOCK_RECORD
  5
33
330
1
100
AcDbSymbolTableRecord
100
AcDbBlockTableRecord
  2
Top__1
340
0
102
{BLKREFS
331
42
102
}
  0
BLOCK_RECORD
  5
36
330
1
100
AcDbSymbolTableRecord
100
AcDbBlockTableRecord
  2
_4
340
0
102
{BLKREFS
331
43
102
}
  0
BLOCK_RECORD
  5
39
330
1
100
AcDbSymbolTableRecord
100
AcDbBlockTableRecord
  2
_5
340
0
102
{BLKREFS
331
44
102
}
  0
BLOCK_RECORD
  5
3C
330
1
100
AcDbSymbolTableRecord
100
AcDbBlockTableRecord
  2
TOP
340
0
102
{BLKREFS
331
45
102
}
  0
BLOCK_RECORD
  5
3F
330
1
100
AcDbSymbolTableRecord
100
AcDbBlockTableRecord
  2
_3
340
0
102
{BLKREFS
331
46
102
}
  0
ENDTAB
  0
ENDSEC
  0
SECTION
  2
BLOCKS
  0
BLOCK
  5
20
330
1F
100
AcDbEntity
  8
0
100
AcDbBlockBegin
  2
*Model_Space
 70
     0
 71
     0
 10
0.0
 20
0.0
 30
0.0
  3
*Model_Space
  1

  0
ENDBLK
  5
21
330
1F
100
AcDbEntity
  8
0
100
AcDbBlockEnd
  0
BLOCK
  5
1C
330
1B
100
AcDbEntity
 67
     1
  8
0
100
AcDbBlockBegin
  2
*Paper_Space
 70
     0
 71
     0
 10
0.0
 20
0.0
 30
0.0
  3
*Paper_Space
  1

  0
ENDBLK
  5
1D
330
1B
100
AcDbEntity
 67
     1
  8
0
100
AcDbBlockEnd
  0
BLOCK
  5
24
330
23
100
AcDbEntity
  8
0
100
AcDbBlockBegin
  2
*Paper_Space0
 70
     0
 71
     0
 10
0.0
 20
0.0
 30
0.0
  3
*Paper_Space0
  1

  0
ENDBLK
  5
25
330
23
100
AcDbEntity
  8
0
100
AcDbBlockEnd
  0
BLOCK
  5
34
330
33
100
AcDbEntity
  8
0
100
AcDbBlockBegin
  2
Top__1
 70
     0
 71
     0
 10
1135.920413971842
 20
-1954.868961870737
 30
0.0
  3
Top__1
  1

  0
LINE
  5
47
330
33
100
AcDbEntity
  8
1
  6
Continuous
 62
     3
100
AcDbLine
 10
494.6499687185769
 20
-737.834347171781
 30
0.0
 11
471.6499687185769
 21
-737.834347171781
 31
0.0
  0
LINE
  5
48
330
33
100
AcDbEntity
  8
1
  6
Continuous
 62
     3
100
AcDbLine
 10
499.6499687185769
 20
-736.834347171781
 30
0.0
 11
495.6499687185769
 21
-736.834347171781
 31
0.0
  0
LINE
  5
49
330
33
100
AcDbEntity
  8
1
  6
Continuous
 62
     3
100
AcDbLine
 10
495.6499687185769
 20
-736.834347171781
 30
0.0
 11
494.6499687185769
 21
-737.834347171781
 31
0.0
  0
LINE
  5
4A
330
33
100
AcDbEntity
  8
1
  6
Continuous
 62
     3
100
AcDbLine
 10
444.7217654883018
 20
-790.0042201528588
 30
0.0
 11
444.1499687185769
 21
-790.334347171781
 31
0.0
  0
LINE
  5
4B
330
33
100
AcDbEntity
  8
1
  6
Continuous
 62
     3
100
AcDbLine
 10
444.1499687185769
 20
-790.334347171781
 30
0.0
 11
425.3046692569566
 21
-790.3343471717808
 31
0.0
  0
LINE
  5
4C
330
33
100
AcDbEntity
  8
1
  6
Continuous
 62
     3
100
AcDbLine
 10
471.6499687185769
 20
-792.834347171781
 30
0.0
 11
494.6499687185769
 21
-792.834347171781
 31
0.0
  0
LINE
  5
4D
330
33
100
AcDbEntity
  8
1
  6
Continuous
 62
     3
100
AcDbLine
 10
495.6499687185769
 20
-793.834347171781
 30
0.0
 11
499.6499687185769
 21
-793.834347171781
 31
0.0
  0
LINE
  5
4E
330
33
100
AcDbEntity
  8
1
  6
Continuous
 62
     3
100
AcDbLine
 10
494.6499687185769
 20
-792.834347171781
 30
0.0
 11
495.6499687185769
 21
-793.834347171781
 31
0.0
  0
LINE
  5
4F
330
33
100
AcDbEntity
  8
1
  6
Continuous
 62
     3
100
AcDbLine
 10
444.1499687185769
 20
-740.334347171781
 30
0.0
 11
444.7217654883018
 21
-740.664474190703
 31
0.0
  0
LINE
  5
50
330
33
100
AcDbEntity
  8
1
  6
Continuous
 62
     3
100
AcDbLine
 10
447.2217654883018
 20
-741.334347171781
 30
0.0
 11
451.8952224534389
 21
-741.334347171781
 31
0.0
  0
LINE
  5
51
330
33
100
AcDbEntity
  8
1
  6
Continuous
 62
     3
100
AcDbLine
 10
451.8952224534389
 20
-789.334347171781
 30
0.0
 11
447.2217654883018
 21
-789.334347171781
 31
0.0
  0
LINE
  5
52
330
33
100
AcDbEntity
  8
1
  6
Continuous
 62
     3
100
AcDbLine
 10
495.6499687185769
 20
-736.834347171781
 30
0.0
 11
495.6499687185769
 21
-793.834347171781
 31
0.0
  0
LINE
  5
53
330
33
100
AcDbEntity
  8
1
  6
Continuous
 62
     3
100
AcDbLine
 10
494.6499687185769
 20
-792.834347171781
 30
0.0
 11
494.6499687185769
 21
-737.834347171781
 31
0.0
  0
LINE
  5
54
330
33
100
AcDbEntity
  8
1
  6
Continuous
 62
     3
100
AcDbLine
 10
444.1499687185769
 20
-740.334347171781
 30
0.0
 11
444.1499687185769
 21
-790.334347171781
 31
0.0
  0
LINE
  5
55
330
33
100
AcDbEntity
  8
1
  6
Continuous
 62
     3
100
AcDbLine
 10
500.6499687185769
 20
-737.102296364212
 30
0.0
 11
500.6499687185769
 21
-793.5663979793499
 31
0.0
  0
LINE
  5
56
330
33
100
AcDbEntity
  8
1
  6
Continuous
 62
     3
100
AcDbLine
 10
444.1499687185769
 20
-765.334347171781
 30
0.0
 11
428.3122805693793
 21
-765.334347171781
 31
0.0
  0
LINE
  5
57
330
33
100
AcDbEntity
  8
1
  6
Continuous
 62
     3
100
AcDbLine
 10
425.3046692569566
 20
-740.334347171781
 30
0.0
 11
424.1499687185773
 21
-742.3343471717813
 31
0.0
  0
LINE
  5
58
330
33
100
AcDbEntity
  8
1
  6
Continuous
 62
     3
100
AcDbLine
 10
425.3046692569566
 20
-740.334347171781
 30
0.0
 11
444.1499687185769
 21
-740.334347171781
 31
0.0
  0
LINE
  5
59
330
33
100
AcDbEntity
  8
1
  6
Continuous
 62
     3
100
AcDbLine
 10
424.1499687185773
 20
-742.3343471717813
 30
0.0
 11
424.1499687185773
 21
-788.3343471717806
 31
0.0
  0
LINE
  5
5A
330
33
100
AcDbEntity
  8
1
  6
Continuous
 62
     3
100
AcDbLine
 10
424.1499687185773
 20
-788.3343471717806
 30
0.0
 11
425.3046692569566
 21
-790.3343471717808
 31
0.0
  0
ARC
  5
5B
330
33
100
AcDbEntity
  8
1
  6
Continuous
 62
     3
100
AcDbCircle
 10
471.6499687185769
 20
-790.334347171781
 30
0.0
 40
52.5
100
AcDbArc
 50
90.0
 51
110.0939666662768
  0
ARC
  5
5C
330
33
100
AcDbEntity
  8
1
  6
Continuous
 62
     3
100
AcDbCircle
 10
471.6499687185769
 20
-740.334347171781
 30
0.0
 40
52.49999999999968
100
AcDbArc
 50
-110.0939666662768
 51
-90.0
  0
ARC
  5
5D
330
33
100
AcDbEntity
  8
1
  6
Continuous
 62
     3
100
AcDbCircle
 10
451.1499687185767
 20
-749.134347171781
 30
0.0
 40
27.99999999999994
100
AcDbArc
 50
-164.6411144191765
 51
-144.6498728594596
  0
ARC
  5
5E
330
33
100
AcDbEntity
  8
1
  6
Continuous
 62
     3
100
AcDbCircle
 10
451.1499687185767
 20
-781.5343471717811
 30
0.0
 40
27.99999999999987
100
AcDbArc
 50
144.6498728594596
 51
164.6411144191765
  0
ARC
  5
5F
330
33
100
AcDbEntity
  8
1
  6
Continuous
 62
     3
100
AcDbCircle
 10
447.2217654883018
 20
-736.334347171781
 30
0.0
 40
4.99999999999982
100
AcDbArc
 50
-120.0000000000012
 51
-90.0
  0
ARC
  5
60
330
33
100
AcDbEntity
  8
1
  6
Continuous
 62
     3
100
AcDbCircle
 10
499.6499687185769
 20
-738.834347171781
 30
0.0
 40
2.000000000000164
100
AcDbArc
 50
60.00000000000272
 51
90.0
  0
ARC
  5
61
330
33
100
AcDbEntity
  8
1
  6
Continuous
 62
     3
100
AcDbCircle
 10
447.2217654883018
 20
-794.334347171781
 30
0.0
 40
5.0
100
AcDbArc
 50
90.0
 51
119.9999999999999
  0
ARC
  5
62
330
33
100
AcDbEntity
  8
1
  6
Continuous
 62
     3
100
AcDbCircle
 10
499.6499687185769
 20
-791.834347171781
 30
0.0
 40
2.0
100
AcDbArc
 50
-90.0
 51
-59.99999999999946
  0
ARC
  5
63
330
33
100
AcDbEntity
  8
1
  6
Continuous
 62
     3
100
AcDbCircle
 10
451.8952224534389
 20
-736.334347171781
 30
0.0
 40
5.0
100
AcDbArc
 50
-90.0
 51
-69.90603333371577
  0
ARC
  5
64
330
33
100
AcDbEntity
  8
1
  6
Continuous
 62
     3
100
AcDbCircle
 10
451.8952224534389
 20
-794.334347171781
 30
0.0
 40
5.000000000000161
100
AcDbArc
 50
69.90603333371577
 51
90.0
  0
ENDBLK
  5
35
330
33
100
AcDbEntity
  8
0
100
AcDbBlockEnd
  0
BLOCK
  5
37
330
36
100
AcDbEntity
  8
0
100
AcDbBlockBegin
  2
_4
 70
     0
 71
     0
 10
334.9703936029752
 20
-273.63030285773
 30
0.0
  3
_4
  1

  0
LINE
  5
65
330
36
100
AcDbEntity
  8
1
  6
Continuous
 62
     3
100
AcDbLine
 10
570.1424926998069
 20
-848.7899458213511
 30
0.0
 11
570.1424926998069
 21
-843.7899458213511
 31
0.0
  0
LINE
  5
66
330
36
100
AcDbEntity
  8
1
  6
Continuous
 62
     3
100
AcDbLine
 10
597.1424926998068
 20
-843.7899458213511
 30
0.0
 11
597.1424926998068
 21
-848.7899458213511
 31
0.0
  0
LINE
  5
67
330
36
100
AcDbEntity
  8
1
  6
Continuous
 62
     3
100
AcDbLine
 10
576.8037796451164
 20
-837.2899458213511
 30
0.0
 11
576.8037796451164
 21
-843.7899458213511
 31
0.0
  0
LINE
  5
68
330
36
100
AcDbEntity
  8
1
  6
Continuous
 62
     3
100
AcDbLine
 10
569.732711833251
 20
-843.7899458213511
 30
0.0
 11
569.732711833251
 21
-837.2899458213511
 31
0.0
  0
LINE
  5
69
330
36
100
AcDbEntity
  8
1
  6
Continuous
 62
     3
100
AcDbLine
 10
583.6424926998068
 20
-837.2899458213511
 30
0.0
 11
569.732711833251
 21
-837.2899458213511
 31
0.0
  0
LINE
  5
6A
330
36
100
AcDbEntity
  8
1
  6
Continuous
 62
     3
100
AcDbLine
 10
578.3109526802555
 20
-837.2899458213511
 30
0.0
 11
578.3109526802555
 21
-843.7899458213511
 31
0.0
  0
LINE
  5
6B
330
36
100
AcDbEntity
  8
1
  6
Continuous
 62
     3
100
AcDbLine
 10
578.3109526802555
 20
-843.7899458213511
 30
0.0
 11
569.732711833251
 21
-843.7899458213511
 31
0.0
  0
LINE
  5
6C
330
36
100
AcDbEntity
  8
1
  6
Continuous
 62
     3
100
AcDbLine
 10
588.9740327193582
 20
-843.7899458213511
 30
0.0
 11
588.9740327193582
 21
-837.2899458213511
 31
0.0
  0
LINE
  5
6D
330
36
100
AcDbEntity
  8
1
  6
Continuous
 62
     3
100
AcDbLine
 10
590.4812057544972
 20
-843.7899458213511
 30
0.0
 11
590.4812057544972
 21
-837.2899458213511
 31
0.0
  0
LINE
  5
6E
330
36
100
AcDbEntity
  8
1
  6
Continuous
 62
     3
100
AcDbLine
 10
597.5522735663627
 20
-837.2899458213511
 30
0.0
 11
583.6424926998068
 21
-837.2899458213511
 31
0.0
  0
LINE
  5
6F
330
36
100
AcDbEntity
  8
1
  6
Continuous
 62
     3
100
AcDbLine
 10
597.5522735663627
 20
-843.7899458213511
 30
0.0
 11
588.9740327193582
 21
-843.7899458213511
 31
0.0
  0
LINE
  5
70
330
36
100
AcDbEntity
  8
1
  6
Continuous
 62
     3
100
AcDbLine
 10
597.5522735663627
 20
-837.2899458213511
 30
0.0
 11
597.5522735663627
 21
-843.7899458213511
 31
0.0
  0
LINE
  5
71
330
36
100
AcDbEntity
  8
1
  6
Continuous
 62
     3
100
AcDbLine
 10
485.5597495851329
 20
-837.2899458213511
 30
0.0
 11
471.649968718577
 21
-837.2899458213511
 31
0.0
  0
LINE
  5
72
330
36
100
AcDbEntity
  8
1
  6
Continuous
 62
     3
100
AcDbLine
 10
485.5597495851329
 20
-837.2899458213511
 30
0.0
 11
485.5597495851329
 21
-843.7899458213511
 31
0.0
  0
LINE
  5
73
330
36
100
AcDbEntity
  8
1
  6
Continuous
 62
     3
100
AcDbLine
 10
485.149968718577
 20
-843.7899458213511
 30
0.0
 11
485.149968718577
 21
-848.7899458213511
 31
0.0
  0
LINE
  5
74
330
36
100
AcDbEntity
  8
1
  6
Continuous
 62
     3
100
AcDbLine
 10
458.1499687185771
 20
-848.7899458213511
 30
0.0
 11
458.1499687185771
 21
-843.7899458213511
 31
0.0
  0
LINE
  5
75
330
36
100
AcDbEntity
  8
1
  6
Continuous
 62
     3
100
AcDbLine
 10
464.8112556638867
 20
-837.2899458213511
 30
0.0
 11
464.8112556638867
 21
-843.7899458213511
 31
0.0
  0
LINE
  5
76
330
36
100
AcDbEntity
  8
1
  6
Continuous
 62
     3
100
AcDbLine
 10
457.7401878520212
 20
-843.7899458213511
 30
0.0
 11
457.7401878520212
 21
-837.2899458213511
 31
0.0
  0
LINE
  5
77
330
36
100
AcDbEntity
  8
1
  6
Continuous
 62
     3
100
AcDbLine
 10
471.649968718577
 20
-837.2899458213511
 30
0.0
 11
457.7401878520212
 21
-837.2899458213511
 31
0.0
  0
LINE
  5
78
330
36
100
AcDbEntity
  8
1
  6
Continuous
 62
     3
100
AcDbLine
 10
466.3184286990257
 20
-837.2899458213511
 30
0.0
 11
466.3184286990257
 21
-843.7899458213511
 31
0.0
  0
LINE
  5
79
330
36
100
AcDbEntity
  8
1
  6
Continuous
 62
     3
100
AcDbLine
 10
466.3184286990257
 20
-843.7899458213511
 30
0.0
 11
457.7401878520212
 21
-843.7899458213511
 31
0.0
  0
LINE
  5
7A
330
36
100
AcDbEntity
  8
1
  6
Continuous
 62
     3
100
AcDbLine
 10
476.9815087381284
 20
-843.7899458213511
 30
0.0
 11
476.9815087381284
 21
-837.2899458213511
 31
0.0
  0
LINE
  5
7B
330
36
100
AcDbEntity
  8
1
  6
Continuous
 62
     3
100
AcDbLine
 10
478.4886817732674
 20
-843.7899458213511
 30
0.0
 11
478.4886817732674
 21
-837.2899458213511
 31
0.0
  0
LINE
  5
7C
330
36
100
AcDbEntity
  8
1
  6
Continuous
 62
     3
100
AcDbLine
 10
485.5597495851329
 20
-843.7899458213511
 30
0.0
 11
476.9815087381284
 21
-843.7899458213511
 31
0.0
  0
LINE
  5
7D
330
36
100
AcDbEntity
  8
1
  6
Continuous
 62
     3
100
AcDbLine
 10
372.0597495851334
 20
-837.2899458213511
 30
0.0
 11
372.0597495851334
 21
-843.7899458213511
 31
0.0
  0
LINE
  5
7E
330
36
100
AcDbEntity
  8
1
  6
Continuous
 62
     3
100
AcDbLine
 10
372.0597495851334
 20
-843.7899458213511
 30
0.0
 11
363.4815087381289
 21
-843.7899458213511
 31
0.0
  0
LINE
  5
7F
330
36
100
AcDbEntity
  8
1
  6
Continuous
 62
     3
100
AcDbLine
 10
372.0597495851334
 20
-837.2899458213511
 30
0.0
 11
358.1499687185775
 21
-837.2899458213511
 31
0.0
  0
LINE
  5
80
330
36
100
AcDbEntity
  8
1
  6
Continuous
 62
     3
100
AcDbLine
 10
364.9886817732678
 20
-843.7899458213511
 30
0.0
 11
364.9886817732678
 21
-837.2899458213511
 31
0.0
  0
LINE
  5
81
330
36
100
AcDbEntity
  8
1
  6
Continuous
 62
     3
100
AcDbLine
 10
363.4815087381289
 20
-843.7899458213511
 30
0.0
 11
363.4815087381289
 21
-837.2899458213511
 31
0.0
  0
LINE
  5
82
330
36
100
AcDbEntity
  8
1
  6
Continuous
 62
     3
100
AcDbLine
 10
352.8184286990261
 20
-843.7899458213511
 30
0.0
 11
344.2401878520216
 21
-843.7899458213511
 31
0.0
  0
LINE
  5
83
330
36
100
AcDbEntity
  8
1
  6
Continuous
 62
     3
100
AcDbLine
 10
352.8184286990261
 20
-837.2899458213511
 30
0.0
 11
352.8184286990261
 21
-843.7899458213511
 31
0.0
  0
LINE
  5
84
330
36
100
AcDbEntity
  8
1
  6
Continuous
 62
     3
100
AcDbLine
 10
358.1499687185775
 20
-837.2899458213511
 30
0.0
 11
344.2401878520216
 21
-837.2899458213511
 31
0.0
  0
LINE
  5
85
330
36
100
AcDbEntity
  8
1
  6
Continuous
 62
     3
100
AcDbLine
 10
344.2401878520216
 20
-843.7899458213511
 30
0.0
 11
344.2401878520216
 21
-837.2899458213511
 31
0.0
  0
LINE
  5
86
330
36
100
AcDbEntity
  8
1
  6
Continuous
 62
     3
100
AcDbLine
 10
351.3112556638871
 20
-837.2899458213511
 30
0.0
 11
351.3112556638871
 21
-843.7899458213511
 31
0.0
  0
LINE
  5
87
330
36
100
AcDbEntity
  8
1
  6
Continuous
 62
     3
100
AcDbLine
 10
371.6499687185775
 20
-843.7899458213511
 30
0.0
 11
371.6499687185775
 21
-848.7899458213511
 31
0.0
  0
LINE
  5
88
330
36
100
AcDbEntity
  8
1
  6
Continuous
 62
     3
100
AcDbLine
 10
344.6499687185775
 20
-848.7899458213511
 30
0.0
 11
344.6499687185775
 21
-843.7899458213511
 31
0.0
  0
LINE
  5
89
330
36
100
AcDbEntity
  8
1
  6
Continuous
 62
     3
100
AcDbLine
 10
679.2327118332512
 20
-843.7899458213511
 30
0.0
 11
679.2327118332512
 21
-837.2899458213511
 31
0.0
  0
LINE
  5
8A
330
36
100
AcDbEntity
  8
1
  6
Continuous
 62
     3
100
AcDbLine
 10
687.8109526802558
 20
-843.7899458213511
 30
0.0
 11
679.2327118332512
 21
-843.7899458213511
 31
0.0
  0
LINE
  5
8B
330
36
100
AcDbEntity
  8
1
  6
Continuous
 62
     3
100
AcDbLine
 10
693.1424926998072
 20
-837.2899458213511
 30
0.0
 11
679.2327118332512
 21
-837.2899458213511
 31
0.0
  0
LINE
  5
8C
330
36
100
AcDbEntity
  8
1
  6
Continuous
 62
     3
100
AcDbLine
 10
686.3037796451167
 20
-837.2899458213511
 30
0.0
 11
686.3037796451167
 21
-843.7899458213511
 31
0.0
  0
LINE
  5
8D
330
36
100
AcDbEntity
  8
1
  6
Continuous
 62
     3
100
AcDbLine
 10
687.8109526802558
 20
-837.2899458213511
 30
0.0
 11
687.8109526802558
 21
-843.7899458213511
 31
0.0
  0
LINE
  5
8E
330
36
100
AcDbEntity
  8
1
  6
Continuous
 62
     3
100
AcDbLine
 10
707.0522735663632
 20
-843.7899458213511
 30
0.0
 11
698.4740327193587
 21
-843.7899458213511
 31
0.0
  0
LINE
  5
8F
330
36
100
AcDbEntity
  8
1
  6
Continuous
 62
     3
100
AcDbLine
 10
698.4740327193587
 20
-843.7899458213511
 30
0.0
 11
698.4740327193587
 21
-837.2899458213511
 31
0.0
  0
LINE
  5
90
330
36
100
AcDbEntity
  8
1
  6
Continuous
 62
     3
100
AcDbLine
 10
707.0522735663632
 20
-837.2899458213511
 30
0.0
 11
693.1424926998072
 21
-837.2899458213511
 31
0.0
  0
LINE
  5
91
330
36
100
AcDbEntity
  8
1
  6
Continuous
 62
     3
100
AcDbLine
 10
707.0522735663632
 20
-837.2899458213511
 30
0.0
 11
707.0522735663632
 21
-843.7899458213511
 31
0.0
  0
LINE
  5
92
330
36
100
AcDbEntity
  8
1
  6
Continuous
 62
     3
100
AcDbLine
 10
699.9812057544976
 20
-843.7899458213511
 30
0.0
 11
699.9812057544976
 21
-837.2899458213511
 31
0.0
  0
LINE
  5
93
330
36
100
AcDbEntity
  8
1
  6
Continuous
 62
     3
100
AcDbLine
 10
706.6424926998072
 20
-843.7899458213511
 30
0.0
 11
706.6424926998072
 21
-848.7899458213511
 31
0.0
  0
LINE
  5
94
330
36
100
AcDbEntity
  8
1
  6
Continuous
 62
     3
100
AcDbLine
 10
679.6424926998072
 20
-848.7899458213511
 30
0.0
 11
679.6424926998072
 21
-843.7899458213511
 31
0.0
  0
ENDBLK
  5
38
330
36
100
AcDbEntity
  8
0
100
AcDbBlockEnd
  0
BLOCK
  5
3A
330
39
100
AcDbEntity
  8
0
100
AcDbBlockBegin
  2
_5
 70
     0
 71
     0
 10
342.880174469531
 20
-262.13030285773
 30
0.0
  3
_5
  1

  0
LINE
  5
95
330
39
100
AcDbEntity
  8
1
  6
Continuous
 62
     3
100
AcDbLine
 10
577.6424926998068
 20
-833.7899458213512
 30
0.0
 11
577.6424926998069
 21
-837.2899458213511
 31
0.0
  0
LINE
  5
96
330
39
100
AcDbEntity
  8
1
  6
Continuous
 62
     3
100
AcDbLine
 10
589.6424926998068
 20
-833.7899458213512
 30
0.0
 11
589.6424926998068
 21
-837.2899458213511
 31
0.0
  0
LINE
  5
97
330
39
100
AcDbEntity
  8
1
  6
Continuous
 62
     3
100
AcDbLine
 10
588.3924926998069
 20
-825.2899458213511
 30
0.0
 11
588.3924926998068
 21
-833.7899458213512
 31
0.0
  0
LINE
  5
98
330
39
100
AcDbEntity
  8
1
  6
Continuous
 62
     3
100
AcDbLine
 10
578.8924926998068
 20
-833.7899458213512
 30
0.0
 11
577.6424926998068
 21
-833.7899458213512
 31
0.0
  0
LINE
  5
99
330
39
100
AcDbEntity
  8
1
  6
Continuous
 62
     3
100
AcDbLine
 10
588.3924926998068
 20
-833.7899458213512
 30
0.0
 11
587.3082122744605
 21
-833.7899458213512
 31
0.0
  0
LINE
  5
9A
330
39
100
AcDbEntity
  8
1
  6
Continuous
 62
     3
100
AcDbLine
 10
589.6424926998068
 20
-833.7899458213512
 30
0.0
 11
588.3924926998068
 21
-833.7899458213512
 31
0.0
  0
LINE
  5
9B
330
39
100
AcDbEntity
  8
1
  6
Continuous
 62
     3
100
AcDbLine
 10
588.3924926998069
 20
-824.0786209559458
 30
0.0
 11
588.3924926998068
 21
-824.7999458213512
 31
0.0
  0
LINE
  5
9C
330
39
100
AcDbEntity
  8
1
  6
Continuous
 62
     3
100
AcDbLine
 10
587.8924926998068
 20
-823.7899458213511
 30
0.0
 11
579.3924926998068
 21
-823.7899458213511
 31
0.0
  0
LINE
  5
9D
330
39
100
AcDbEntity
  8
1
  6
Continuous
 62
     3
100
AcDbLine
 10
587.3082122744605
 20
-833.7899458213512
 30
0.0
 11
587.3082122744605
 21
-824.7999458213512
 31
0.0
  0
LINE
  5
9E
330
39
100
AcDbEntity
  8
1
  6
Continuous
 62
     3
100
AcDbLine
 10
578.8924926998068
 20
-833.7899458213512
 30
0.0
 11
578.8924926998068
 21
-824.7999458213512
 31
0.0
  0
LINE
  5
9F
330
39
100
AcDbEntity
  8
1
  6
Continuous
 62
     3
100
AcDbLine
 10
588.3924926998069
 20
-824.0786209559458
 30
0.0
 11
587.8924926998068
 21
-823.7899458213511
 31
0.0
  0
LINE
  5
A0
330
39
100
AcDbEntity
  8
1
  6
Continuous
 62
     3
100
AcDbLine
 10
579.3924926998068
 20
-823.7899458213511
 30
0.0
 11
578.8924926998068
 21
-824.0786209559458
 31
0.0
  0
LINE
  5
A1
330
39
100
AcDbEntity
  8
1
  6
Continuous
 62
     3
100
AcDbLine
 10
579.9767731251529
 20
-824.7999458213512
 30
0.0
 11
578.8924926998068
 21
-824.7999458213512
 31
0.0
  0
LINE
  5
A2
330
39
100
AcDbEntity
  8
1
  6
Continuous
 62
     3
100
AcDbLine
 10
579.9767731251529
 20
-824.7999458213512
 30
0.0
 11
579.9767731251529
 21
-833.7899458213512
 31
0.0
  0
LINE
  5
A3
330
39
100
AcDbEntity
  8
1
  6
Continuous
 62
     3
100
AcDbLine
 10
578.8924926998068
 20
-824.7999458213512
 30
0.0
 11
578.8924926998068
 21
-824.0786209559458
 31
0.0
  0
LINE
  5
A4
330
39
100
AcDbEntity
  8
1
  6
Continuous
 62
     3
100
AcDbLine
 10
588.3924926998068
 20
-824.7999458213512
 30
0.0
 11
587.3082122744605
 21
-824.7999458213512
 31
0.0
  0
LINE
  5
A5
330
39
100
AcDbEntity
  8
1
  6
Continuous
 62
     3
100
AcDbLine
 10
588.3924926998068
 20
-824.7999458213512
 30
0.0
 11
588.3924926998069
 21
-825.2899458213511
 31
0.0
  0
LINE
  5
A6
330
39
100
AcDbEntity
  8
1
  6
Continuous
 62
     1
100
AcDbLine
 10
587.3082122744605
 20
-824.7999458213512
 30
0.0
 11
579.9767731251529
 21
-833.7899458213512
 31
0.0
  0
LINE
  5
A7
330
39
100
AcDbEntity
  8
1
  6
Continuous
 62
     3
100
AcDbLine
 10
579.9767731251529
 20
-833.7899458213512
 30
0.0
 11
578.8924926998068
 21
-833.7899458213512
 31
0.0
  0
LINE
  5
A8
330
39
100
AcDbEntity
  8
1
  6
Continuous
 62
     1
100
AcDbLine
 10
587.3082122744605
 20
-833.7899458213512
 30
0.0
 11
579.9767731251529
 21
-824.7999458213512
 31
0.0
  0
LINE
  5
A9
330
39
100
AcDbEntity
  8
1
  6
Continuous
 62
     3
100
AcDbLine
 10
587.3082122744605
 20
-833.7899458213512
 30
0.0
 11
579.9767731251529
 21
-833.7899458213512
 31
0.0
  0
LINE
  5
AA
330
39
100
AcDbEntity
  8
1
  6
Continuous
 62
     3
100
AcDbLine
 10
361.8156882932312
 20
-833.7899458213512
 30
0.0
 11
354.4842491439236
 21
-833.7899458213512
 31
0.0
  0
LINE
  5
AB
330
39
100
AcDbEntity
  8
1
  6
Continuous
 62
     1
100
AcDbLine
 10
361.8156882932312
 20
-833.7899458213512
 30
0.0
 11
354.4842491439236
 21
-824.7999458213512
 31
0.0
  0
LINE
  5
AC
330
39
100
AcDbEntity
  8
1
  6
Continuous
 62
     3
100
AcDbLine
 10
354.4842491439236
 20
-833.7899458213512
 30
0.0
 11
353.3999687185775
 21
-833.7899458213512
 31
0.0
  0
LINE
  5
AD
330
39
100
AcDbEntity
  8
1
  6
Continuous
 62
     1
100
AcDbLine
 10
361.8156882932312
 20
-824.7999458213512
 30
0.0
 11
354.4842491439236
 21
-833.7899458213512
 31
0.0
  0
LINE
  5
AE
330
39
100
AcDbEntity
  8
1
  6
Continuous
 62
     3
100
AcDbLine
 10
362.8999687185775
 20
-824.7999458213512
 30
0.0
 11
362.8999687185775
 21
-825.2899458213511
 31
0.0
  0
LINE
  5
AF
330
39
100
AcDbEntity
  8
1
  6
Continuous
 62
     3
100
AcDbLine
 10
362.8999687185775
 20
-824.7999458213512
 30
0.0
 11
361.8156882932312
 21
-824.7999458213512
 31
0.0
  0
LINE
  5
B0
330
39
100
AcDbEntity
  8
1
  6
Continuous
 62
     3
100
AcDbLine
 10
353.3999687185775
 20
-824.7999458213512
 30
0.0
 11
353.3999687185775
 21
-824.0786209559458
 31
0.0
  0
LINE
  5
B1
330
39
100
AcDbEntity
  8
1
  6
Continuous
 62
     3
100
AcDbLine
 10
354.4842491439236
 20
-824.7999458213512
 30
0.0
 11
354.4842491439236
 21
-833.7899458213512
 31
0.0
  0
LINE
  5
B2
330
39
100
AcDbEntity
  8
1
  6
Continuous
 62
     3
100
AcDbLine
 10
354.4842491439236
 20
-824.7999458213512
 30
0.0
 11
353.3999687185775
 21
-824.7999458213512
 31
0.0
  0
LINE
  5
B3
330
39
100
AcDbEntity
  8
1
  6
Continuous
 62
     3
100
AcDbLine
 10
353.8999687185775
 20
-823.7899458213511
 30
0.0
 11
353.3999687185775
 21
-824.0786209559458
 31
0.0
  0
LINE
  5
B4
330
39
100
AcDbEntity
  8
1
  6
Continuous
 62
     3
100
AcDbLine
 10
362.8999687185775
 20
-824.0786209559458
 30
0.0
 11
362.3999687185775
 21
-823.7899458213511
 31
0.0
  0
LINE
  5
B5
330
39
100
AcDbEntity
  8
1
  6
Continuous
 62
     3
100
AcDbLine
 10
353.3999687185775
 20
-833.7899458213512
 30
0.0
 11
353.3999687185775
 21
-824.7999458213512
 31
0.0
  0
LINE
  5
B6
330
39
100
AcDbEntity
  8
1
  6
Continuous
 62
     3
100
AcDbLine
 10
361.8156882932312
 20
-833.7899458213512
 30
0.0
 11
361.8156882932312
 21
-824.7999458213512
 31
0.0
  0
LINE
  5
B7
330
39
100
AcDbEntity
  8
1
  6
Continuous
 62
     3
100
AcDbLine
 10
362.3999687185775
 20
-823.7899458213511
 30
0.0
 11
353.8999687185775
 21
-823.7899458213511
 31
0.0
  0
LINE
  5
B8
330
39
100
AcDbEntity
  8
1
  6
Continuous
 62
     3
100
AcDbLine
 10
362.8999687185775
 20
-824.0786209559458
 30
0.0
 11
362.8999687185775
 21
-824.7999458213512
 31
0.0
  0
LINE
  5
B9
330
39
100
AcDbEntity
  8
1
  6
Continuous
 62
     3
100
AcDbLine
 10
364.1499687185775
 20
-833.7899458213512
 30
0.0
 11
362.8999687185775
 21
-833.7899458213512
 31
0.0
  0
LINE
  5
BA
330
39
100
AcDbEntity
  8
1
  6
Continuous
 62
     3
100
AcDbLine
 10
362.8999687185775
 20
-833.7899458213512
 30
0.0
 11
361.8156882932312
 21
-833.7899458213512
 31
0.0
  0
LINE
  5
BB
330
39
100
AcDbEntity
  8
1
  6
Continuous
 62
     3
100
AcDbLine
 10
353.3999687185775
 20
-833.7899458213512
 30
0.0
 11
352.1499687185775
 21
-833.7899458213512
 31
0.0
  0
LINE
  5
BC
330
39
100
AcDbEntity
  8
1
  6
Continuous
 62
     3
100
AcDbLine
 10
362.8999687185775
 20
-825.2899458213511
 30
0.0
 11
362.8999687185775
 21
-833.7899458213512
 31
0.0
  0
LINE
  5
BD
330
39
100
AcDbEntity
  8
1
  6
Continuous
 62
     3
100
AcDbLine
 10
364.1499687185775
 20
-833.7899458213512
 30
0.0
 11
364.1499687185775
 21
-837.2899458213511
 31
0.0
  0
LINE
  5
BE
330
39
100
AcDbEntity
  8
1
  6
Continuous
 62
     3
100
AcDbLine
 10
352.1499687185775
 20
-833.7899458213512
 30
0.0
 11
352.1499687185775
 21
-837.2899458213511
 31
0.0
  0
LINE
  5
BF
330
39
100
AcDbEntity
  8
1
  6
Continuous
 62
     3
100
AcDbLine
 10
476.3999687185771
 20
-825.2899458213511
 30
0.0
 11
476.399968718577
 21
-833.7899458213512
 31
0.0
  0
LINE
  5
C0
330
39
100
AcDbEntity
  8
1
  6
Continuous
 62
     3
100
AcDbLine
 10
476.399968718577
 20
-833.7899458213512
 30
0.0
 11
475.3156882932307
 21
-833.7899458213512
 31
0.0
  0
LINE
  5
C1
330
39
100
AcDbEntity
  8
1
  6
Continuous
 62
     3
100
AcDbLine
 10
477.649968718577
 20
-833.7899458213512
 30
0.0
 11
476.399968718577
 21
-833.7899458213512
 31
0.0
  0
LINE
  5
C2
330
39
100
AcDbEntity
  8
1
  6
Continuous
 62
     3
100
AcDbLine
 10
476.3999687185771
 20
-824.0786209559458
 30
0.0
 11
476.399968718577
 21
-824.7999458213512
 31
0.0
  0
LINE
  5
C3
330
39
100
AcDbEntity
  8
1
  6
Continuous
 62
     3
100
AcDbLine
 10
475.899968718577
 20
-823.7899458213511
 30
0.0
 11
467.399968718577
 21
-823.7899458213511
 31
0.0
  0
LINE
  5
C4
330
39
100
AcDbEntity
  8
1
  6
Continuous
 62
     3
100
AcDbLine
 10
475.3156882932307
 20
-833.7899458213512
 30
0.0
 11
475.3156882932307
 21
-824.7999458213512
 31
0.0
  0
LINE
  5
C5
330
39
100
AcDbEntity
  8
1
  6
Continuous
 62
     3
100
AcDbLine
 10
466.899968718577
 20
-833.7899458213512
 30
0.0
 11
466.899968718577
 21
-824.7999458213512
 31
0.0
  0
LINE
  5
C6
330
39
100
AcDbEntity
  8
1
  6
Continuous
 62
     3
100
AcDbLine
 10
476.3999687185771
 20
-824.0786209559458
 30
0.0
 11
475.899968718577
 21
-823.7899458213511
 31
0.0
  0
LINE
  5
C7
330
39
100
AcDbEntity
  8
1
  6
Continuous
 62
     3
100
AcDbLine
 10
467.399968718577
 20
-823.7899458213511
 30
0.0
 11
466.899968718577
 21
-824.0786209559458
 31
0.0
  0
LINE
  5
C8
330
39
100
AcDbEntity
  8
1
  6
Continuous
 62
     3
100
AcDbLine
 10
467.9842491439231
 20
-824.7999458213512
 30
0.0
 11
466.899968718577
 21
-824.7999458213512
 31
0.0
  0
LINE
  5
C9
330
39
100
AcDbEntity
  8
1
  6
Continuous
 62
     3
100
AcDbLine
 10
467.9842491439231
 20
-824.7999458213512
 30
0.0
 11
467.9842491439231
 21
-833.7899458213512
 31
0.0
  0
LINE
  5
CA
330
39
100
AcDbEntity
  8
1
  6
Continuous
 62
     3
100
AcDbLine
 10
466.899968718577
 20
-824.7999458213512
 30
0.0
 11
466.899968718577
 21
-824.0786209559458
 31
0.0
  0
LINE
  5
CB
330
39
100
AcDbEntity
  8
1
  6
Continuous
 62
     3
100
AcDbLine
 10
476.399968718577
 20
-824.7999458213512
 30
0.0
 11
475.3156882932307
 21
-824.7999458213512
 31
0.0
  0
LINE
  5
CC
330
39
100
AcDbEntity
  8
1
  6
Continuous
 62
     3
100
AcDbLine
 10
476.399968718577
 20
-824.7999458213512
 30
0.0
 11
476.3999687185771
 21
-825.2899458213511
 31
0.0
  0
LINE
  5
CD
330
39
100
AcDbEntity
  8
1
  6
Continuous
 62
     1
100
AcDbLine
 10
475.3156882932307
 20
-824.7999458213512
 30
0.0
 11
467.9842491439231
 21
-833.7899458213512
 31
0.0
  0
LINE
  5
CE
330
39
100
AcDbEntity
  8
1
  6
Continuous
 62
     3
100
AcDbLine
 10
467.9842491439231
 20
-833.7899458213512
 30
0.0
 11
466.899968718577
 21
-833.7899458213512
 31
0.0
  0
LINE
  5
CF
330
39
100
AcDbEntity
  8
1
  6
Continuous
 62
     1
100
AcDbLine
 10
475.3156882932307
 20
-833.7899458213512
 30
0.0
 11
467.9842491439231
 21
-824.7999458213512
 31
0.0
  0
LINE
  5
D0
330
39
100
AcDbEntity
  8
1
  6
Continuous
 62
     3
100
AcDbLine
 10
475.3156882932307
 20
-833.7899458213512
 30
0.0
 11
467.9842491439231
 21
-833.7899458213512
 31
0.0
  0
LINE
  5
D1
330
39
100
AcDbEntity
  8
1
  6
Continuous
 62
     3
100
AcDbLine
 10
477.649968718577
 20
-833.7899458213512
 30
0.0
 11
477.649968718577
 21
-837.2899458213511
 31
0.0
  0
LINE
  5
D2
330
39
100
AcDbEntity
  8
1
  6
Continuous
 62
     3
100
AcDbLine
 10
465.649968718577
 20
-833.7899458213512
 30
0.0
 11
465.6499687185771
 21
-837.2899458213511
 31
0.0
  0
LINE
  5
D3
330
39
100
AcDbEntity
  8
1
  6
Continuous
 62
     3
100
AcDbLine
 10
466.899968718577
 20
-833.7899458213512
 30
0.0
 11
465.649968718577
 21
-833.7899458213512
 31
0.0
  0
LINE
  5
D4
330
39
100
AcDbEntity
  8
1
  6
Continuous
 62
     3
100
AcDbLine
 10
696.808212274461
 20
-833.7899458213512
 30
0.0
 11
689.4767731251534
 21
-833.7899458213512
 31
0.0
  0
LINE
  5
D5
330
39
100
AcDbEntity
  8
1
  6
Continuous
 62
     1
100
AcDbLine
 10
696.808212274461
 20
-824.7999458213512
 30
0.0
 11
689.4767731251534
 21
-833.7899458213512
 31
0.0
  0
LINE
  5
D6
330
39
100
AcDbEntity
  8
1
  6
Continuous
 62
     3
100
AcDbLine
 10
697.8924926998072
 20
-833.7899458213512
 30
0.0
 11
696.808212274461
 21
-833.7899458213512
 31
0.0
  0
LINE
  5
D7
330
39
100
AcDbEntity
  8
1
  6
Continuous
 62
     1
100
AcDbLine
 10
696.808212274461
 20
-833.7899458213512
 30
0.0
 11
689.4767731251534
 21
-824.7999458213512
 31
0.0
  0
LINE
  5
D8
330
39
100
AcDbEntity
  8
1
  6
Continuous
 62
     3
100
AcDbLine
 10
688.3924926998072
 20
-825.2899458213511
 30
0.0
 11
688.3924926998072
 21
-824.7999458213512
 31
0.0
  0
LINE
  5
D9
330
39
100
AcDbEntity
  8
1
  6
Continuous
 62
     3
100
AcDbLine
 10
689.4767731251534
 20
-824.7999458213512
 30
0.0
 11
688.3924926998072
 21
-824.7999458213512
 31
0.0
  0
LINE
  5
DA
330
39
100
AcDbEntity
  8
1
  6
Continuous
 62
     3
100
AcDbLine
 10
697.8924926998072
 20
-824.0786209559458
 30
0.0
 11
697.8924926998072
 21
-824.7999458213512
 31
0.0
  0
LINE
  5
DB
330
39
100
AcDbEntity
  8
1
  6
Continuous
 62
     3
100
AcDbLine
 10
696.808212274461
 20
-833.7899458213512
 30
0.0
 11
696.808212274461
 21
-824.7999458213512
 31
0.0
  0
LINE
  5
DC
330
39
100
AcDbEntity
  8
1
  6
Continuous
 62
     3
100
AcDbLine
 10
697.8924926998072
 20
-824.7999458213512
 30
0.0
 11
696.808212274461
 21
-824.7999458213512
 31
0.0
  0
LINE
  5
DD
330
39
100
AcDbEntity
  8
1
  6
Continuous
 62
     3
100
AcDbLine
 10
697.8924926998072
 20
-824.0786209559458
 30
0.0
 11
697.3924926998072
 21
-823.7899458213511
 31
0.0
  0
LINE
  5
DE
330
39
100
AcDbEntity
  8
1
  6
Continuous
 62
     3
100
AcDbLine
 10
688.8924926998072
 20
-823.7899458213511
 30
0.0
 11
688.3924926998072
 21
-824.0786209559458
 31
0.0
  0
LINE
  5
DF
330
39
100
AcDbEntity
  8
1
  6
Continuous
 62
     3
100
AcDbLine
 10
697.8924926998072
 20
-824.7999458213512
 30
0.0
 11
697.8924926998072
 21
-833.7899458213512
 31
0.0
  0
LINE
  5
E0
330
39
100
AcDbEntity
  8
1
  6
Continuous
 62
     3
100
AcDbLine
 10
689.4767731251534
 20
-824.7999458213512
 30
0.0
 11
689.4767731251534
 21
-833.7899458213512
 31
0.0
  0
LINE
  5
E1
330
39
100
AcDbEntity
  8
1
  6
Continuous
 62
     3
100
AcDbLine
 10
697.3924926998072
 20
-823.7899458213511
 30
0.0
 11
688.8924926998072
 21
-823.7899458213511
 31
0.0
  0
LINE
  5
E2
330
39
100
AcDbEntity
  8
1
  6
Continuous
 62
     3
100
AcDbLine
 10
688.3924926998072
 20
-824.7999458213512
 30
0.0
 11
688.3924926998072
 21
-824.0786209559458
 31
0.0
  0
LINE
  5
E3
330
39
100
AcDbEntity
  8
1
  6
Continuous
 62
     3
100
AcDbLine
 10
689.4767731251534
 20
-833.7899458213512
 30
0.0
 11
688.3924926998072
 21
-833.7899458213512
 31
0.0
  0
LINE
  5
E4
330
39
100
AcDbEntity
  8
1
  6
Continuous
 62
     3
100
AcDbLine
 10
688.3924926998072
 20
-833.7899458213512
 30
0.0
 11
688.3924926998072
 21
-825.2899458213511
 31
0.0
  0
LINE
  5
E5
330
39
100
AcDbEntity
  8
1
  6
Continuous
 62
     3
100
AcDbLine
 10
699.1424926998072
 20
-837.2899458213511
 30
0.0
 11
699.1424926998072
 21
-833.7899458213512
 31
0.0
  0
LINE
  5
E6
330
39
100
AcDbEntity
  8
1
  6
Continuous
 62
     3
100
AcDbLine
 10
699.1424926998072
 20
-833.7899458213512
 30
0.0
 11
697.8924926998072
 21
-833.7899458213512
 31
0.0
  0
LINE
  5
E7
330
39
100
AcDbEntity
  8
1
  6
Continuous
 62
     3
100
AcDbLine
 10
688.3924926998072
 20
-833.7899458213512
 30
0.0
 11
687.1424926998072
 21
-833.7899458213512
 31
0.0
  0
LINE
  5
E8
330
39
100
AcDbEntity
  8
1
  6
Continuous
 62
     3
100
AcDbLine
 10
687.1424926998072
 20
-837.2899458213511
 30
0.0
 11
687.1424926998072
 21
-833.7899458213512
 31
0.0
  0
LINE
  5
E9
330
39
100
AcDbEntity
  8
1
  6
Continuous
 62
     3
100
AcDbLine
 10
467.9842491439231
 20
-760.584347171781
 30
0.0
 11
475.3156882932306
 21
-760.584347171781
 31
0.0
  0
LINE
  5
EA
330
39
100
AcDbEntity
  8
1
  6
Continuous
 62
     3
100
AcDbLine
 10
475.3156882932306
 20
-770.084347171781
 30
0.0
 11
467.9842491439231
 21
-770.084347171781
 31
0.0
  0
LINE
  5
EB
330
39
100
AcDbEntity
  8
1
  6
Continuous
 62
     3
100
AcDbLine
 10
476.399968718577
 20
-761.6686275971272
 30
0.0
 11
476.399968718577
 21
-764.334347171781
 31
0.0
  0
LINE
  5
EC
330
39
100
AcDbEntity
  8
1
  6
Continuous
 62
     3
100
AcDbLine
 10
466.899968718577
 20
-769.0000667464349
 30
0.0
 11
466.899968718577
 21
-761.6686275971272
 31
0.0
  0
LINE
  5
ED
330
39
100
AcDbEntity
  8
1
  6
Continuous
 62
     3
100
AcDbLine
 10
476.399968718577
 20
-764.334347171781
 30
0.0
 11
476.399968718577
 21
-769.0000667464349
 31
0.0
  0
ARC
  5
EE
330
39
100
AcDbEntity
  8
1
  6
Continuous
 62
     3
100
AcDbCircle
 10
583.6424926998068
 20
-833.7537411624367
 30
0.0
 40
9.675120206490595
100
AcDbArc
 50
67.73561128814158
 51
112.2643887118591
  0
ARC
  5
EF
330
39
100
AcDbEntity
  8
1
  6
Continuous
 62
     3
100
AcDbCircle
 10
358.1499687185775
 20
-833.7537411624367
 30
0.0
 40
9.675120206490574
100
AcDbArc
 50
67.7356112881419
 51
112.2643887118594
  0
ARC
  5
F0
330
39
100
AcDbEntity
  8
1
  6
Continuous
 62
     3
100
AcDbCircle
 10
471.649968718577
 20
-833.7537411624367
 30
0.0
 40
9.675120206490595
100
AcDbArc
 50
67.73561128814158
 51
112.2643887118594
  0
ARC
  5
F1
330
39
100
AcDbEntity
  8
1
  6
Continuous
 62
     3
100
AcDbCircle
 10
693.1424926998072
 20
-833.7537411624367
 30
0.0
 40
9.675120206490595
100
AcDbArc
 50
67.73561128814158
 51
112.2643887118591
  0
CIRCLE
  5
F2
330
39
100
AcDbEntity
  8
1
  6
Continuous
 62
     3
100
AcDbCircle
 10
471.649968718577
 20
-765.334347171781
 30
0.0
 40
4.250000000000171
  0
CIRCLE
  5
F3
330
39
100
AcDbEntity
  8
1
  6
Continuous
 62
     3
100
AcDbCircle
 10
471.649968718577
 20
-765.334347171781
 30
0.0
 40
6.000000000000033
  0
ENDBLK
  5
3B
330
39
100
AcDbEntity
  8
0
100
AcDbBlockEnd
  0
BLOCK
  5
3D
330
3C
100
AcDbEntity
  8
0
100
AcDbBlockBegin
  2
TOP
 70
     0
 71
     0
 10
371.772968345943
 20
-1216.62614457102
 30
0.0
  3
TOP
  1

  0
POINT
  5
F4
330
3C
100
AcDbEntity
  8
1
 62
     3
 60
     1
100
AcDbPoint
 10
564.4104846645847
 20
-1277.882332624415
 30
0.0
  0
POINT
  5
F5
330
3C
100
AcDbEntity
  8
1
 62
     3
 60
     1
100
AcDbPoint
 10
564.4104846645847
 20
-1301.882332624415
 30
0.0
  0
LINE
  5
F6
330
3C
100
AcDbEntity
  8
6_ALL_DRFT_GEOM
  6
Continuous
 62
     3
100
AcDbLine
 10
471.6499687185769
 20
-772.8343471717809
 30
0.0
 11
471.6499687185769
 21
-777.734347171781
 31
0.0
  0
LINE
  5
F7
330
3C
100
AcDbEntity
  8
6_ALL_DRFT_GEOM
  6
Continuous
 62
     3
100
AcDbLine
 10
484.049968718577
 20
-765.334347171781
 30
0.0
 11
479.1499687185769
 21
-765.334347171781
 31
0.0
  0
LINE
  5
F8
330
3C
100
AcDbEntity
  8
6_ALL_DRFT_GEOM
  6
Continuous
 62
     3
100
AcDbLine
 10
469.1499687185769
 20
-767.334347171781
 30
0.0
 11
469.1499687185769
 21
-763.334347171781
 31
0.0
  0
LINE
  5
F9
330
3C
100
AcDbEntity
  8
6_ALL_DRFT_GEOM
  6
Continuous
 62
     3
100
AcDbLine
 10
469.1499687185769
 20
-763.334347171781
 30
0.0
 11
475.1499687185769
 21
-765.334347171781
 31
0.0
  0
LINE
  5
FA
330
3C
100
AcDbEntity
  8
6_ALL_DRFT_GEOM
  6
Continuous
 62
     3
100
AcDbLine
 10
475.1499687185769
 20
-765.334347171781
 30
0.0
 11
469.1499687185769
 21
-767.334347171781
 31
0.0
  0
ARC
  5
FB
330
3C
100
AcDbEntity
  8
6_ALL_DRFT_GEOM
  6
Continuous
 62
     3
100
AcDbCircle
 10
471.649968718577
 20
-765.334347171781
 30
0.0
 40
7.499999999999886
100
AcDbArc
 50
-90.00000000000088
 51
0.0
  0
ARC
  5
FC
330
3C
100
AcDbEntity
  8
1
  6
Continuous
 62
     3
100
AcDbCircle
 10
474.2831860175638
 20
-763.1872664394396
 30
0.0
 40
9.999999999999794
100
AcDbArc
 50
-105.2672535353404
 51
-12.39840117245461
  0
CIRCLE
  5
FD
330
3C
100
AcDbEntity
  8
1
  6
Continuous
 62
     3
100
AcDbCircle
 10
471.649968718577
 20
-765.334347171781
 30
0.0
 40
13.0
  0
LWPOLYLINE
  5
FE
330
3C
100
AcDbEntity
  8
6_ALL_DRFT_GEOM
  6
Continuous
 62
     3
 60
     1
100
AcDbPolyline
 90
        4
 70
     0
 43
0.0
 10
469.1499687906769
 20
-763.334347171781
 10
469.1499687906769
 20
-767.334347171781
 10
475.1499687185769
 20
-765.334347171781
 10
469.1499687906769
 20
-763.334347171781
  0
MTEXT
  5
100
330
3C
100
AcDbEntity
  8
0
 62
     3
100
AcDbMText
 10
479.0161471273768
 20
-758.4453874723811
 30
0.0
 40
3.0
 41
0.0
 71
     7
 72
     1
  1
100
  7
CONVERTER_1
 11
0.0
 21
-1.0
 31
0.0
 73
     1
 44
0.60024009603842
  0
MTEXT
  5
101
330
3C
100
AcDbEntity
  8
0
 62
     3
100
AcDbMText
 10
470.7785748182769
 20
-774.202783487681
 30
0.0
 40
3.0
 41
0.0
 71
     7
 72
     1
  1
0
  7
CONVERTER_1
 11
-1.0
 21
1.836909530733566E-16
 31
0.0
 73
     1
 44
0.60024009603842
  0
ENDBLK
  5
3E
330
3C
100
AcDbEntity
  8
0
100
AcDbBlockEnd
  0
BLOCK
  5
40
330
3F
100
AcDbEntity
  8
0
100
AcDbBlockBegin
  2
_3
 70
     0
 71
     0
 10
498.046972478719
 20
-945.7899458213515
 30
0.0
  3
_3
  1

  0
LINE
  5
102
330
3F
100
AcDbEntity
  8
1
  6
Continuous
 62
     3
100
AcDbLine
 10
521.4952681801979
 20
-890.289945821351
 30
0.0
 11
522.6499687185772
 21
-892.2899458213512
 31
0.0
  0
LINE
  5
103
330
3F
100
AcDbEntity
  8
1
  6
Continuous
 62
     3
100
AcDbLine
 10
521.4952681801979
 20
-944.289945821351
 30
0.0
 11
522.6499687185772
 21
-942.289945821351
 31
0.0
  0
LINE
  5
104
330
3F
100
AcDbEntity
  8
1
  6
Continuous
 62
     3
100
AcDbLine
 10
522.6499687185772
 20
-896.264802860682
 30
0.0
 11
522.6499687185772
 21
-892.2899458213512
 31
0.0
  0
LINE
  5
105
330
3F
100
AcDbEntity
  8
1
  6
Continuous
 62
     3
100
AcDbLine
 10
522.6499687185772
 20
-897.8139458213511
 30
0.0
 11
522.6499687185772
 21
-896.264802860682
 31
0.0
  0
LINE
  5
106
330
3F
100
AcDbEntity
  8
1
  6
Continuous
 62
     3
100
AcDbLine
 10
522.6499687185772
 20
-936.7659458213511
 30
0.0
 11
522.6499687185772
 21
-897.8139458213511
 31
0.0
  0
LINE
  5
107
330
3F
100
AcDbEntity
  8
1
  6
Continuous
 62
     3
100
AcDbLine
 10
522.6499687185772
 20
-938.3150887820202
 30
0.0
 11
522.6499687185772
 21
-936.7659458213511
 31
0.0
  0
LINE
  5
108
330
3F
100
AcDbEntity
  8
1
  6
Continuous
 62
     3
100
AcDbLine
 10
522.6499687185772
 20
-942.289945821351
 30
0.0
 11
522.6499687185772
 21
-938.3150887820202
 31
0.0
  0
LINE
  5
109
330
3F
100
AcDbEntity
  8
1
  6
Continuous
 62
     3
100
AcDbLine
 10
504.6499687185772
 20
-933.4899458213513
 30
0.0
 11
518.4876568677748
 21
-933.4899458213513
 31
0.0
  0
LINE
  5
10A
330
3F
100
AcDbEntity
  8
1
  6
Continuous
 62
     3
100
AcDbLine
 10
504.6499687185772
 20
-901.0899458213512
 30
0.0
 11
518.4876568677748
 21
-901.0899458213512
 31
0.0
  0
LINE
  5
10B
330
3F
100
AcDbEntity
  8
1
  6
Continuous
 62
     3
100
AcDbLine
 10
504.6499687185772
 20
-944.289945821351
 30
0.0
 11
504.6499687185772
 21
-890.289945821351
 31
0.0
  0
LINE
  5
10C
330
3F
100
AcDbEntity
  8
1
  6
Continuous
 62
     3
100
AcDbLine
 10
504.6499687185772
 20
-944.289945821351
 30
0.0
 11
521.4952681801979
 21
-944.289945821351
 31
0.0
  0
LINE
  5
10D
330
3F
100
AcDbEntity
  8
1
  6
Continuous
 62
     3
100
AcDbLine
 10
504.6499687185772
 20
-890.289945821351
 30
0.0
 11
521.4952681801979
 21
-890.289945821351
 31
0.0
  0
LINE
  5
10E
330
3F
100
AcDbEntity
  8
1
  6
Continuous
 62
     3
100
AcDbLine
 10
504.6499687185772
 20
-890.289945821351
 30
0.0
 11
504.6499687185772
 21
-889.789945821351
 31
0.0
  0
LINE
  5
10F
330
3F
100
AcDbEntity
  8
1
  6
Continuous
 62
     3
100
AcDbLine
 10
504.6499687185772
 20
-944.789945821351
 30
0.0
 11
504.6499687185772
 21
-944.289945821351
 31
0.0
  0
LINE
  5
110
330
3F
100
AcDbEntity
  8
1
  6
Continuous
 62
     3
100
AcDbLine
 10
500.6499687185772
 20
-888.789945821351
 30
0.0
 11
503.6499687185772
 21
-888.789945821351
 31
0.0
  0
LINE
  5
111
330
3F
100
AcDbEntity
  8
1
  6
Continuous
 62
     3
100
AcDbLine
 10
503.6499687185772
 20
-945.789945821351
 30
0.0
 11
500.6499687185772
 21
-945.789945821351
 31
0.0
  0
LINE
  5
112
330
3F
100
AcDbEntity
  8
1
  6
Continuous
 62
     3
100
AcDbLine
 10
500.6499687185772
 20
-891.0399458213512
 30
0.0
 11
500.6499687185772
 21
-888.789945821351
 31
0.0
  0
LINE
  5
113
330
3F
100
AcDbEntity
  8
1
  6
Continuous
 62
     3
100
AcDbLine
 10
500.6499687185772
 20
-889.289945821351
 30
0.0
 11
500.6499687185772
 21
-945.789945821351
 31
0.0
  0
LINE
  5
114
330
3F
100
AcDbEntity
  8
1
  6
Continuous
 62
     3
100
AcDbLine
 10
660.142492699807
 20
-944.289945821351
 30
0.0
 11
660.142492699807
 21
-944.789945821351
 31
0.0
  0
LINE
  5
115
330
3F
100
AcDbEntity
  8
1
  6
Continuous
 62
     3
100
AcDbLine
 10
660.142492699807
 20
-889.789945821351
 30
0.0
 11
660.142492699807
 21
-890.289945821351
 31
0.0
  0
LINE
  5
116
330
3F
100
AcDbEntity
  8
1
  6
Continuous
 62
     3
100
AcDbLine
 10
643.2971932381863
 20
-890.289945821351
 30
0.0
 11
660.142492699807
 21
-890.289945821351
 31
0.0
  0
LINE
  5
117
330
3F
100
AcDbEntity
  8
1
  6
Continuous
 62
     3
100
AcDbLine
 10
643.2971932381863
 20
-944.289945821351
 30
0.0
 11
660.142492699807
 21
-944.289945821351
 31
0.0
  0
LINE
  5
118
330
3F
100
AcDbEntity
  8
1
  6
Continuous
 62
     3
100
AcDbLine
 10
660.142492699807
 20
-890.289945821351
 30
0.0
 11
660.142492699807
 21
-944.289945821351
 31
0.0
  0
LINE
  5
119
330
3F
100
AcDbEntity
  8
1
  6
Continuous
 62
     3
100
AcDbLine
 10
646.3048045506093
 20
-901.0899458213512
 30
0.0
 11
660.142492699807
 21
-901.0899458213512
 31
0.0
  0
LINE
  5
11A
330
3F
100
AcDbEntity
  8
1
  6
Continuous
 62
     3
100
AcDbLine
 10
646.3048045506093
 20
-933.4899458213513
 30
0.0
 11
660.142492699807
 21
-933.4899458213513
 31
0.0
  0
LINE
  5
11B
330
3F
100
AcDbEntity
  8
1
  6
Continuous
 62
     3
100
AcDbLine
 10
642.142492699807
 20
-938.3150887820202
 30
0.0
 11
642.142492699807
 21
-942.289945821351
 31
0.0
  0
LINE
  5
11C
330
3F
100
AcDbEntity
  8
1
  6
Continuous
 62
     3
100
AcDbLine
 10
642.142492699807
 20
-936.7659458213511
 30
0.0
 11
642.142492699807
 21
-938.3150887820202
 31
0.0
  0
LINE
  5
11D
330
3F
100
AcDbEntity
  8
1
  6
Continuous
 62
     3
100
AcDbLine
 10
642.142492699807
 20
-897.8139458213511
 30
0.0
 11
642.142492699807
 21
-936.7659458213511
 31
0.0
  0
LINE
  5
11E
330
3F
100
AcDbEntity
  8
1
  6
Continuous
 62
     3
100
AcDbLine
 10
642.142492699807
 20
-896.264802860682
 30
0.0
 11
642.142492699807
 21
-897.8139458213511
 31
0.0
  0
LINE
  5
11F
330
3F
100
AcDbEntity
  8
1
  6
Continuous
 62
     3
100
AcDbLine
 10
642.142492699807
 20
-892.2899458213512
 30
0.0
 11
642.142492699807
 21
-896.264802860682
 31
0.0
  0
LINE
  5
120
330
3F
100
AcDbEntity
  8
1
  6
Continuous
 62
     3
100
AcDbLine
 10
642.142492699807
 20
-942.289945821351
 30
0.0
 11
643.2971932381863
 21
-944.289945821351
 31
0.0
  0
LINE
  5
121
330
3F
100
AcDbEntity
  8
1
  6
Continuous
 62
     3
100
AcDbLine
 10
642.142492699807
 20
-892.2899458213512
 30
0.0
 11
643.2971932381863
 21
-890.289945821351
 31
0.0
  0
LINE
  5
122
330
3F
100
AcDbEntity
  8
1
  6
Continuous
 62
     3
100
AcDbLine
 10
664.142492699807
 20
-888.789945821351
 30
0.0
 11
664.142492699807
 21
-891.0399458213512
 31
0.0
  0
LINE
  5
123
330
3F
100
AcDbEntity
  8
1
  6
Continuous
 62
     3
100
AcDbLine
 10
661.142492699807
 20
-888.789945821351
 30
0.0
 11
664.142492699807
 21
-888.789945821351
 31
0.0
  0
LINE
  5
124
330
3F
100
AcDbEntity
  8
1
  6
Continuous
 62
     3
100
AcDbLine
 10
664.142492699807
 20
-945.789945821351
 30
0.0
 11
661.142492699807
 21
-945.789945821351
 31
0.0
  0
LINE
  5
125
330
3F
100
AcDbEntity
  8
1
  6
Continuous
 62
     3
100
AcDbLine
 10
664.142492699807
 20
-945.789945821351
 30
0.0
 11
664.142492699807
 21
-889.289945821351
 31
0.0
  0
LINE
  5
126
330
3F
100
AcDbEntity
  8
1
  6
Continuous
 62
     3
100
AcDbLine
 10
587.3107318334791
 20
-890.5402912131474
 30
0.0
 11
604.9742535661347
 21
-900.7383302403333
 31
0.0
  0
LINE
  5
127
330
3F
100
AcDbEntity
  8
1
  6
Continuous
 62
     3
100
AcDbLine
 10
562.3107318334788
 20
-900.7383302403333
 30
0.0
 11
580.4078645041664
 21
-890.2899458213514
 31
0.0
  0
LINE
  5
128
330
3F
100
AcDbEntity
  8
1
  6
Continuous
 62
     3
100
AcDbLine
 10
558.6424926998068
 20
-907.0919067941653
 30
0.0
 11
558.6424926998068
 21
-927.4879848485373
 31
0.0
  0
LINE
  5
129
330
3F
100
AcDbEntity
  8
1
  6
Continuous
 62
     3
100
AcDbLine
 10
579.9742535661346
 20
-944.0396004295553
 30
0.0
 11
562.3107318334788
 21
-933.8415614023693
 31
0.0
  0
LINE
  5
12A
330
3F
100
AcDbEntity
  8
1
  6
Continuous
 62
     3
100
AcDbLine
 10
604.9742535661346
 20
-933.8415614023693
 30
0.0
 11
587.3107318334788
 21
-944.0396004295553
 31
0.0
  0
LINE
  5
12B
330
3F
100
AcDbEntity
  8
1
  6
Continuous
 62
     3
100
AcDbLine
 10
608.6424926998068
 20
-917.2899458213512
 30
0.0
 11
608.6424926998068
 21
-927.4879848485373
 31
0.0
  0
LINE
  5
12C
330
3F
100
AcDbEntity
  8
1
  6
Continuous
 62
     3
100
AcDbLine
 10
608.6424926998068
 20
-907.0919067941653
 30
0.0
 11
608.6424926998068
 21
-917.2899458213512
 31
0.0
  0
LINE
  5
12D
330
3F
100
AcDbEntity
  8
1
  6
Continuous
 62
     3
100
AcDbLine
 10
504.6499687185772
 20
-739.334347171781
 30
0.0
 11
504.6499687185772
 21
-765.334347171781
 31
0.0
  0
LINE
  5
12E
330
3F
100
AcDbEntity
  8
1
  6
Continuous
 62
     3
100
AcDbLine
 10
504.6499687185772
 20
-792.834347171781
 30
0.0
 11
504.6499687185772
 21
-791.334347171781
 31
0.0
  0
LINE
  5
12F
330
3F
100
AcDbEntity
  8
1
  6
Continuous
 62
     3
100
AcDbLine
 10
504.6499687185772
 20
-739.334347171781
 30
0.0
 11
504.6499687185772
 21
-737.834347171781
 31
0.0
  0
LINE
  5
130
330
3F
100
AcDbEntity
  8
1
  6
Continuous
 62
     3
100
AcDbLine
 10
522.6499687185772
 20
-786.3594901324502
 30
0.0
 11
522.6499687185772
 21
-744.3092042111118
 31
0.0
  0
LINE
  5
131
330
3F
100
AcDbEntity
  8
1
  6
Continuous
 62
     3
100
AcDbLine
 10
522.6499687185772
 20
-744.3092042111118
 30
0.0
 11
522.6499687185772
 21
-742.3343471717813
 31
0.0
  0
LINE
  5
132
330
3F
100
AcDbEntity
  8
1
  6
Continuous
 62
     3
100
AcDbLine
 10
503.6499687185772
 20
-793.834347171781
 30
0.0
 11
500.6499687185772
 21
-793.834347171781
 31
0.0
  0
LINE
  5
133
330
3F
100
AcDbEntity
  8
1
  6
Continuous
 62
     3
100
AcDbLine
 10
500.6499687185772
 20
-736.834347171781
 30
0.0
 11
503.6499687185772
 21
-736.834347171781
 31
0.0
  0
LINE
  5
134
330
3F
100
AcDbEntity
  8
1
  6
Continuous
 62
     3
100
AcDbLine
 10
505.6499687185772
 20
-740.334347171781
 30
0.0
 11
521.4952681801979
 21
-740.334347171781
 31
0.0
  0
LINE
  5
135
330
3F
100
AcDbEntity
  8
1
  6
Continuous
 62
     3
100
AcDbLine
 10
505.6499687185772
 20
-790.334347171781
 30
0.0
 11
521.4952681801979
 21
-790.334347171781
 31
0.0
  0
LINE
  5
136
330
3F
100
AcDbEntity
  8
1
  6
Continuous
 62
     3
100
AcDbLine
 10
500.6499687185772
 20
-740.5343471717811
 30
0.0
 11
500.6499687185772
 21
-736.834347171781
 31
0.0
  0
LINE
  5
137
330
3F
100
AcDbEntity
  8
1
  6
Continuous
 62
     3
100
AcDbLine
 10
500.6499687185772
 20
-793.834347171781
 30
0.0
 11
500.6499687185772
 21
-790.134347171781
 31
0.0
  0
LINE
  5
138
330
3F
100
AcDbEntity
  8
1
  6
Continuous
 62
     3
100
AcDbLine
 10
521.4952681801979
 20
-740.334347171781
 30
0.0
 11
522.6499687185772
 21
-742.3343471717813
 31
0.0
  0
LINE
  5
139
330
3F
100
AcDbEntity
  8
1
  6
Continuous
 62
     3
100
AcDbLine
 10
518.4876568677748
 20
-765.334347171781
 30
0.0
 11
504.6499687185772
 21
-765.334347171781
 31
0.0
  0
LINE
  5
13A
330
3F
100
AcDbEntity
  8
1
  6
Continuous
 62
     3
100
AcDbLine
 10
504.6499687185772
 20
-765.334347171781
 30
0.0
 11
504.6499687185772
 21
-791.334347171781
 31
0.0
  0
LINE
  5
13B
330
3F
100
AcDbEntity
  8
1
  6
Continuous
 62
     3
100
AcDbLine
 10
522.6499687185772
 20
-788.3343471717808
 30
0.0
 11
521.4952681801979
 21
-790.334347171781
 31
0.0
  0
LINE
  5
13C
330
3F
100
AcDbEntity
  8
1
  6
Continuous
 62
     3
100
AcDbLine
 10
522.6499687185772
 20
-788.3343471717808
 30
0.0
 11
522.6499687185772
 21
-786.3594901324502
 31
0.0
  0
LINE
  5
13D
330
3F
100
AcDbEntity
  8
1
  6
Continuous
 62
     3
100
AcDbLine
 10
522.6499687185772
 20
-788.3343471717808
 30
0.0
 11
522.6499687185772
 21
-786.3594901324502
 31
0.0
  0
ARC
  5
13E
330
3F
100
AcDbEntity
  8
1
  6
Continuous
 62
     3
100
AcDbCircle
 10
495.6499687185774
 20
-917.2899458213512
 30
0.0
 40
27.99999999999991
100
AcDbArc
 50
-35.3501271405404
 51
-15.35888558082336
  0
ARC
  5
13F
330
3F
100
AcDbEntity
  8
1
  6
Continuous
 62
     3
100
AcDbCircle
 10
495.6499687185774
 20
-917.2899458213512
 30
0.0
 40
27.99999999999988
100
AcDbArc
 50
15.35888558082359
 51
35.3501271405404
  0
ARC
  5
140
330
3F
100
AcDbEntity
  8
1
  6
Continuous
 62
     3
100
AcDbCircle
 10
669.1424926998068
 20
-917.2899458213512
 30
0.0
 40
27.99999999999991
100
AcDbArc
 50
144.6498728594596
 51
164.6411144191764
  0
ARC
  5
141
330
3F
100
AcDbEntity
  8
1
  6
Continuous
 62
     3
100
AcDbCircle
 10
669.1424926998068
 20
-917.2899458213512
 30
0.0
 40
27.99999999999985
100
AcDbArc
 50
-164.6411144191766
 51
-144.6498728594596
  0
ARC
  5
142
330
3F
100
AcDbEntity
  8
1
  6
Continuous
 62
     3
100
AcDbCircle
 10
583.6424926998068
 20
-917.2899458213512
 30
0.0
 40
27.00000000000012
100
AcDbArc
 50
82.19160656627257
 51
97.80839343372719
  0
ARC
  5
143
330
3F
100
AcDbEntity
  8
1
  6
Continuous
 62
     3
100
AcDbCircle
 10
583.6424926998068
 20
-917.2899458213512
 30
0.0
 40
26.99999999999993
100
AcDbArc
 50
142.1916065662734
 51
157.8083934337265
  0
ARC
  5
144
330
3F
100
AcDbEntity
  8
1
  6
Continuous
 62
     3
100
AcDbCircle
 10
583.6424926998068
 20
-917.2899458213512
 30
0.0
 40
27.00000000000018
100
AcDbArc
 50
-157.8083934337263
 51
-142.1916065662732
  0
ARC
  5
145
330
3F
100
AcDbEntity
  8
1
  6
Continuous
 62
     3
100
AcDbCircle
 10
583.6424926998068
 20
-917.2899458213512
 30
0.0
 40
27.00000000000033
100
AcDbArc
 50
-97.80839343372713
 51
-82.19160656627311
  0
ARC
  5
146
330
3F
100
AcDbEntity
  8
1
  6
Continuous
 62
     3
100
AcDbCircle
 10
583.6424926998068
 20
-917.2899458213512
 30
0.0
 40
26.99999999999991
100
AcDbArc
 50
-37.80839343372699
 51
-22.19160656627372
  0
ARC
  5
147
330
3F
100
AcDbEntity
  8
1
  6
Continuous
 62
     3
100
AcDbCircle
 10
583.6424926998068
 20
-917.2899458213512
 30
0.0
 40
27.00000000000014
100
AcDbArc
 50
22.19160656627349
 51
37.80839343372665
  0
ARC
  5
148
330
3F
100
AcDbEntity
  8
1
  6
Continuous
 62
     3
100
AcDbCircle
 10
495.6499687185774
 20
-781.5343471717811
 30
0.0
 40
27.99999999999988
100
AcDbArc
 50
15.35888558082359
 51
35.3501271405404
  0
ARC
  5
149
330
3F
100
AcDbEntity
  8
1
  6
Continuous
 62
     3
100
AcDbCircle
 10
495.6499687185774
 20
-749.134347171781
 30
0.0
 40
27.99999999999991
100
AcDbArc
 50
-35.3501271405404
 51
-15.35888558082359
  0
CIRCLE
  5
14A
330
3F
100
AcDbEntity
  8
1
  6
Continuous
 62
     3
100
AcDbCircle
 10
583.6424926998068
 20
-917.2899458213512
 30
0.0
 40
19.476
  0
CIRCLE
  5
14B
330
3F
100
AcDbEntity
  8
1
  6
Continuous
 62
     1
100
AcDbCircle
 10
583.6424926998068
 20
-917.2899458213512
 30
0.0
 40
20.95299999999998
  0
CIRCLE
  5
14C
330
3F
100
AcDbEntity
  8
1
  6
Continuous
 62
     3
100
AcDbCircle
 10
583.6424926998068
 20
-917.2899458213512
 30
0.0
 40
25.0
  0
CIRCLE
  5
14D
330
3F
100
AcDbEntity
  8
1
  6
Continuous
 62
     3
100
AcDbCircle
 10
583.6424926998068
 20
-917.2899458213512
 30
0.0
 40
28.50000000000023
  0
SPLINE
  5
14E
330
3F
100
AcDbEntity
  8
1
  6
Continuous
 62
     3
100
AcDbSpline
210
0.0
220
0.0
230
1.0
 70
     8
 71
     3
 72
     9
 73
     5
 74
     3
 42
0.0000000001
 43
0.0000000001
 44
0.00000001
 40
0.0
 40
0.0
 40
0.0
 40
0.0
 40
3.106534614637736
 40
5.655648352430681
 40
5.655648352430681
 40
5.655648352430681
 40
5.655648352430681
 10
518.4876568677748
 20
-933.4899458213513
 30
0.0
 10
519.3471782659982
 20
-934.0791422489117
 30
0.0
 10
520.9119928851031
 20
-935.1518126737281
 30
0.0
 10
522.1100020474718
 20
-936.6196309878779
 30
0.0
 10
522.6499687185756
 20
-937.2812060356928
 30
0.0
 11
518.4876568677748
 21
-933.4899458213513
 31
0.0
 11
520.9555527253094
 21
-935.3767545949969
 31
0.0
 11
522.6499687185756
 21
-937.2812060356928
 31
0.0
  0
SPLINE
  5
14F
330
3F
100
AcDbEntity
  8
1
  6
Continuous
 62
     3
100
AcDbSpline
210
0.0
220
0.0
230
1.0
 70
     8
 71
     3
 72
     9
 73
     5
 74
     3
 42
0.0000000001
 43
0.0000000001
 44
0.00000001
 40
0.0
 40
0.0
 40
0.0
 40
0.0
 40
3.106534614639489
 40
5.655648352433425
 40
5.655648352433425
 40
5.655648352433425
 40
5.655648352433425
 10
518.4876568677748
 20
-901.0899458213512
 30
0.0
 10
519.3471782659985
 20
-900.5007493937904
 30
0.0
 10
520.9119928851042
 20
-899.4280789689738
 30
0.0
 10
522.1100020474732
 20
-897.9602606548226
 30
0.0
 10
522.6499687185772
 20
-897.2986856070074
 30
0.0
 11
518.4876568677748
 21
-901.0899458213512
 31
0.0
 11
520.9555527253107
 21
-899.2031370477043
 31
0.0
 11
522.6499687185772
 21
-897.2986856070074
 31
0.0
  0
SPLINE
  5
150
330
3F
100
AcDbEntity
  8
1
  6
Continuous
 62
     3
100
AcDbSpline
210
0.0
220
0.0
230
1.0
 70
     8
 71
     3
 72
     9
 73
     5
 74
     3
 42
0.0000000001
 43
0.0000000001
 44
0.00000001
 40
0.0
 40
0.0
 40
0.0
 40
0.0
 40
3.106534614639489
 40
5.655648352433425
 40
5.655648352433425
 40
5.655648352433425
 40
5.655648352433425
 10
646.3048045506093
 20
-901.0899458213512
 30
0.0
 10
645.4452831523856
 20
-900.5007493937904
 30
0.0
 10
643.88046853328
 20
-899.4280789689738
 30
0.0
 10
642.6824593709109
 20
-897.9602606548226
 30
0.0
 10
642.142492699807
 20
-897.2986856070074
 30
0.0
 11
646.3048045506093
 21
-901.0899458213512
 31
0.0
 11
643.8369086930735
 21
-899.2031370477043
 31
0.0
 11
642.142492699807
 21
-897.2986856070074
 31
0.0
  0
SPLINE
  5
151
330
3F
100
AcDbEntity
  8
1
  6
Continuous
 62
     3
100
AcDbSpline
210
0.0
220
0.0
230
1.0
 70
     8
 71
     3
 72
     9
 73
     5
 74
     3
 42
0.0000000001
 43
0.0000000001
 44
0.00000001
 40
0.0
 40
0.0
 40
0.0
 40
0.0
 40
3.106534614637736
 40
5.655648352430681
 40
5.655648352430681
 40
5.655648352430681
 40
5.655648352430681
 10
646.3048045506093
 20
-933.4899458213513
 30
0.0
 10
645.445283152386
 20
-934.0791422489117
 30
0.0
 10
643.8804685332812
 20
-935.1518126737281
 30
0.0
 10
642.6824593709125
 20
-936.6196309878779
 30
0.0
 10
642.1424926998086
 20
-937.2812060356928
 30
0.0
 11
646.3048045506093
 21
-933.4899458213513
 31
0.0
 11
643.8369086930748
 21
-935.3767545949969
 31
0.0
 11
642.1424926998086
 21
-937.2812060356928
 31
0.0
  0
ARC
  5
152
330
3F
100
AcDbEntity
  8
1
  6
Continuous
 62
     3
100
AcDbCircle
 10
503.6499687185772
 20
-889.789945821351
 30
0.0
 40
1.0
100
AcDbArc
 50
0.0
 51
90.0
  0
ARC
  5
153
330
3F
100
AcDbEntity
  8
1
  6
Continuous
 62
     3
100
AcDbCircle
 10
503.6499687185772
 20
-944.789945821351
 30
0.0
 40
1.0
100
AcDbArc
 50
-90.0
 51
0.0
  0
ARC
  5
154
330
3F
100
AcDbEntity
  8
1
  6
Continuous
 62
     3
100
AcDbCircle
 10
661.142492699807
 20
-944.789945821351
 30
0.0
 40
1.0
100
AcDbArc
 50
180.0
 51
-90.0
  0
ARC
  5
155
330
3F
100
AcDbEntity
  8
1
  6
Continuous
 62
     3
100
AcDbCircle
 10
661.142492699807
 20
-889.789945821351
 30
0.0
 40
1.0
100
AcDbArc
 50
90.0
 51
180.0
  0
ARC
  5
156
330
3F
100
AcDbEntity
  8
1
  6
Continuous
 62
     3
100
AcDbCircle
 10
503.6499687185772
 20
-792.834347171781
 30
0.0
 40
1.0
100
AcDbArc
 50
-90.0
 51
0.0
  0
ARC
  5
157
330
3F
100
AcDbEntity
  8
1
  6
Continuous
 62
     3
100
AcDbCircle
 10
505.6499687185772
 20
-791.334347171781
 30
0.0
 40
1.0
100
AcDbArc
 50
90.0
 51
180.0
  0
ARC
  5
158
330
3F
100
AcDbEntity
  8
1
  6
Continuous
 62
     3
100
AcDbCircle
 10
505.6499687185772
 20
-739.334347171781
 30
0.0
 40
1.0
100
AcDbArc
 50
180.0
 51
-90.0
  0
ARC
  5
159
330
3F
100
AcDbEntity
  8
1
  6
Continuous
 62
     3
100
AcDbCircle
 10
503.6499687185772
 20
-737.834347171781
 30
0.0
 40
1.0
100
AcDbArc
 50
0.0
 51
90.0
  0
ENDBLK
  5
41
330
3F
100
AcDbEntity
  8
0
100
AcDbBlockEnd
  0
ENDSEC
  0
SECTION
  2
ENTITIES
  0
INSERT
  5
42
330
1F
100
AcDbEntity
  8
0
100
AcDbBlockReference
  2
Top__1
 10
1135.920413971842
 20
-1954.868961870737
 30
0.0
  0
INSERT
  5
43
330
1F
100
AcDbEntity
  8
1
100
AcDbBlockReference
  2
_4
 10
334.9703936029752
 20
-273.63030285773
 30
0.0
  0
INSERT
  5
44
330
1F
100
AcDbEntity
  8
1
100
AcDbBlockReference
  2
_5
 10
342.880174469531
 20
-262.13030285773
 30
0.0
  0
INSERT
  5
45
330
1F
100
AcDbEntity
  8
0
100
AcDbBlockReference
  2
TOP
 10
371.772968345943
 20
-1216.62614457102
 30
0.0
  0
INSERT
  5
46
330
1F
100
AcDbEntity
  8
1
100
AcDbBlockReference
  2
_3
 10
498.046972478719
 20
-945.7899458213515
 30
0.0
  0
LINE
  5
15A
330
1F
100
AcDbEntity
  8
1
  6
Continuous
 62
     3
100
AcDbLine
 10
563.6424926998068
 20
-848.7899458213511
 30
0.0
 11
563.6424926998068
 21
-852.2899458213511
 31
0.0
  0
LINE
  5
15B
330
1F
100
AcDbEntity
  8
1
  6
Continuous
 62
     3
100
AcDbLine
 10
566.6424926998068
 20
-853.2899458213514
 30
0.0
 11
581.6424926998068
 21
-853.2899458213514
 31
0.0
  0
LINE
  5
15C
330
1F
100
AcDbEntity
  8
1
  6
Continuous
 62
     3
100
AcDbLine
 10
564.6424926998068
 20
-853.2899458213511
 30
0.0
 11
566.8727966927222
 21
-853.2899458213511
 31
0.0
  0
LINE
  5
15D
330
1F
100
AcDbEntity
  8
1
  6
Continuous
 62
     3
100
AcDbLine
 10
600.4121887068915
 20
-853.2899458213511
 30
0.0
 11
602.6424926998068
 21
-853.2899458213511
 31
0.0
  0
LINE
  5
15E
330
1F
100
AcDbEntity
  8
1
  6
Continuous
 62
     3
100
AcDbLine
 10
603.6424926998068
 20
-852.2899458213514
 30
0.0
 11
603.6424926998068
 21
-848.7899458213511
 31
0.0
  0
LINE
  5
15F
330
1F
100
AcDbEntity
  8
1
  6
Continuous
 62
     3
100
AcDbLine
 10
563.6424926998068
 20
-848.7899458213511
 30
0.0
 11
570.6424926998068
 21
-848.7899458213511
 31
0.0
  0
LINE
  5
160
330
1F
100
AcDbEntity
  8
1
  6
Continuous
 62
     3
100
AcDbLine
 10
603.6424926998068
 20
-848.7899458213511
 30
0.0
 11
585.6424926998068
 21
-848.7899458213511
 31
0.0
  0
LINE
  5
161
330
1F
100
AcDbEntity
  8
1
  6
Continuous
 62
     3
100
AcDbLine
 10
597.6424926998068
 20
-860.7899458213511
 30
0.0
 11
597.6424926998068
 21
-856.2899458213511
 31
0.0
  0
LINE
  5
162
330
1F
100
AcDbEntity
  8
1
  6
Continuous
 62
     3
100
AcDbLine
 10
569.6424926998068
 20
-856.2899458213511
 30
0.0
 11
569.6424926998068
 21
-860.7899458213511
 31
0.0
  0
LINE
  5
163
330
1F
100
AcDbEntity
  8
1
  6
Continuous
 62
     3
100
AcDbLine
 10
570.6424926998068
 20
-862.52199662892
 30
0.0
 11
596.6424926998068
 21
-862.52199662892
 31
0.0
  0
LINE
  5
164
330
1F
100
AcDbEntity
  8
1
  6
Continuous
 62
     3
100
AcDbLine
 10
582.1424926998068
 20
-876.289945821351
 30
0.0
 11
582.1424926998068
 21
-888.789945821351
 31
0.0
  0
LINE
  5
165
330
1F
100
AcDbEntity
  8
1
  6
Continuous
 62
     3
100
AcDbLine
 10
585.1424926998068
 20
-876.289945821351
 30
0.0
 11
585.1424926998068
 21
-888.789945821351
 31
0.0
  0
LINE
  5
166
330
1F
100
AcDbEntity
  8
1
  6
DOT_CENTER
 62
     1
100
AcDbLine
 10
583.6424926998068
 20
-820.7899458213511
 30
0.0
 11
583.6424926998068
 21
-970.2899458213511
 31
0.0
  0
LINE
  5
167
330
1F
100
AcDbEntity
  8
1
  6
DOT_CENTER
 62
     1
100
AcDbLine
 10
552.6499687185772
 20
-917.2899458213512
 30
0.0
 11
614.5084026129831
 21
-917.2899458213512
 31
0.0
  0
LINE
  5
168
330
1F
100
AcDbEntity
  8
1
  6
Continuous
 62
     3
100
AcDbLine
 10
595.9440295958777
 20
-876.1184116344373
 30
0.0
 11
603.4821913336664
 21
-896.8293407932089
 31
0.0
  0
LINE
  5
169
330
1F
100
AcDbEntity
  8
1
  6
Continuous
 62
     3
100
AcDbLine
 10
571.3409558037367
 20
-876.1184116344374
 30
0.0
 11
563.8027940659473
 21
-896.8293407932088
 31
0.0
  0
LINE
  5
16A
330
1F
100
AcDbEntity
  8
1
  6
Continuous
 62
     3
100
AcDbLine
 10
571.6424926998068
 20
-864.2540474364888
 30
0.0
 11
571.642492699807
 21
-887.3604455505495
 31
0.0
  0
LINE
  5
16B
330
1F
100
AcDbEntity
  8
1
  6
Continuous
 62
     3
100
AcDbLine
 10
571.6424926998068
 20
-874.408310917809
 30
0.0
 11
571.6424926998068
 21
-889.5906678524224
 31
0.0
  0
LINE
  5
16C
330
1F
100
AcDbEntity
  8
1
  6
Continuous
 62
     3
100
AcDbLine
 10
609.6424926998068
 20
-947.2899458213512
 30
0.0
 11
605.1486379905639
 21
-939.5063611431103
 31
0.0
  0
LINE
  5
16D
330
1F
100
AcDbEntity
  8
1
  6
Continuous
 62
     3
100
AcDbLine
 10
603.1184926998069
 20
-967.2899458213512
 30
0.0
 11
609.6424926998068
 21
-967.2899458213512
 31
0.0
  0
LINE
  5
16E
330
1F
100
AcDbEntity
  8
1
  6
Continuous
 62
     3
100
AcDbLine
 10
564.1664926998069
 20
-967.2899458213512
 30
0.0
 11
603.1184926998069
 21
-967.2899458213512
 31
0.0
  0
LINE
  5
16F
330
1F
100
AcDbEntity
  8
1
  6
Continuous
 62
     3
100
AcDbLine
 10
557.6424926998068
 20
-967.2899458213512
 30
0.0
 11
557.6424926998068
 21
-947.1690366732314
 31
0.0
  0
LINE
  5
170
330
1F
100
AcDbEntity
  8
1
  6
Continuous
 62
     3
100
AcDbLine
 10
557.6424926998068
 20
-967.2899458213512
 30
0.0
 11
564.1664926998069
 21
-967.2899458213512
 31
0.0
  0
LINE
  5
171
330
1F
100
AcDbEntity
  8
1
  6
Continuous
 62
     3
100
AcDbLine
 10
609.6424926998068
 20
-967.2899458213512
 30
0.0
 11
609.6424926998068
 21
-947.2899458213512
 31
0.0
  0
LINE
  5
172
330
1F
100
AcDbEntity
  8
1
  6
Continuous
 62
     3
100
AcDbLine
 10
557.6424926998068
 20
-947.1690366732314
 30
0.0
 11
562.0966424218418
 21
-939.4542230501484
 31
0.0
  0
LINE
  5
173
330
1F
100
AcDbEntity
  8
1
  6
Continuous
 62
     3
100
AcDbLine
 10
557.6424926998068
 20
-947.1690366732314
 30
0.0
 11
609.6424926998068
 21
-947.2899458213512
 31
0.0
  0
LINE
  5
174
330
1F
100
AcDbEntity
  8
1
  6
Continuous
 62
     3
100
AcDbLine
 10
595.6424926998068
 20
-889.5906678524224
 30
0.0
 11
595.6424926998068
 21
-864.2540474364888
 31
0.0
  0
LINE
  5
175
330
1F
100
AcDbEntity
  8
1
  6
Continuous
 62
     3
100
AcDbLine
 10
583.6424926998068
 20
-951.2708939499739
 30
0.0
 11
583.6424926998068
 21
-963.2485431186685
 31
0.0
  0
LINE
  5
176
330
1F
100
AcDbEntity
  8
1
  6
Continuous
 62
     3
100
AcDbLine
 10
358.1499687185775
 20
-951.2708939499739
 30
0.0
 11
358.1499687185775
 21
-963.2485431186685
 31
0.0
  0
LINE
  5
177
330
1F
100
AcDbEntity
  8
1
  6
Continuous
 62
     3
100
AcDbLine
 10
370.1499687185775
 20
-889.5906678524224
 30
0.0
 11
370.1499687185775
 21
-864.2540474364888
 31
0.0
  0
LINE
  5
178
330
1F
100
AcDbEntity
  8
1
  6
Continuous
 62
     3
100
AcDbLine
 10
332.1499687185775
 20
-947.1690366732314
 30
0.0
 11
384.1499687185775
 21
-947.2899458213512
 31
0.0
  0
LINE
  5
179
330
1F
100
AcDbEntity
  8
1
  6
Continuous
 62
     3
100
AcDbLine
 10
332.1499687185775
 20
-947.1690366732314
 30
0.0
 11
336.6041184406125
 21
-939.4542230501484
 31
0.0
  0
LINE
  5
17A
330
1F
100
AcDbEntity
  8
1
  6
Continuous
 62
     3
100
AcDbLine
 10
384.1499687185775
 20
-967.2899458213512
 30
0.0
 11
384.1499687185775
 21
-947.2899458213512
 31
0.0
  0
LINE
  5
17B
330
1F
100
AcDbEntity
  8
1
  6
Continuous
 62
     3
100
AcDbLine
 10
332.1499687185775
 20
-967.2899458213512
 30
0.0
 11
338.6739687185776
 21
-967.2899458213512
 31
0.0
  0
LINE
  5
17C
330
1F
100
AcDbEntity
  8
1
  6
Continuous
 62
     3
100
AcDbLine
 10
332.1499687185775
 20
-967.2899458213512
 30
0.0
 11
332.1499687185775
 21
-947.1690366732314
 31
0.0
  0
LINE
  5
17D
330
1F
100
AcDbEntity
  8
1
  6
Continuous
 62
     3
100
AcDbLine
 10
338.6739687185776
 20
-967.2899458213512
 30
0.0
 11
377.6259687185776
 21
-967.2899458213512
 31
0.0
  0
LINE
  5
17E
330
1F
100
AcDbEntity
  8
1
  6
Continuous
 62
     3
100
AcDbLine
 10
377.6259687185776
 20
-967.2899458213512
 30
0.0
 11
384.1499687185775
 21
-967.2899458213512
 31
0.0
  0
LINE
  5
17F
330
1F
100
AcDbEntity
  8
1
  6
Continuous
 62
     3
100
AcDbLine
 10
384.1499687185775
 20
-947.2899458213512
 30
0.0
 11
379.6561140093346
 21
-939.5063611431103
 31
0.0
  0
LINE
  5
180
330
1F
100
AcDbEntity
  8
1
  6
Continuous
 62
     3
100
AcDbLine
 10
346.1499687185775
 20
-874.408310917809
 30
0.0
 11
346.1499687185775
 21
-889.5906678524224
 31
0.0
  0
LINE
  5
181
330
1F
100
AcDbEntity
  8
1
  6
Continuous
 62
     3
100
AcDbLine
 10
346.1499687185775
 20
-864.2540474364888
 30
0.0
 11
346.1499687185777
 21
-887.3604455505495
 31
0.0
  0
LINE
  5
182
330
1F
100
AcDbEntity
  8
1
  6
Continuous
 62
     3
100
AcDbLine
 10
345.8484318225075
 20
-876.1184116344374
 30
0.0
 11
337.7605124065525
 21
-898.3397876001403
 31
0.0
  0
LINE
  5
183
330
1F
100
AcDbEntity
  8
1
  6
Continuous
 62
     3
100
AcDbLine
 10
370.4515056146485
 20
-876.1184116344373
 30
0.0
 11
378.5394250306025
 21
-898.3397876001403
 31
0.0
  0
LINE
  5
184
330
1F
100
AcDbEntity
  8
1
  6
Continuous
 62
     3
100
AcDbLine
 10
333.1499687185775
 20
-907.0919067941653
 30
0.0
 11
333.1499687185775
 21
-927.4879848485373
 31
0.0
  0
LINE
  5
185
330
1F
100
AcDbEntity
  8
1
  6
Continuous
 62
     3
100
AcDbLine
 10
383.1499687185775
 20
-907.0919067941653
 30
0.0
 11
383.1499687185775
 21
-917.2899458213512
 31
0.0
  0
LINE
  5
186
330
1F
100
AcDbEntity
  8
1
  6
Continuous
 62
     3
100
AcDbLine
 10
354.4817295849053
 20
-944.0396004295553
 30
0.0
 11
336.8182078522495
 21
-933.8415614023693
 31
0.0
  0
LINE
  5
187
330
1F
100
AcDbEntity
  8
1
  6
Continuous
 62
     3
100
AcDbLine
 10
379.4817295849053
 20
-933.8415614023693
 30
0.0
 11
361.8182078522495
 21
-944.0396004295553
 31
0.0
  0
LINE
  5
188
330
1F
100
AcDbEntity
  8
1
  6
Continuous
 62
     3
100
AcDbLine
 10
361.8182078522498
 20
-890.5402912131474
 30
0.0
 11
379.4817295849055
 21
-900.7383302403333
 31
0.0
  0
LINE
  5
189
330
1F
100
AcDbEntity
  8
1
  6
Continuous
 62
     3
100
AcDbLine
 10
336.8182078522495
 20
-900.7383302403333
 30
0.0
 11
354.9153405229371
 21
-890.2899458213514
 31
0.0
  0
LINE
  5
18A
330
1F
100
AcDbEntity
  8
1
  6
DOT_CENTER
 62
     1
100
AcDbLine
 10
327.7126502562237
 20
-917.2899458213512
 30
0.0
 11
388.1320384795617
 21
-917.2899458213512
 31
0.0
  0
LINE
  5
18B
330
1F
100
AcDbEntity
  8
1
  6
DOT_CENTER
 62
     1
100
AcDbLine
 10
358.1499687185775
 20
-820.7899458213511
 30
0.0
 11
358.1499687185775
 21
-970.2899458213511
 31
0.0
  0
LINE
  5
18C
330
1F
100
AcDbEntity
  8
1
  6
Continuous
 62
     3
100
AcDbLine
 10
383.1499687185775
 20
-917.2899458213512
 30
0.0
 11
383.1499687185775
 21
-927.4879848485373
 31
0.0
  0
LINE
  5
18D
330
1F
100
AcDbEntity
  8
1
  6
Continuous
 62
     3
100
AcDbLine
 10
359.6499687185775
 20
-876.289945821351
 30
0.0
 11
359.6499687185775
 21
-888.789945821351
 31
0.0
  0
LINE
  5
18E
330
1F
100
AcDbEntity
  8
1
  6
Continuous
 62
     3
100
AcDbLine
 10
356.6499687185775
 20
-876.289945821351
 30
0.0
 11
356.6499687185775
 21
-888.789945821351
 31
0.0
  0
LINE
  5
18F
330
1F
100
AcDbEntity
  8
1
  6
Continuous
 62
     3
100
AcDbLine
 10
345.1499687185775
 20
-862.52199662892
 30
0.0
 11
371.1499687185775
 21
-862.52199662892
 31
0.0
  0
LINE
  5
190
330
1F
100
AcDbEntity
  8
1
  6
Continuous
 62
     3
100
AcDbLine
 10
344.1499687185775
 20
-856.2899458213511
 30
0.0
 11
344.1499687185775
 21
-860.7899458213511
 31
0.0
  0
LINE
  5
191
330
1F
100
AcDbEntity
  8
1
  6
Continuous
 62
     3
100
AcDbLine
 10
372.1499687185775
 20
-860.7899458213511
 30
0.0
 11
372.1499687185775
 21
-856.2899458213511
 31
0.0
  0
LINE
  5
192
330
1F
100
AcDbEntity
  8
1
  6
Continuous
 62
     3
100
AcDbLine
 10
378.1499687185775
 20
-848.7899458213511
 30
0.0
 11
345.1499687185775
 21
-848.7899458213511
 31
0.0
  0
LINE
  5
193
330
1F
100
AcDbEntity
  8
1
  6
Continuous
 62
     3
100
AcDbLine
 10
338.1499687185775
 20
-848.7899458213511
 30
0.0
 11
345.1499687185775
 21
-848.7899458213511
 31
0.0
  0
LINE
  5
194
330
1F
100
AcDbEntity
  8
1
  6
Continuous
 62
     3
100
AcDbLine
 10
378.1499687185775
 20
-852.2899458213514
 30
0.0
 11
378.1499687185775
 21
-848.7899458213511
 31
0.0
  0
LINE
  5
195
330
1F
100
AcDbEntity
  8
1
  6
Continuous
 62
     3
100
AcDbLine
 10
374.9196647256621
 20
-853.2899458213511
 30
0.0
 11
377.1499687185775
 21
-853.2899458213511
 31
0.0
  0
LINE
  5
196
330
1F
100
AcDbEntity
  8
1
  6
Continuous
 62
     3
100
AcDbLine
 10
339.1499687185775
 20
-853.2899458213511
 30
0.0
 11
341.3802727114929
 21
-853.2899458213511
 31
0.0
  0
LINE
  5
197
330
1F
100
AcDbEntity
  8
1
  6
Continuous
 62
     3
100
AcDbLine
 10
341.1499687185775
 20
-853.2899458213514
 30
0.0
 11
375.1499687185775
 21
-853.2899458213514
 31
0.0
  0
LINE
  5
198
330
1F
100
AcDbEntity
  8
1
  6
Continuous
 62
     3
100
AcDbLine
 10
338.1499687185775
 20
-848.7899458213511
 30
0.0
 11
338.1499687185775
 21
-852.2899458213511
 31
0.0
  0
LINE
  5
199
330
1F
100
AcDbEntity
  8
1
  6
Continuous
 62
     3
100
AcDbLine
 10
664.142492699807
 20
-945.789945821351
 30
0.0
 11
664.843872329415
 21
-945.789945821351
 31
0.0
  0
LINE
  5
19A
330
1F
100
AcDbEntity
  8
1
  6
Continuous
 62
     3
100
AcDbLine
 10
469.5338278238389
 20
-916.9680877114595
 30
0.0
 11
463.924968718577
 21
-911.2899458213512
 31
0.0
  0
LINE
  5
19B
330
1F
100
AcDbEntity
  8
1
  6
Continuous
 62
     3
100
AcDbLine
 10
469.5338278238389
 20
-911.2899458213512
 30
0.0
 11
469.5338278238389
 21
-916.9680877114595
 31
0.0
  0
LINE
  5
19C
330
1F
100
AcDbEntity
  8
1
  6
Continuous
 62
     3
100
AcDbLine
 10
478.913884981366
 20
-911.2899458213512
 30
0.0
 11
469.5338278238389
 21
-923.2899458213512
 31
0.0
  0
LINE
  5
19D
330
1F
100
AcDbEntity
  8
1
  6
Continuous
 62
     3
100
AcDbLine
 10
473.1671126581502
 20
-911.2899458213512
 30
0.0
 11
478.913884981366
 21
-911.2899458213512
 31
0.0
  0
LINE
  5
19E
330
1F
100
AcDbEntity
  8
1
  6
Continuous
 62
     3
100
AcDbLine
 10
463.924968718577
 20
-923.2899458213512
 30
0.0
 11
469.5338278238389
 21
-923.2899458213512
 31
0.0
  0
LINE
  5
19F
330
1F
100
AcDbEntity
  8
1
  6
Continuous
 62
     3
100
AcDbLine
 10
469.5338278238389
 20
-917.2899458213512
 30
0.0
 11
463.924968718577
 21
-923.2899458213512
 31
0.0
  0
LINE
  5
1A0
330
1F
100
AcDbEntity
  8
1
  6
Continuous
 62
     3
100
AcDbLine
 10
473.1671126581502
 20
-914.2883275309425
 30
0.0
 11
473.1671126581502
 21
-911.2899458213512
 31
0.0
  0
LINE
  5
1A1
330
1F
100
AcDbEntity
  8
1
  6
Continuous
 62
     3
100
AcDbLine
 10
469.5338278238389
 20
-917.2899458213512
 30
0.0
 11
470.1654943677415
 21
-917.2899458213512
 31
0.0
  0
LINE
  5
1A2
330
1F
100
AcDbEntity
  8
1
  6
Continuous
 62
     3
100
AcDbLine
 10
463.924968718577
 20
-911.2899458213512
 30
0.0
 11
469.5338278238389
 21
-911.2899458213512
 31
0.0
  0
LINE
  5
1A3
330
1F
100
AcDbEntity
  8
1
  6
Continuous
 62
     3
100
AcDbLine
 10
468.2965312185769
 20
-904.8774458213513
 30
0.0
 11
468.664031218577
 21
-904.8774458213513
 31
0.0
  0
LINE
  5
1A4
330
1F
100
AcDbEntity
  8
1
  6
Continuous
 62
     3
100
AcDbLine
 10
468.664031218577
 20
-904.8774458213513
 30
0.0
 11
469.123406218577
 21
-904.9649458213512
 31
0.0
  0
LINE
  5
1A5
330
1F
100
AcDbEntity
  8
1
  6
Continuous
 62
     3
100
AcDbLine
 10
469.123406218577
 20
-904.9649458213512
 30
0.0
 11
469.490906218577
 21
-905.2274458213512
 31
0.0
  0
LINE
  5
1A6
330
1F
100
AcDbEntity
  8
1
  6
Continuous
 62
     3
100
AcDbLine
 10
469.490906218577
 20
-905.2274458213512
 30
0.0
 11
469.766531218577
 21
-905.5774458213514
 31
0.0
  0
LINE
  5
1A7
330
1F
100
AcDbEntity
  8
1
  6
Continuous
 62
     3
100
AcDbLine
 10
469.766531218577
 20
-905.5774458213514
 30
0.0
 11
469.858406218577
 21
-905.9274458213511
 31
0.0
  0
LINE
  5
1A8
330
1F
100
AcDbEntity
  8
1
  6
Continuous
 62
     3
100
AcDbLine
 10
469.858406218577
 20
-905.9274458213511
 30
0.0
 11
469.858406218577
 21
-906.2774458213512
 31
0.0
  0
LINE
  5
1A9
330
1F
100
AcDbEntity
  8
1
  6
Continuous
 62
     3
100
AcDbLine
 10
469.858406218577
 20
-906.2774458213512
 30
0.0
 11
469.766531218577
 21
-906.6274458213513
 31
0.0
  0
LINE
  5
1AA
330
1F
100
AcDbEntity
  8
1
  6
Continuous
 62
     3
100
AcDbLine
 10
469.766531218577
 20
-906.6274458213513
 30
0.0
 11
469.490906218577
 21
-906.9774458213512
 31
0.0
  0
LINE
  5
1AB
330
1F
100
AcDbEntity
  8
1
  6
Continuous
 62
     3
100
AcDbLine
 10
469.490906218577
 20
-906.9774458213512
 30
0.0
 11
469.123406218577
 21
-907.2399458213511
 31
0.0
  0
LINE
  5
1AC
330
1F
100
AcDbEntity
  8
1
  6
Continuous
 62
     3
100
AcDbLine
 10
469.123406218577
 20
-907.2399458213511
 30
0.0
 11
468.664031218577
 21
-907.3274458213514
 31
0.0
  0
LINE
  5
1AD
330
1F
100
AcDbEntity
  8
1
  6
Continuous
 62
     3
100
AcDbLine
 10
468.664031218577
 20
-907.3274458213514
 30
0.0
 11
468.2965312185769
 21
-907.3274458213514
 31
0.0
  0
LINE
  5
1AE
330
1F
100
AcDbEntity
  8
1
  6
Continuous
 62
     3
100
AcDbLine
 10
468.2965312185769
 20
-907.3274458213514
 30
0.0
 11
467.837156218577
 21
-907.2399458213511
 31
0.0
  0
LINE
  5
1AF
330
1F
100
AcDbEntity
  8
1
  6
Continuous
 62
     3
100
AcDbLine
 10
467.837156218577
 20
-907.2399458213511
 30
0.0
 11
467.469656218577
 21
-906.9774458213512
 31
0.0
  0
LINE
  5
1B0
330
1F
100
AcDbEntity
  8
1
  6
Continuous
 62
     3
100
AcDbLine
 10
467.469656218577
 20
-906.9774458213512
 30
0.0
 11
467.194031218577
 21
-906.6274458213513
 31
0.0
  0
LINE
  5
1B1
330
1F
100
AcDbEntity
  8
1
  6
Continuous
 62
     3
100
AcDbLine
 10
467.194031218577
 20
-906.6274458213513
 30
0.0
 11
467.102156218577
 21
-906.2774458213512
 31
0.0
  0
LINE
  5
1B2
330
1F
100
AcDbEntity
  8
1
  6
Continuous
 62
     3
100
AcDbLine
 10
467.102156218577
 20
-906.2774458213512
 30
0.0
 11
467.102156218577
 21
-905.9274458213511
 31
0.0
  0
LINE
  5
1B3
330
1F
100
AcDbEntity
  8
1
  6
Continuous
 62
     3
100
AcDbLine
 10
467.102156218577
 20
-905.9274458213511
 30
0.0
 11
465.9996562185769
 21
-905.9274458213511
 31
0.0
  0
LINE
  5
1B4
330
1F
100
AcDbEntity
  8
1
  6
Continuous
 62
     3
100
AcDbLine
 10
465.9996562185769
 20
-905.9274458213511
 30
0.0
 11
465.9996562185769
 21
-906.3649458213511
 31
0.0
  0
LINE
  5
1B5
330
1F
100
AcDbEntity
  8
1
  6
Continuous
 62
     3
100
AcDbLine
 10
465.9996562185769
 20
-906.3649458213511
 30
0.0
 11
466.183406218577
 21
-906.9774458213512
 31
0.0
  0
LINE
  5
1B6
330
1F
100
AcDbEntity
  8
1
  6
Continuous
 62
     3
100
AcDbLine
 10
466.183406218577
 20
-906.9774458213512
 30
0.0
 11
466.459031218577
 21
-907.4149458213512
 31
0.0
  0
LINE
  5
1B7
330
1F
100
AcDbEntity
  8
1
  6
Continuous
 62
     3
100
AcDbLine
 10
466.459031218577
 20
-907.4149458213512
 30
0.0
 11
466.918406218577
 21
-907.8524458213512
 31
0.0
  0
LINE
  5
1B8
330
1F
100
AcDbEntity
  8
1
  6
Continuous
 62
     3
100
AcDbLine
 10
466.918406218577
 20
-907.8524458213512
 30
0.0
 11
467.469656218577
 21
-908.1149458213511
 31
0.0
  0
LINE
  5
1B9
330
1F
100
AcDbEntity
  8
1
  6
Continuous
 62
     3
100
AcDbLine
 10
467.469656218577
 20
-908.1149458213511
 30
0.0
 11
468.204656218577
 21
-908.2899458213512
 31
0.0
  0
LINE
  5
1BA
330
1F
100
AcDbEntity
  8
1
  6
Continuous
 62
     3
100
AcDbLine
 10
468.204656218577
 20
-908.2899458213512
 30
0.0
 11
468.755906218577
 21
-908.2899458213512
 31
0.0
  0
LINE
  5
1BB
330
1F
100
AcDbEntity
  8
1
  6
Continuous
 62
     3
100
AcDbLine
 10
468.755906218577
 20
-908.2899458213512
 30
0.0
 11
469.490906218577
 21
-908.1149458213511
 31
0.0
  0
LINE
  5
1BC
330
1F
100
AcDbEntity
  8
1
  6
Continuous
 62
     3
100
AcDbLine
 10
469.490906218577
 20
-908.1149458213511
 30
0.0
 11
470.042156218577
 21
-907.8524458213512
 31
0.0
  0
LINE
  5
1BD
330
1F
100
AcDbEntity
  8
1
  6
Continuous
 62
     3
100
AcDbLine
 10
470.042156218577
 20
-907.8524458213512
 30
0.0
 11
470.501531218577
 21
-907.4149458213512
 31
0.0
  0
LINE
  5
1BE
330
1F
100
AcDbEntity
  8
1
  6
Continuous
 62
     3
100
AcDbLine
 10
470.501531218577
 20
-907.4149458213512
 30
0.0
 11
470.777156218577
 21
-906.9774458213512
 31
0.0
  0
LINE
  5
1BF
330
1F
100
AcDbEntity
  8
1
  6
Continuous
 62
     3
100
AcDbLine
 10
470.777156218577
 20
-906.9774458213512
 30
0.0
 11
470.960906218577
 21
-906.3649458213511
 31
0.0
  0
LINE
  5
1C0
330
1F
100
AcDbEntity
  8
1
  6
Continuous
 62
     3
100
AcDbLine
 10
470.960906218577
 20
-906.3649458213511
 30
0.0
 11
470.960906218577
 21
-905.9274458213511
 31
0.0
  0
LINE
  5
1C1
330
1F
100
AcDbEntity
  8
1
  6
Continuous
 62
     3
100
AcDbLine
 10
470.960906218577
 20
-905.9274458213511
 30
0.0
 11
470.777156218577
 21
-905.3149458213513
 31
0.0
  0
LINE
  5
1C2
330
1F
100
AcDbEntity
  8
1
  6
Continuous
 62
     3
100
AcDbLine
 10
470.777156218577
 20
-905.3149458213513
 30
0.0
 11
470.409656218577
 21
-904.7899458213512
 31
0.0
  0
LINE
  5
1C3
330
1F
100
AcDbEntity
  8
1
  6
Continuous
 62
     3
100
AcDbLine
 10
470.409656218577
 20
-904.7899458213512
 30
0.0
 11
469.950281218577
 21
-904.4399458213513
 31
0.0
  0
LINE
  5
1C4
330
1F
100
AcDbEntity
  8
1
  6
Continuous
 62
     3
100
AcDbLine
 10
469.950281218577
 20
-904.4399458213513
 30
0.0
 11
470.134031218577
 21
-904.2649458213514
 31
0.0
  0
LINE
  5
1C5
330
1F
100
AcDbEntity
  8
1
  6
Continuous
 62
     3
100
AcDbLine
 10
470.134031218577
 20
-904.2649458213514
 30
0.0
 11
470.501531218577
 21
-903.7399458213511
 31
0.0
  0
LINE
  5
1C6
330
1F
100
AcDbEntity
  8
1
  6
Continuous
 62
     3
100
AcDbLine
 10
470.501531218577
 20
-903.7399458213511
 30
0.0
 11
470.5934062185769
 21
-903.3024458213511
 31
0.0
  0
LINE
  5
1C7
330
1F
100
AcDbEntity
  8
1
  6
Continuous
 62
     3
100
AcDbLine
 10
470.5934062185769
 20
-903.3024458213511
 30
0.0
 11
470.5934062185769
 21
-902.9524458213514
 31
0.0
  0
LINE
  5
1C8
330
1F
100
AcDbEntity
  8
1
  6
Continuous
 62
     3
100
AcDbLine
 10
470.5934062185769
 20
-902.9524458213514
 30
0.0
 11
470.501531218577
 21
-902.5149458213514
 31
0.0
  0
LINE
  5
1C9
330
1F
100
AcDbEntity
  8
1
  6
Continuous
 62
     3
100
AcDbLine
 10
470.501531218577
 20
-902.5149458213514
 30
0.0
 11
470.134031218577
 21
-901.9899458213511
 31
0.0
  0
LINE
  5
1CA
330
1F
100
AcDbEntity
  8
1
  6
Continuous
 62
     3
100
AcDbLine
 10
470.134031218577
 20
-901.9899458213511
 30
0.0
 11
469.766531218577
 21
-901.6399458213514
 31
0.0
  0
LINE
  5
1CB
330
1F
100
AcDbEntity
  8
1
  6
Continuous
 62
     3
100
AcDbLine
 10
469.766531218577
 20
-901.6399458213514
 30
0.0
 11
469.215281218577
 21
-901.3774458213513
 31
0.0
  0
LINE
  5
1CC
330
1F
100
AcDbEntity
  8
1
  6
Continuous
 62
     3
100
AcDbLine
 10
469.215281218577
 20
-901.3774458213513
 30
0.0
 11
468.755906218577
 21
-901.2899458213512
 31
0.0
  0
LINE
  5
1CD
330
1F
100
AcDbEntity
  8
1
  6
Continuous
 62
     3
100
AcDbLine
 10
468.755906218577
 20
-901.2899458213512
 30
0.0
 11
468.204656218577
 21
-901.2899458213512
 31
0.0
  0
LINE
  5
1CE
330
1F
100
AcDbEntity
  8
1
  6
Continuous
 62
     3
100
AcDbLine
 10
468.204656218577
 20
-901.2899458213512
 30
0.0
 11
467.745281218577
 21
-901.3774458213513
 31
0.0
  0
LINE
  5
1CF
330
1F
100
AcDbEntity
  8
1
  6
Continuous
 62
     3
100
AcDbLine
 10
467.745281218577
 20
-901.3774458213513
 30
0.0
 11
467.194031218577
 21
-901.6399458213514
 31
0.0
  0
LINE
  5
1D0
330
1F
100
AcDbEntity
  8
1
  6
Continuous
 62
     3
100
AcDbLine
 10
467.194031218577
 20
-901.6399458213514
 30
0.0
 11
466.826531218577
 21
-901.9899458213511
 31
0.0
  0
LINE
  5
1D1
330
1F
100
AcDbEntity
  8
1
  6
Continuous
 62
     3
100
AcDbLine
 10
466.826531218577
 20
-901.9899458213511
 30
0.0
 11
466.459031218577
 21
-902.5149458213514
 31
0.0
  0
LINE
  5
1D2
330
1F
100
AcDbEntity
  8
1
  6
Continuous
 62
     3
100
AcDbLine
 10
466.459031218577
 20
-902.5149458213514
 30
0.0
 11
466.367156218577
 21
-902.9524458213514
 31
0.0
  0
LINE
  5
1D3
330
1F
100
AcDbEntity
  8
1
  6
Continuous
 62
     3
100
AcDbLine
 10
466.367156218577
 20
-902.9524458213514
 30
0.0
 11
466.367156218577
 21
-903.3024458213511
 31
0.0
  0
LINE
  5
1D4
330
1F
100
AcDbEntity
  8
1
  6
Continuous
 62
     3
100
AcDbLine
 10
466.367156218577
 20
-903.3024458213511
 30
0.0
 11
467.377781218577
 21
-903.3024458213511
 31
0.0
  0
LINE
  5
1D5
330
1F
100
AcDbEntity
  8
1
  6
Continuous
 62
     3
100
AcDbLine
 10
467.377781218577
 20
-903.3024458213511
 30
0.0
 11
467.377781218577
 21
-902.9524458213514
 31
0.0
  0
LINE
  5
1D6
330
1F
100
AcDbEntity
  8
1
  6
Continuous
 62
     3
100
AcDbLine
 10
467.377781218577
 20
-902.9524458213514
 30
0.0
 11
467.469656218577
 21
-902.6899458213513
 31
0.0
  0
LINE
  5
1D7
330
1F
100
AcDbEntity
  8
1
  6
Continuous
 62
     3
100
AcDbLine
 10
467.469656218577
 20
-902.6899458213513
 30
0.0
 11
467.653406218577
 21
-902.4274458213511
 31
0.0
  0
LINE
  5
1D8
330
1F
100
AcDbEntity
  8
1
  6
Continuous
 62
     3
100
AcDbLine
 10
467.653406218577
 20
-902.4274458213511
 30
0.0
 11
467.929031218577
 21
-902.2524458213513
 31
0.0
  0
LINE
  5
1D9
330
1F
100
AcDbEntity
  8
1
  6
Continuous
 62
     3
100
AcDbLine
 10
467.929031218577
 20
-902.2524458213513
 30
0.0
 11
468.2965312185769
 21
-902.1649458213512
 31
0.0
  0
LINE
  5
1DA
330
1F
100
AcDbEntity
  8
1
  6
Continuous
 62
     3
100
AcDbLine
 10
468.2965312185769
 20
-902.1649458213512
 30
0.0
 11
468.664031218577
 21
-902.1649458213512
 31
0.0
  0
LINE
  5
1DB
330
1F
100
AcDbEntity
  8
1
  6
Continuous
 62
     3
100
AcDbLine
 10
468.664031218577
 20
-902.1649458213512
 30
0.0
 11
469.0315312185771
 21
-902.2524458213513
 31
0.0
  0
LINE
  5
1DC
330
1F
100
AcDbEntity
  8
1
  6
Continuous
 62
     3
100
AcDbLine
 10
469.0315312185771
 20
-902.2524458213513
 30
0.0
 11
469.3071562185771
 21
-902.4274458213511
 31
0.0
  0
LINE
  5
1DD
330
1F
100
AcDbEntity
  8
1
  6
Continuous
 62
     3
100
AcDbLine
 10
469.3071562185771
 20
-902.4274458213511
 30
0.0
 11
469.490906218577
 21
-902.6899458213513
 31
0.0
  0
LINE
  5
1DE
330
1F
100
AcDbEntity
  8
1
  6
Continuous
 62
     3
100
AcDbLine
 10
469.490906218577
 20
-902.6899458213513
 30
0.0
 11
469.5827812185771
 21
-902.9524458213514
 31
0.0
  0
LINE
  5
1DF
330
1F
100
AcDbEntity
  8
1
  6
Continuous
 62
     3
100
AcDbLine
 10
469.5827812185771
 20
-902.9524458213514
 30
0.0
 11
469.5827812185771
 21
-903.3024458213511
 31
0.0
  0
LINE
  5
1E0
330
1F
100
AcDbEntity
  8
1
  6
Continuous
 62
     3
100
AcDbLine
 10
469.5827812185771
 20
-903.3024458213511
 30
0.0
 11
469.490906218577
 21
-903.5649458213513
 31
0.0
  0
LINE
  5
1E1
330
1F
100
AcDbEntity
  8
1
  6
Continuous
 62
     3
100
AcDbLine
 10
469.490906218577
 20
-903.5649458213513
 30
0.0
 11
469.3071562185771
 21
-903.8274458213514
 31
0.0
  0
LINE
  5
1E2
330
1F
100
AcDbEntity
  8
1
  6
Continuous
 62
     3
100
AcDbLine
 10
469.3071562185771
 20
-903.8274458213514
 30
0.0
 11
469.0315312185771
 21
-904.0024458213513
 31
0.0
  0
LINE
  5
1E3
330
1F
100
AcDbEntity
  8
1
  6
Continuous
 62
     3
100
AcDbLine
 10
469.0315312185771
 20
-904.0024458213513
 30
0.0
 11
468.664031218577
 21
-904.0899458213512
 31
0.0
  0
LINE
  5
1E4
330
1F
100
AcDbEntity
  8
1
  6
Continuous
 62
     3
100
AcDbLine
 10
468.664031218577
 20
-904.0899458213512
 30
0.0
 11
468.2965312185769
 21
-904.0899458213512
 31
0.0
  0
LINE
  5
1E5
330
1F
100
AcDbEntity
  8
1
  6
Continuous
 62
     3
100
AcDbLine
 10
468.2965312185769
 20
-904.0899458213512
 30
0.0
 11
468.2965312185769
 21
-904.8774458213513
 31
0.0
  0
LINE
  5
1E6
330
1F
100
AcDbEntity
  8
1
  6
Continuous
 62
     3
100
AcDbLine
 10
472.430906218577
 20
-908.2899458213512
 30
0.0
 11
472.430906218577
 21
-907.7649458213514
 31
0.0
  0
LINE
  5
1E7
330
1F
100
AcDbEntity
  8
1
  6
Continuous
 62
     3
100
AcDbLine
 10
472.430906218577
 20
-907.7649458213514
 30
0.0
 11
472.614656218577
 21
-907.1524458213512
 31
0.0
  0
LINE
  5
1E8
330
1F
100
AcDbEntity
  8
1
  6
Continuous
 62
     3
100
AcDbLine
 10
472.614656218577
 20
-907.1524458213512
 30
0.0
 11
472.982156218577
 21
-906.5399458213512
 31
0.0
  0
LINE
  5
1E9
330
1F
100
AcDbEntity
  8
1
  6
Continuous
 62
     3
100
AcDbLine
 10
472.982156218577
 20
-906.5399458213512
 30
0.0
 11
473.441531218577
 21
-906.0149458213514
 31
0.0
  0
LINE
  5
1EA
330
1F
100
AcDbEntity
  8
1
  6
Continuous
 62
     3
100
AcDbLine
 10
473.441531218577
 20
-906.0149458213514
 30
0.0
 11
473.992781218577
 21
-905.4024458213512
 31
0.0
  0
LINE
  5
1EB
330
1F
100
AcDbEntity
  8
1
  6
Continuous
 62
     3
100
AcDbLine
 10
473.992781218577
 20
-905.4024458213512
 30
0.0
 11
474.544031218577
 21
-904.9649458213512
 31
0.0
  0
LINE
  5
1EC
330
1F
100
AcDbEntity
  8
1
  6
Continuous
 62
     3
100
AcDbLine
 10
474.544031218577
 20
-904.9649458213512
 30
0.0
 11
475.095281218577
 21
-904.4399458213513
 31
0.0
  0
LINE
  5
1ED
330
1F
100
AcDbEntity
  8
1
  6
Continuous
 62
     3
100
AcDbLine
 10
475.095281218577
 20
-904.4399458213513
 30
0.0
 11
475.738406218577
 21
-903.8274458213514
 31
0.0
  0
LINE
  5
1EE
330
1F
100
AcDbEntity
  8
1
  6
Continuous
 62
     3
100
AcDbLine
 10
475.738406218577
 20
-903.8274458213514
 30
0.0
 11
475.9221562185771
 21
-903.5649458213513
 31
0.0
  0
LINE
  5
1EF
330
1F
100
AcDbEntity
  8
1
  6
Continuous
 62
     3
100
AcDbLine
 10
475.9221562185771
 20
-903.5649458213513
 30
0.0
 11
476.014031218577
 21
-903.3024458213511
 31
0.0
  0
LINE
  5
1F0
330
1F
100
AcDbEntity
  8
1
  6
Continuous
 62
     3
100
AcDbLine
 10
476.014031218577
 20
-903.3024458213511
 30
0.0
 11
476.014031218577
 21
-902.9524458213514
 31
0.0
  0
LINE
  5
1F1
330
1F
100
AcDbEntity
  8
1
  6
Continuous
 62
     3
100
AcDbLine
 10
476.014031218577
 20
-902.9524458213514
 30
0.0
 11
475.9221562185771
 21
-902.6899458213513
 31
0.0
  0
LINE
  5
1F2
330
1F
100
AcDbEntity
  8
1
  6
Continuous
 62
     3
100
AcDbLine
 10
475.9221562185771
 20
-902.6899458213513
 30
0.0
 11
475.738406218577
 21
-902.4274458213511
 31
0.0
  0
LINE
  5
1F3
330
1F
100
AcDbEntity
  8
1
  6
Continuous
 62
     3
100
AcDbLine
 10
475.738406218577
 20
-902.4274458213511
 30
0.0
 11
475.4627812185769
 21
-902.2524458213513
 31
0.0
  0
LINE
  5
1F4
330
1F
100
AcDbEntity
  8
1
  6
Continuous
 62
     3
100
AcDbLine
 10
475.4627812185769
 20
-902.2524458213513
 30
0.0
 11
475.095281218577
 21
-902.1649458213512
 31
0.0
  0
LINE
  5
1F5
330
1F
100
AcDbEntity
  8
1
  6
Continuous
 62
     3
100
AcDbLine
 10
475.095281218577
 20
-902.1649458213512
 30
0.0
 11
474.727781218577
 21
-902.1649458213512
 31
0.0
  0
LINE
  5
1F6
330
1F
100
AcDbEntity
  8
1
  6
Continuous
 62
     3
100
AcDbLine
 10
474.727781218577
 20
-902.1649458213512
 30
0.0
 11
474.360281218577
 21
-902.2524458213513
 31
0.0
  0
LINE
  5
1F7
330
1F
100
AcDbEntity
  8
1
  6
Continuous
 62
     3
100
AcDbLine
 10
474.360281218577
 20
-902.2524458213513
 30
0.0
 11
474.084656218577
 21
-902.4274458213511
 31
0.0
  0
LINE
  5
1F8
330
1F
100
AcDbEntity
  8
1
  6
Continuous
 62
     3
100
AcDbLine
 10
474.084656218577
 20
-902.4274458213511
 30
0.0
 11
473.9009062185771
 21
-902.6899458213513
 31
0.0
  0
LINE
  5
1F9
330
1F
100
AcDbEntity
  8
1
  6
Continuous
 62
     3
100
AcDbLine
 10
473.9009062185771
 20
-902.6899458213513
 30
0.0
 11
473.809031218577
 21
-902.9524458213514
 31
0.0
  0
LINE
  5
1FA
330
1F
100
AcDbEntity
  8
1
  6
Continuous
 62
     3
100
AcDbLine
 10
473.809031218577
 20
-902.9524458213514
 30
0.0
 11
473.809031218577
 21
-903.3024458213511
 31
0.0
  0
LINE
  5
1FB
330
1F
100
AcDbEntity
  8
1
  6
Continuous
 62
     3
100
AcDbLine
 10
473.809031218577
 20
-903.3024458213511
 30
0.0
 11
472.798406218577
 21
-903.3024458213511
 31
0.0
  0
LINE
  5
1FC
330
1F
100
AcDbEntity
  8
1
  6
Continuous
 62
     3
100
AcDbLine
 10
472.798406218577
 20
-903.3024458213511
 30
0.0
 11
472.798406218577
 21
-902.9524458213514
 31
0.0
  0
LINE
  5
1FD
330
1F
100
AcDbEntity
  8
1
  6
Continuous
 62
     3
100
AcDbLine
 10
472.798406218577
 20
-902.9524458213514
 30
0.0
 11
472.8902812185769
 21
-902.5149458213514
 31
0.0
  0
LINE
  5
1FE
330
1F
100
AcDbEntity
  8
1
  6
Continuous
 62
     3
100
AcDbLine
 10
472.8902812185769
 20
-902.5149458213514
 30
0.0
 11
473.257781218577
 21
-901.9899458213511
 31
0.0
  0
LINE
  5
1FF
330
1F
100
AcDbEntity
  8
1
  6
Continuous
 62
     3
100
AcDbLine
 10
473.257781218577
 20
-901.9899458213511
 30
0.0
 11
473.6252812185771
 21
-901.6399458213514
 31
0.0
  0
LINE
  5
200
330
1F
100
AcDbEntity
  8
1
  6
Continuous
 62
     3
100
AcDbLine
 10
473.6252812185771
 20
-901.6399458213514
 30
0.0
 11
474.1765312185771
 21
-901.3774458213513
 31
0.0
  0
LINE
  5
201
330
1F
100
AcDbEntity
  8
1
  6
Continuous
 62
     3
100
AcDbLine
 10
474.1765312185771
 20
-901.3774458213513
 30
0.0
 11
474.635906218577
 21
-901.2899458213512
 31
0.0
  0
LINE
  5
202
330
1F
100
AcDbEntity
  8
1
  6
Continuous
 62
     3
100
AcDbLine
 10
474.635906218577
 20
-901.2899458213512
 30
0.0
 11
475.1871562185769
 21
-901.2899458213512
 31
0.0
  0
LINE
  5
203
330
1F
100
AcDbEntity
  8
1
  6
Continuous
 62
     3
100
AcDbLine
 10
475.1871562185769
 20
-901.2899458213512
 30
0.0
 11
475.646531218577
 21
-901.3774458213513
 31
0.0
  0
LINE
  5
204
330
1F
100
AcDbEntity
  8
1
  6
Continuous
 62
     3
100
AcDbLine
 10
475.646531218577
 20
-901.3774458213513
 30
0.0
 11
476.1977812185771
 21
-901.6399458213514
 31
0.0
  0
LINE
  5
205
330
1F
100
AcDbEntity
  8
1
  6
Continuous
 62
     3
100
AcDbLine
 10
476.1977812185771
 20
-901.6399458213514
 30
0.0
 11
476.565281218577
 21
-901.9899458213511
 31
0.0
  0
LINE
  5
206
330
1F
100
AcDbEntity
  8
1
  6
Continuous
 62
     3
100
AcDbLine
 10
476.565281218577
 20
-901.9899458213511
 30
0.0
 11
476.932781218577
 21
-902.5149458213514
 31
0.0
  0
LINE
  5
207
330
1F
100
AcDbEntity
  8
1
  6
Continuous
 62
     3
100
AcDbLine
 10
476.932781218577
 20
-902.5149458213514
 30
0.0
 11
477.024656218577
 21
-902.9524458213514
 31
0.0
  0
LINE
  5
208
330
1F
100
AcDbEntity
  8
1
  6
Continuous
 62
     3
100
AcDbLine
 10
477.024656218577
 20
-902.9524458213514
 30
0.0
 11
477.024656218577
 21
-903.3024458213511
 31
0.0
  0
LINE
  5
209
330
1F
100
AcDbEntity
  8
1
  6
Continuous
 62
     3
100
AcDbLine
 10
477.024656218577
 20
-903.3024458213511
 30
0.0
 11
476.932781218577
 21
-903.7399458213511
 31
0.0
  0
LINE
  5
20A
330
1F
100
AcDbEntity
  8
1
  6
Continuous
 62
     3
100
AcDbLine
 10
476.932781218577
 20
-903.7399458213511
 30
0.0
 11
476.565281218577
 21
-904.2649458213514
 31
0.0
  0
LINE
  5
20B
330
1F
100
AcDbEntity
  8
1
  6
Continuous
 62
     3
100
AcDbLine
 10
476.565281218577
 20
-904.2649458213514
 30
0.0
 11
476.381531218577
 21
-904.4399458213513
 31
0.0
  0
LINE
  5
20C
330
1F
100
AcDbEntity
  8
1
  6
Continuous
 62
     3
100
AcDbLine
 10
476.381531218577
 20
-904.4399458213513
 30
0.0
 11
475.646531218577
 21
-905.0524458213511
 31
0.0
  0
LINE
  5
20D
330
1F
100
AcDbEntity
  8
1
  6
Continuous
 62
     3
100
AcDbLine
 10
475.646531218577
 20
-905.0524458213511
 30
0.0
 11
475.003406218577
 21
-905.5774458213514
 31
0.0
  0
LINE
  5
20E
330
1F
100
AcDbEntity
  8
1
  6
Continuous
 62
     3
100
AcDbLine
 10
475.003406218577
 20
-905.5774458213514
 30
0.0
 11
474.360281218577
 21
-906.2774458213512
 31
0.0
  0
LINE
  5
20F
330
1F
100
AcDbEntity
  8
1
  6
Continuous
 62
     3
100
AcDbLine
 10
474.360281218577
 20
-906.2774458213512
 30
0.0
 11
473.9009062185771
 21
-906.8899458213514
 31
0.0
  0
LINE
  5
210
330
1F
100
AcDbEntity
  8
1
  6
Continuous
 62
     3
100
AcDbLine
 10
473.9009062185771
 20
-906.8899458213514
 30
0.0
 11
473.717156218577
 21
-907.4149458213512
 31
0.0
  0
LINE
  5
211
330
1F
100
AcDbEntity
  8
1
  6
Continuous
 62
     3
100
AcDbLine
 10
473.717156218577
 20
-907.4149458213512
 30
0.0
 11
477.300281218577
 21
-907.4149458213512
 31
0.0
  0
LINE
  5
212
330
1F
100
AcDbEntity
  8
1
  6
Continuous
 62
     3
100
AcDbLine
 10
477.300281218577
 20
-907.4149458213512
 30
0.0
 11
477.300281218577
 21
-908.2899458213512
 31
0.0
  0
LINE
  5
213
330
1F
100
AcDbEntity
  8
1
  6
Continuous
 62
     3
100
AcDbLine
 10
477.300281218577
 20
-908.2899458213512
 30
0.0
 11
472.430906218577
 21
-908.2899458213512
 31
0.0
  0
LINE
  5
214
330
1F
100
AcDbEntity
  8
1
  6
Continuous
 62
     3
100
AcDbLine
 10
463.5124687185771
 20
-929.6149458213511
 30
0.0
 11
464.037468718577
 21
-929.5274458213512
 31
0.0
  0
LINE
  5
215
330
1F
100
AcDbEntity
  8
1
  6
Continuous
 62
     3
100
AcDbLine
 10
464.037468718577
 20
-929.5274458213512
 30
0.0
 11
464.474968718577
 21
-929.3524458213512
 31
0.0
  0
LINE
  5
216
330
1F
100
AcDbEntity
  8
1
  6
Continuous
 62
     3
100
AcDbLine
 10
464.474968718577
 20
-929.3524458213512
 30
0.0
 11
464.737468718577
 21
-929.0899458213512
 31
0.0
  0
LINE
  5
217
330
1F
100
AcDbEntity
  8
1
  6
Continuous
 62
     3
100
AcDbLine
 10
464.737468718577
 20
-929.0899458213512
 30
0.0
 11
464.912468718577
 21
-928.6524458213512
 31
0.0
  0
LINE
  5
218
330
1F
100
AcDbEntity
  8
1
  6
Continuous
 62
     3
100
AcDbLine
 10
464.912468718577
 20
-928.6524458213512
 30
0.0
 11
464.912468718577
 21
-928.1274458213513
 31
0.0
  0
LINE
  5
219
330
1F
100
AcDbEntity
  8
1
  6
Continuous
 62
     3
100
AcDbLine
 10
464.912468718577
 20
-928.1274458213513
 30
0.0
 11
464.737468718577
 21
-927.6899458213513
 31
0.0
  0
LINE
  5
21A
330
1F
100
AcDbEntity
  8
1
  6
Continuous
 62
     3
100
AcDbLine
 10
464.737468718577
 20
-927.6899458213513
 30
0.0
 11
464.474968718577
 21
-927.4274458213511
 31
0.0
  0
LINE
  5
21B
330
1F
100
AcDbEntity
  8
1
  6
Continuous
 62
     3
100
AcDbLine
 10
464.474968718577
 20
-927.4274458213511
 30
0.0
 11
464.037468718577
 21
-927.2524458213513
 31
0.0
  0
LINE
  5
21C
330
1F
100
AcDbEntity
  8
1
  6
Continuous
 62
     3
100
AcDbLine
 10
464.037468718577
 20
-927.2524458213513
 30
0.0
 11
463.5124687185771
 21
-927.1649458213512
 31
0.0
  0
LINE
  5
21D
330
1F
100
AcDbEntity
  8
1
  6
Continuous
 62
     3
100
AcDbLine
 10
463.5124687185771
 20
-927.1649458213512
 30
0.0
 11
461.674968718577
 21
-927.1649458213512
 31
0.0
  0
LINE
  5
21E
330
1F
100
AcDbEntity
  8
1
  6
Continuous
 62
     3
100
AcDbLine
 10
461.674968718577
 20
-927.1649458213512
 30
0.0
 11
461.674968718577
 21
-929.6149458213511
 31
0.0
  0
LINE
  5
21F
330
1F
100
AcDbEntity
  8
1
  6
Continuous
 62
     3
100
AcDbLine
 10
461.674968718577
 20
-929.6149458213511
 30
0.0
 11
463.5124687185771
 21
-929.6149458213511
 31
0.0
  0
LINE
  5
220
330
1F
100
AcDbEntity
  8
1
  6
Continuous
 62
     3
100
AcDbLine
 10
465.787468718577
 20
-928.6524458213512
 30
0.0
 11
465.6999687185771
 21
-929.2649458213514
 31
0.0
  0
LINE
  5
221
330
1F
100
AcDbEntity
  8
1
  6
Continuous
 62
     3
100
AcDbLine
 10
465.6999687185771
 20
-929.2649458213514
 30
0.0
 11
465.349968718577
 21
-929.7899458213512
 31
0.0
  0
LINE
  5
222
330
1F
100
AcDbEntity
  8
1
  6
Continuous
 62
     3
100
AcDbLine
 10
465.349968718577
 20
-929.7899458213512
 30
0.0
 11
464.999968718577
 21
-930.1399458213514
 31
0.0
  0
LINE
  5
223
330
1F
100
AcDbEntity
  8
1
  6
Continuous
 62
     3
100
AcDbLine
 10
464.999968718577
 20
-930.1399458213514
 30
0.0
 11
464.474968718577
 21
-930.4024458213512
 31
0.0
  0
LINE
  5
224
330
1F
100
AcDbEntity
  8
1
  6
Continuous
 62
     3
100
AcDbLine
 10
464.474968718577
 20
-930.4024458213512
 30
0.0
 11
463.774968718577
 21
-930.4899458213511
 31
0.0
  0
LINE
  5
225
330
1F
100
AcDbEntity
  8
1
  6
Continuous
 62
     3
100
AcDbLine
 10
463.774968718577
 20
-930.4899458213511
 30
0.0
 11
461.674968718577
 21
-930.4899458213511
 31
0.0
  0
LINE
  5
226
330
1F
100
AcDbEntity
  8
1
  6
Continuous
 62
     3
100
AcDbLine
 10
461.674968718577
 20
-930.4899458213511
 30
0.0
 11
461.674968718577
 21
-933.2899458213512
 31
0.0
  0
LINE
  5
227
330
1F
100
AcDbEntity
  8
1
  6
Continuous
 62
     3
100
AcDbLine
 10
461.674968718577
 20
-933.2899458213512
 30
0.0
 11
460.712468718577
 21
-933.2899458213512
 31
0.0
  0
LINE
  5
228
330
1F
100
AcDbEntity
  8
1
  6
Continuous
 62
     3
100
AcDbLine
 10
460.712468718577
 20
-933.2899458213512
 30
0.0
 11
460.712468718577
 21
-926.2899458213512
 31
0.0
  0
LINE
  5
229
330
1F
100
AcDbEntity
  8
1
  6
Continuous
 62
     3
100
AcDbLine
 10
460.712468718577
 20
-926.2899458213512
 30
0.0
 11
463.774968718577
 21
-926.2899458213512
 31
0.0
  0
LINE
  5
22A
330
1F
100
AcDbEntity
  8
1
  6
Continuous
 62
     3
100
AcDbLine
 10
463.774968718577
 20
-926.2899458213512
 30
0.0
 11
464.474968718577
 21
-926.3774458213513
 31
0.0
  0
LINE
  5
22B
330
1F
100
AcDbEntity
  8
1
  6
Continuous
 62
     3
100
AcDbLine
 10
464.474968718577
 20
-926.3774458213513
 30
0.0
 11
464.999968718577
 21
-926.6399458213514
 31
0.0
  0
LINE
  5
22C
330
1F
100
AcDbEntity
  8
1
  6
Continuous
 62
     3
100
AcDbLine
 10
464.999968718577
 20
-926.6399458213514
 30
0.0
 11
465.349968718577
 21
-926.9899458213511
 31
0.0
  0
LINE
  5
22D
330
1F
100
AcDbEntity
  8
1
  6
Continuous
 62
     3
100
AcDbLine
 10
465.349968718577
 20
-926.9899458213511
 30
0.0
 11
465.6999687185771
 21
-927.5149458213514
 31
0.0
  0
LINE
  5
22E
330
1F
100
AcDbEntity
  8
1
  6
Continuous
 62
     3
100
AcDbLine
 10
465.6999687185771
 20
-927.5149458213514
 30
0.0
 11
465.787468718577
 21
-928.1274458213513
 31
0.0
  0
LINE
  5
22F
330
1F
100
AcDbEntity
  8
1
  6
Continuous
 62
     3
100
AcDbLine
 10
465.787468718577
 20
-928.1274458213513
 30
0.0
 11
465.787468718577
 21
-928.6524458213512
 31
0.0
  0
LINE
  5
230
330
1F
100
AcDbEntity
  8
1
  6
Continuous
 62
     3
100
AcDbLine
 10
467.187468718577
 20
-933.2899458213512
 30
0.0
 11
467.187468718577
 21
-926.2899458213512
 31
0.0
  0
LINE
  5
231
330
1F
100
AcDbEntity
  8
1
  6
Continuous
 62
     3
100
AcDbLine
 10
467.187468718577
 20
-926.2899458213512
 30
0.0
 11
468.149968718577
 21
-926.2899458213512
 31
0.0
  0
LINE
  5
232
330
1F
100
AcDbEntity
  8
1
  6
Continuous
 62
     3
100
AcDbLine
 10
468.149968718577
 20
-926.2899458213512
 30
0.0
 11
471.737468718577
 21
-931.7149458213512
 31
0.0
  0
LINE
  5
233
330
1F
100
AcDbEntity
  8
1
  6
Continuous
 62
     3
100
AcDbLine
 10
471.737468718577
 20
-931.7149458213512
 30
0.0
 11
471.737468718577
 21
-926.2899458213512
 31
0.0
  0
LINE
  5
234
330
1F
100
AcDbEntity
  8
1
  6
Continuous
 62
     3
100
AcDbLine
 10
471.737468718577
 20
-926.2899458213512
 30
0.0
 11
472.612468718577
 21
-926.2899458213512
 31
0.0
  0
LINE
  5
235
330
1F
100
AcDbEntity
  8
1
  6
Continuous
 62
     3
100
AcDbLine
 10
472.612468718577
 20
-926.2899458213512
 30
0.0
 11
472.612468718577
 21
-933.2899458213512
 31
0.0
  0
LINE
  5
236
330
1F
100
AcDbEntity
  8
1
  6
Continuous
 62
     3
100
AcDbLine
 10
472.612468718577
 20
-933.2899458213512
 30
0.0
 11
471.649968718577
 21
-933.2899458213512
 31
0.0
  0
LINE
  5
237
330
1F
100
AcDbEntity
  8
1
  6
Continuous
 62
     3
100
AcDbLine
 10
471.649968718577
 20
-933.2899458213512
 30
0.0
 11
468.062468718577
 21
-927.8649458213511
 31
0.0
  0
LINE
  5
238
330
1F
100
AcDbEntity
  8
1
  6
Continuous
 62
     3
100
AcDbLine
 10
468.062468718577
 20
-927.8649458213511
 30
0.0
 11
468.062468718577
 21
-933.2899458213512
 31
0.0
  0
LINE
  5
239
330
1F
100
AcDbEntity
  8
1
  6
Continuous
 62
     3
100
AcDbLine
 10
468.062468718577
 20
-933.2899458213512
 30
0.0
 11
467.187468718577
 21
-933.2899458213512
 31
0.0
  0
LINE
  5
23A
330
1F
100
AcDbEntity
  8
1
  6
Continuous
 62
     3
100
AcDbLine
 10
476.549968718577
 20
-933.2899458213512
 30
0.0
 11
476.549968718577
 21
-926.2899458213512
 31
0.0
  0
LINE
  5
23B
330
1F
100
AcDbEntity
  8
1
  6
Continuous
 62
     3
100
AcDbLine
 10
476.549968718577
 20
-926.2899458213512
 30
0.0
 11
475.849968718577
 21
-926.2899458213512
 31
0.0
  0
LINE
  5
23C
330
1F
100
AcDbEntity
  8
1
  6
Continuous
 62
     3
100
AcDbLine
 10
475.849968718577
 20
-926.2899458213512
 30
0.0
 11
475.7624687185771
 21
-926.5524458213511
 31
0.0
  0
LINE
  5
23D
330
1F
100
AcDbEntity
  8
1
  6
Continuous
 62
     3
100
AcDbLine
 10
475.7624687185771
 20
-926.5524458213511
 30
0.0
 11
475.499968718577
 21
-926.9024458213512
 31
0.0
  0
LINE
  5
23E
330
1F
100
AcDbEntity
  8
1
  6
Continuous
 62
     3
100
AcDbLine
 10
475.499968718577
 20
-926.9024458213512
 30
0.0
 11
475.237468718577
 21
-927.1649458213512
 31
0.0
  0
LINE
  5
23F
330
1F
100
AcDbEntity
  8
1
  6
Continuous
 62
     3
100
AcDbLine
 10
475.237468718577
 20
-927.1649458213512
 30
0.0
 11
474.8874687185771
 21
-927.3399458213512
 31
0.0
  0
LINE
  5
240
330
1F
100
AcDbEntity
  8
1
  6
Continuous
 62
     3
100
AcDbLine
 10
474.8874687185771
 20
-927.3399458213512
 30
0.0
 11
474.624968718577
 21
-927.4274458213511
 31
0.0
  0
LINE
  5
241
330
1F
100
AcDbEntity
  8
1
  6
Continuous
 62
     3
100
AcDbLine
 10
474.624968718577
 20
-927.4274458213511
 30
0.0
 11
474.187468718577
 21
-927.5149458213514
 31
0.0
  0
LINE
  5
242
330
1F
100
AcDbEntity
  8
1
  6
Continuous
 62
     3
100
AcDbLine
 10
474.187468718577
 20
-927.5149458213514
 30
0.0
 11
474.0124687185771
 21
-927.5149458213514
 31
0.0
  0
LINE
  5
243
330
1F
100
AcDbEntity
  8
1
  6
Continuous
 62
     3
100
AcDbLine
 10
474.0124687185771
 20
-927.5149458213514
 30
0.0
 11
474.0124687185771
 21
-928.2149458213512
 31
0.0
  0
LINE
  5
244
330
1F
100
AcDbEntity
  8
1
  6
Continuous
 62
     3
100
AcDbLine
 10
474.0124687185771
 20
-928.2149458213512
 30
0.0
 11
475.674968718577
 21
-928.2149458213512
 31
0.0
  0
LINE
  5
245
330
1F
100
AcDbEntity
  8
1
  6
Continuous
 62
     3
100
AcDbLine
 10
475.674968718577
 20
-928.2149458213512
 30
0.0
 11
475.674968718577
 21
-933.2899458213512
 31
0.0
  0
LINE
  5
246
330
1F
100
AcDbEntity
  8
1
  6
Continuous
 62
     3
100
AcDbLine
 10
475.674968718577
 20
-933.2899458213512
 30
0.0
 11
476.549968718577
 21
-933.2899458213512
 31
0.0
  0
LINE
  5
247
330
1F
100
AcDbEntity
  8
1
  6
Continuous
 62
     3
100
AcDbLine
 10
481.362468718577
 20
-931.9774458213512
 30
0.0
 11
481.537468718577
 21
-931.7149458213512
 31
0.0
  0
LINE
  5
248
330
1F
100
AcDbEntity
  8
1
  6
Continuous
 62
     3
100
AcDbLine
 10
481.537468718577
 20
-931.7149458213512
 30
0.0
 11
481.712468718577
 21
-931.2774458213512
 31
0.0
  0
LINE
  5
249
330
1F
100
AcDbEntity
  8
1
  6
Continuous
 62
     3
100
AcDbLine
 10
481.712468718577
 20
-931.2774458213512
 30
0.0
 11
481.712468718577
 21
-930.7524458213513
 31
0.0
  0
LINE
  5
24A
330
1F
100
AcDbEntity
  8
1
  6
Continuous
 62
     3
100
AcDbLine
 10
481.712468718577
 20
-930.7524458213513
 30
0.0
 11
481.537468718577
 21
-930.3149458213513
 31
0.0
  0
LINE
  5
24B
330
1F
100
AcDbEntity
  8
1
  6
Continuous
 62
     3
100
AcDbLine
 10
481.537468718577
 20
-930.3149458213513
 30
0.0
 11
481.362468718577
 21
-930.0524458213511
 31
0.0
  0
LINE
  5
24C
330
1F
100
AcDbEntity
  8
1
  6
Continuous
 62
     3
100
AcDbLine
 10
481.362468718577
 20
-930.0524458213511
 30
0.0
 11
481.0124687185771
 21
-929.7899458213512
 31
0.0
  0
LINE
  5
24D
330
1F
100
AcDbEntity
  8
1
  6
Continuous
 62
     3
100
AcDbLine
 10
481.0124687185771
 20
-929.7899458213512
 30
0.0
 11
480.5749687185771
 21
-929.6149458213511
 31
0.0
  0
LINE
  5
24E
330
1F
100
AcDbEntity
  8
1
  6
Continuous
 62
     3
100
AcDbLine
 10
480.5749687185771
 20
-929.6149458213511
 30
0.0
 11
480.1374687185771
 21
-929.6149458213511
 31
0.0
  0
LINE
  5
24F
330
1F
100
AcDbEntity
  8
1
  6
Continuous
 62
     3
100
AcDbLine
 10
480.1374687185771
 20
-929.6149458213511
 30
0.0
 11
479.6999687185771
 21
-929.7899458213512
 31
0.0
  0
LINE
  5
250
330
1F
100
AcDbEntity
  8
1
  6
Continuous
 62
     3
100
AcDbLine
 10
479.6999687185771
 20
-929.7899458213512
 30
0.0
 11
479.349968718577
 21
-930.0524458213511
 31
0.0
  0
LINE
  5
251
330
1F
100
AcDbEntity
  8
1
  6
Continuous
 62
     3
100
AcDbLine
 10
479.349968718577
 20
-930.0524458213511
 30
0.0
 11
479.174968718577
 21
-930.3149458213513
 31
0.0
  0
LINE
  5
252
330
1F
100
AcDbEntity
  8
1
  6
Continuous
 62
     3
100
AcDbLine
 10
479.174968718577
 20
-930.3149458213513
 30
0.0
 11
478.999968718577
 21
-930.7524458213513
 31
0.0
  0
LINE
  5
253
330
1F
100
AcDbEntity
  8
1
  6
Continuous
 62
     3
100
AcDbLine
 10
478.999968718577
 20
-930.7524458213513
 30
0.0
 11
478.999968718577
 21
-931.2774458213512
 31
0.0
  0
LINE
  5
254
330
1F
100
AcDbEntity
  8
1
  6
Continuous
 62
     3
100
AcDbLine
 10
478.999968718577
 20
-931.2774458213512
 30
0.0
 11
479.174968718577
 21
-931.7149458213512
 31
0.0
  0
LINE
  5
255
330
1F
100
AcDbEntity
  8
1
  6
Continuous
 62
     3
100
AcDbLine
 10
479.174968718577
 20
-931.7149458213512
 30
0.0
 11
479.349968718577
 21
-931.9774458213512
 31
0.0
  0
LINE
  5
256
330
1F
100
AcDbEntity
  8
1
  6
Continuous
 62
     3
100
AcDbLine
 10
479.349968718577
 20
-931.9774458213512
 30
0.0
 11
479.6999687185771
 21
-932.2399458213511
 31
0.0
  0
LINE
  5
257
330
1F
100
AcDbEntity
  8
1
  6
Continuous
 62
     3
100
AcDbLine
 10
479.6999687185771
 20
-932.2399458213511
 30
0.0
 11
480.1374687185771
 21
-932.4149458213512
 31
0.0
  0
LINE
  5
258
330
1F
100
AcDbEntity
  8
1
  6
Continuous
 62
     3
100
AcDbLine
 10
480.1374687185771
 20
-932.4149458213512
 30
0.0
 11
480.5749687185771
 21
-932.4149458213512
 31
0.0
  0
LINE
  5
259
330
1F
100
AcDbEntity
  8
1
  6
Continuous
 62
     3
100
AcDbLine
 10
480.5749687185771
 20
-932.4149458213512
 30
0.0
 11
481.0124687185771
 21
-932.2399458213511
 31
0.0
  0
LINE
  5
25A
330
1F
100
AcDbEntity
  8
1
  6
Continuous
 62
     3
100
AcDbLine
 10
481.0124687185771
 20
-932.2399458213511
 30
0.0
 11
481.362468718577
 21
-931.9774458213512
 31
0.0
  0
LINE
  5
25B
330
1F
100
AcDbEntity
  8
1
  6
Continuous
 62
     3
100
AcDbLine
 10
482.587468718577
 20
-931.3649458213511
 30
0.0
 11
482.412468718577
 21
-931.8899458213514
 31
0.0
  0
LINE
  5
25C
330
1F
100
AcDbEntity
  8
1
  6
Continuous
 62
     3
100
AcDbLine
 10
482.412468718577
 20
-931.8899458213514
 30
0.0
 11
482.237468718577
 21
-932.2399458213511
 31
0.0
  0
LINE
  5
25D
330
1F
100
AcDbEntity
  8
1
  6
Continuous
 62
     3
100
AcDbLine
 10
482.237468718577
 20
-932.2399458213511
 30
0.0
 11
481.974968718577
 21
-932.5899458213512
 31
0.0
  0
LINE
  5
25E
330
1F
100
AcDbEntity
  8
1
  6
Continuous
 62
     3
100
AcDbLine
 10
481.974968718577
 20
-932.5899458213512
 30
0.0
 11
481.712468718577
 21
-932.8524458213512
 31
0.0
  0
LINE
  5
25F
330
1F
100
AcDbEntity
  8
1
  6
Continuous
 62
     3
100
AcDbLine
 10
481.712468718577
 20
-932.8524458213512
 30
0.0
 11
481.4499687185771
 21
-933.0274458213512
 31
0.0
  0
LINE
  5
260
330
1F
100
AcDbEntity
  8
1
  6
Continuous
 62
     3
100
AcDbLine
 10
481.4499687185771
 20
-933.0274458213512
 30
0.0
 11
481.0124687185771
 21
-933.2024458213514
 31
0.0
  0
LINE
  5
261
330
1F
100
AcDbEntity
  8
1
  6
Continuous
 62
     3
100
AcDbLine
 10
481.0124687185771
 20
-933.2024458213514
 30
0.0
 11
480.5749687185771
 21
-933.2899458213512
 31
0.0
  0
LINE
  5
262
330
1F
100
AcDbEntity
  8
1
  6
Continuous
 62
     3
100
AcDbLine
 10
480.5749687185771
 20
-933.2899458213512
 30
0.0
 11
480.1374687185771
 21
-933.2899458213512
 31
0.0
  0
LINE
  5
263
330
1F
100
AcDbEntity
  8
1
  6
Continuous
 62
     3
100
AcDbLine
 10
480.1374687185771
 20
-933.2899458213512
 30
0.0
 11
479.6999687185771
 21
-933.2024458213514
 31
0.0
  0
LINE
  5
264
330
1F
100
AcDbEntity
  8
1
  6
Continuous
 62
     3
100
AcDbLine
 10
479.6999687185771
 20
-933.2024458213514
 30
0.0
 11
479.2624687185771
 21
-933.0274458213512
 31
0.0
  0
LINE
  5
265
330
1F
100
AcDbEntity
  8
1
  6
Continuous
 62
     3
100
AcDbLine
 10
479.2624687185771
 20
-933.0274458213512
 30
0.0
 11
478.999968718577
 21
-932.8524458213512
 31
0.0
  0
LINE
  5
266
330
1F
100
AcDbEntity
  8
1
  6
Continuous
 62
     3
100
AcDbLine
 10
478.999968718577
 20
-932.8524458213512
 30
0.0
 11
478.737468718577
 21
-932.5899458213512
 31
0.0
  0
LINE
  5
267
330
1F
100
AcDbEntity
  8
1
  6
Continuous
 62
     3
100
AcDbLine
 10
478.737468718577
 20
-932.5899458213512
 30
0.0
 11
478.474968718577
 21
-932.2399458213511
 31
0.0
  0
LINE
  5
268
330
1F
100
AcDbEntity
  8
1
  6
Continuous
 62
     3
100
AcDbLine
 10
478.474968718577
 20
-932.2399458213511
 30
0.0
 11
478.299968718577
 21
-931.8899458213514
 31
0.0
  0
LINE
  5
269
330
1F
100
AcDbEntity
  8
1
  6
Continuous
 62
     3
100
AcDbLine
 10
478.299968718577
 20
-931.8899458213514
 30
0.0
 11
478.124968718577
 21
-931.4524458213514
 31
0.0
  0
LINE
  5
26A
330
1F
100
AcDbEntity
  8
1
  6
Continuous
 62
     3
100
AcDbLine
 10
478.124968718577
 20
-931.4524458213514
 30
0.0
 11
478.037468718577
 21
-930.9274458213511
 31
0.0
  0
LINE
  5
26B
330
1F
100
AcDbEntity
  8
1
  6
Continuous
 62
     3
100
AcDbLine
 10
478.037468718577
 20
-930.9274458213511
 30
0.0
 11
477.9499687185771
 21
-930.1399458213514
 31
0.0
  0
LINE
  5
26C
330
1F
100
AcDbEntity
  8
1
  6
Continuous
 62
     3
100
AcDbLine
 10
477.9499687185771
 20
-930.1399458213514
 30
0.0
 11
477.9499687185771
 21
-929.4399458213513
 31
0.0
  0
LINE
  5
26D
330
1F
100
AcDbEntity
  8
1
  6
Continuous
 62
     3
100
AcDbLine
 10
477.9499687185771
 20
-929.4399458213513
 30
0.0
 11
478.037468718577
 21
-928.6524458213512
 31
0.0
  0
LINE
  5
26E
330
1F
100
AcDbEntity
  8
1
  6
Continuous
 62
     3
100
AcDbLine
 10
478.037468718577
 20
-928.6524458213512
 30
0.0
 11
478.124968718577
 21
-928.1274458213513
 31
0.0
  0
LINE
  5
26F
330
1F
100
AcDbEntity
  8
1
  6
Continuous
 62
     3
100
AcDbLine
 10
478.124968718577
 20
-928.1274458213513
 30
0.0
 11
478.299968718577
 21
-927.6899458213513
 31
0.0
  0
LINE
  5
270
330
1F
100
AcDbEntity
  8
1
  6
Continuous
 62
     3
100
AcDbLine
 10
478.299968718577
 20
-927.6899458213513
 30
0.0
 11
478.474968718577
 21
-927.3399458213512
 31
0.0
  0
LINE
  5
271
330
1F
100
AcDbEntity
  8
1
  6
Continuous
 62
     3
100
AcDbLine
 10
478.474968718577
 20
-927.3399458213512
 30
0.0
 11
478.737468718577
 21
-926.9899458213511
 31
0.0
  0
LINE
  5
272
330
1F
100
AcDbEntity
  8
1
  6
Continuous
 62
     3
100
AcDbLine
 10
478.737468718577
 20
-926.9899458213511
 30
0.0
 11
478.999968718577
 21
-926.7274458213512
 31
0.0
  0
LINE
  5
273
330
1F
100
AcDbEntity
  8
1
  6
Continuous
 62
     3
100
AcDbLine
 10
478.999968718577
 20
-926.7274458213512
 30
0.0
 11
479.2624687185771
 21
-926.5524458213511
 31
0.0
  0
LINE
  5
274
330
1F
100
AcDbEntity
  8
1
  6
Continuous
 62
     3
100
AcDbLine
 10
479.2624687185771
 20
-926.5524458213511
 30
0.0
 11
479.6999687185771
 21
-926.3774458213513
 31
0.0
  0
LINE
  5
275
330
1F
100
AcDbEntity
  8
1
  6
Continuous
 62
     3
100
AcDbLine
 10
479.6999687185771
 20
-926.3774458213513
 30
0.0
 11
480.049968718577
 21
-926.2899458213512
 31
0.0
  0
LINE
  5
276
330
1F
100
AcDbEntity
  8
1
  6
Continuous
 62
     3
100
AcDbLine
 10
480.049968718577
 20
-926.2899458213512
 30
0.0
 11
480.662468718577
 21
-926.2899458213512
 31
0.0
  0
LINE
  5
277
330
1F
100
AcDbEntity
  8
1
  6
Continuous
 62
     3
100
AcDbLine
 10
480.662468718577
 20
-926.2899458213512
 30
0.0
 11
481.0124687185771
 21
-926.3774458213513
 31
0.0
  0
LINE
  5
278
330
1F
100
AcDbEntity
  8
1
  6
Continuous
 62
     3
100
AcDbLine
 10
481.0124687185771
 20
-926.3774458213513
 30
0.0
 11
481.4499687185771
 21
-926.5524458213511
 31
0.0
  0
LINE
  5
279
330
1F
100
AcDbEntity
  8
1
  6
Continuous
 62
     3
100
AcDbLine
 10
481.4499687185771
 20
-926.5524458213511
 30
0.0
 11
481.712468718577
 21
-926.7274458213512
 31
0.0
  0
LINE
  5
27A
330
1F
100
AcDbEntity
  8
1
  6
Continuous
 62
     3
100
AcDbLine
 10
481.712468718577
 20
-926.7274458213512
 30
0.0
 11
481.974968718577
 21
-926.9899458213511
 31
0.0
  0
LINE
  5
27B
330
1F
100
AcDbEntity
  8
1
  6
Continuous
 62
     3
100
AcDbLine
 10
481.974968718577
 20
-926.9899458213511
 30
0.0
 11
482.237468718577
 21
-927.3399458213512
 31
0.0
  0
LINE
  5
27C
330
1F
100
AcDbEntity
  8
1
  6
Continuous
 62
     3
100
AcDbLine
 10
482.237468718577
 20
-927.3399458213512
 30
0.0
 11
482.412468718577
 21
-927.6899458213513
 31
0.0
  0
LINE
  5
27D
330
1F
100
AcDbEntity
  8
1
  6
Continuous
 62
     3
100
AcDbLine
 10
482.412468718577
 20
-927.6899458213513
 30
0.0
 11
482.499968718577
 21
-928.1274458213513
 31
0.0
  0
LINE
  5
27E
330
1F
100
AcDbEntity
  8
1
  6
Continuous
 62
     3
100
AcDbLine
 10
482.499968718577
 20
-928.1274458213513
 30
0.0
 11
482.499968718577
 21
-928.3024458213511
 31
0.0
  0
LINE
  5
27F
330
1F
100
AcDbEntity
  8
1
  6
Continuous
 62
     3
100
AcDbLine
 10
482.499968718577
 20
-928.3024458213511
 30
0.0
 11
481.624968718577
 21
-928.3024458213511
 31
0.0
  0
LINE
  5
280
330
1F
100
AcDbEntity
  8
1
  6
Continuous
 62
     3
100
AcDbLine
 10
481.624968718577
 20
-928.3024458213511
 30
0.0
 11
481.537468718577
 21
-927.8649458213511
 31
0.0
  0
LINE
  5
281
330
1F
100
AcDbEntity
  8
1
  6
Continuous
 62
     3
100
AcDbLine
 10
481.537468718577
 20
-927.8649458213511
 30
0.0
 11
481.362468718577
 21
-927.6024458213512
 31
0.0
  0
LINE
  5
282
330
1F
100
AcDbEntity
  8
1
  6
Continuous
 62
     3
100
AcDbLine
 10
481.362468718577
 20
-927.6024458213512
 30
0.0
 11
481.0124687185771
 21
-927.3399458213512
 31
0.0
  0
LINE
  5
283
330
1F
100
AcDbEntity
  8
1
  6
Continuous
 62
     3
100
AcDbLine
 10
481.0124687185771
 20
-927.3399458213512
 30
0.0
 11
480.662468718577
 21
-927.1649458213512
 31
0.0
  0
LINE
  5
284
330
1F
100
AcDbEntity
  8
1
  6
Continuous
 62
     3
100
AcDbLine
 10
480.662468718577
 20
-927.1649458213512
 30
0.0
 11
480.049968718577
 21
-927.1649458213512
 31
0.0
  0
LINE
  5
285
330
1F
100
AcDbEntity
  8
1
  6
Continuous
 62
     3
100
AcDbLine
 10
480.049968718577
 20
-927.1649458213512
 30
0.0
 11
479.6999687185771
 21
-927.3399458213512
 31
0.0
  0
LINE
  5
286
330
1F
100
AcDbEntity
  8
1
  6
Continuous
 62
     3
100
AcDbLine
 10
479.6999687185771
 20
-927.3399458213512
 30
0.0
 11
479.349968718577
 21
-927.6024458213512
 31
0.0
  0
LINE
  5
287
330
1F
100
AcDbEntity
  8
1
  6
Continuous
 62
     3
100
AcDbLine
 10
479.349968718577
 20
-927.6024458213512
 30
0.0
 11
479.174968718577
 21
-927.8649458213511
 31
0.0
  0
LINE
  5
288
330
1F
100
AcDbEntity
  8
1
  6
Continuous
 62
     3
100
AcDbLine
 10
479.174968718577
 20
-927.8649458213511
 30
0.0
 11
478.999968718577
 21
-928.3024458213511
 31
0.0
  0
LINE
  5
289
330
1F
100
AcDbEntity
  8
1
  6
Continuous
 62
     3
100
AcDbLine
 10
478.999968718577
 20
-928.3024458213511
 30
0.0
 11
478.8249687185771
 21
-929.5274458213512
 31
0.0
  0
LINE
  5
28A
330
1F
100
AcDbEntity
  8
1
  6
Continuous
 62
     3
100
AcDbLine
 10
478.8249687185771
 20
-929.5274458213512
 30
0.0
 11
479.2624687185771
 21
-929.0899458213512
 31
0.0
  0
LINE
  5
28B
330
1F
100
AcDbEntity
  8
1
  6
Continuous
 62
     3
100
AcDbLine
 10
479.2624687185771
 20
-929.0899458213512
 30
0.0
 11
479.6999687185771
 21
-928.8274458213514
 31
0.0
  0
LINE
  5
28C
330
1F
100
AcDbEntity
  8
1
  6
Continuous
 62
     3
100
AcDbLine
 10
479.6999687185771
 20
-928.8274458213514
 30
0.0
 11
480.1374687185771
 21
-928.7399458213511
 31
0.0
  0
LINE
  5
28D
330
1F
100
AcDbEntity
  8
1
  6
Continuous
 62
     3
100
AcDbLine
 10
480.1374687185771
 20
-928.7399458213511
 30
0.0
 11
480.5749687185771
 21
-928.7399458213511
 31
0.0
  0
LINE
  5
28E
330
1F
100
AcDbEntity
  8
1
  6
Continuous
 62
     3
100
AcDbLine
 10
480.5749687185771
 20
-928.7399458213511
 30
0.0
 11
481.0124687185771
 21
-928.8274458213514
 31
0.0
  0
LINE
  5
28F
330
1F
100
AcDbEntity
  8
1
  6
Continuous
 62
     3
100
AcDbLine
 10
481.0124687185771
 20
-928.8274458213514
 30
0.0
 11
481.4499687185771
 21
-929.0024458213513
 31
0.0
  0
LINE
  5
290
330
1F
100
AcDbEntity
  8
1
  6
Continuous
 62
     3
100
AcDbLine
 10
481.4499687185771
 20
-929.0024458213513
 30
0.0
 11
481.712468718577
 21
-929.1774458213511
 31
0.0
  0
LINE
  5
291
330
1F
100
AcDbEntity
  8
1
  6
Continuous
 62
     3
100
AcDbLine
 10
481.712468718577
 20
-929.1774458213511
 30
0.0
 11
481.974968718577
 21
-929.4399458213513
 31
0.0
  0
LINE
  5
292
330
1F
100
AcDbEntity
  8
1
  6
Continuous
 62
     3
100
AcDbLine
 10
481.974968718577
 20
-929.4399458213513
 30
0.0
 11
482.237468718577
 21
-929.7899458213512
 31
0.0
  0
LINE
  5
293
330
1F
100
AcDbEntity
  8
1
  6
Continuous
 62
     3
100
AcDbLine
 10
482.237468718577
 20
-929.7899458213512
 30
0.0
 11
482.412468718577
 21
-930.1399458213514
 31
0.0
  0
LINE
  5
294
330
1F
100
AcDbEntity
  8
1
  6
Continuous
 62
     3
100
AcDbLine
 10
482.412468718577
 20
-930.1399458213514
 30
0.0
 11
482.587468718577
 21
-930.6649458213512
 31
0.0
  0
LINE
  5
295
330
1F
100
AcDbEntity
  8
1
  6
Continuous
 62
     3
100
AcDbLine
 10
482.587468718577
 20
-930.6649458213512
 30
0.0
 11
482.587468718577
 21
-931.3649458213511
 31
0.0
  0
LINE
  5
296
330
1F
100
AcDbEntity
  8
1
  6
Continuous
 62
     3
100
AcDbLine
 10
460.712468718577
 20
-933.2899458213512
 30
0.0
 11
460.712468718577
 21
-926.2899458213512
 31
0.0
  0
LINE
  5
297
330
1F
100
AcDbEntity
  8
1
  6
Continuous
 62
     3
100
AcDbLine
 10
494.649968718577
 20
-912.2899458213512
 30
0.0
 11
494.649968718577
 21
-890.2899458213512
 31
0.0
  0
LINE
  5
298
330
1F
100
AcDbEntity
  8
1
  6
Continuous
 62
     3
100
AcDbLine
 10
495.6499687185772
 20
-888.789945821351
 30
0.0
 11
495.649968718577
 21
-912.2899458213512
 31
0.0
  0
LINE
  5
299
330
1F
100
AcDbEntity
  8
1
  6
Continuous
 62
     3
100
AcDbLine
 10
495.649968718577
 20
-912.2899458213512
 30
0.0
 11
494.649968718577
 21
-912.2899458213512
 31
0.0
  0
LINE
  5
29A
330
1F
100
AcDbEntity
  8
1
  6
Continuous
 62
     3
100
AcDbLine
 10
489.649968718577
 20
-912.2899458213512
 30
0.0
 11
489.649968718577
 21
-922.2899458213512
 31
0.0
  0
LINE
  5
29B
330
1F
100
AcDbEntity
  8
1
  6
Continuous
 62
     3
100
AcDbLine
 10
489.649968718577
 20
-922.2899458213512
 30
0.0
 11
495.649968718577
 21
-922.2899458213512
 31
0.0
  0
LINE
  5
29C
330
1F
100
AcDbEntity
  8
1
  6
Continuous
 62
     3
100
AcDbLine
 10
494.649968718577
 20
-912.2899458213512
 30
0.0
 11
489.649968718577
 21
-912.2899458213512
 31
0.0
  0
LINE
  5
29D
330
1F
100
AcDbEntity
  8
1
  6
Continuous
 62
     3
100
AcDbLine
 10
495.649968718577
 20
-922.2899458213512
 30
0.0
 11
495.649968718577
 21
-946.2899458213512
 31
0.0
  0
LINE
  5
29E
330
1F
100
AcDbEntity
  8
1
  6
Continuous
 62
     3
100
AcDbLine
 10
494.649968718577
 20
-922.2899458213512
 30
0.0
 11
494.649968718577
 21
-946.2899458213512
 31
0.0
  0
LINE
  5
29F
330
1F
100
AcDbEntity
  8
1
  6
Continuous
 62
     3
100
AcDbLine
 10
680.1424926998072
 20
-862.52199662892
 30
0.0
 11
706.1424926998072
 21
-862.52199662892
 31
0.0
  0
LINE
  5
2A0
330
1F
100
AcDbEntity
  8
1
  6
Continuous
 62
     3
100
AcDbLine
 10
707.1424926998072
 20
-860.7899458213511
 30
0.0
 11
707.1424926998072
 21
-856.2899458213511
 31
0.0
  0
LINE
  5
2A1
330
1F
100
AcDbEntity
  8
1
  6
Continuous
 62
     3
100
AcDbLine
 10
679.1424926998072
 20
-856.2899458213511
 30
0.0
 11
679.1424926998072
 21
-860.7899458213511
 31
0.0
  0
LINE
  5
2A2
330
1F
100
AcDbEntity
  8
1
  6
Continuous
 62
     3
100
AcDbLine
 10
673.142492699807
 20
-853.2899458213511
 30
0.0
 11
674.1424926998072
 21
-853.2899458213511
 31
0.0
  0
LINE
  5
2A3
330
1F
100
AcDbEntity
  8
1
  6
Continuous
 62
     3
100
AcDbLine
 10
671.142492699807
 20
-848.7899458213511
 30
0.0
 11
671.142492699807
 21
-851.2899458213511
 31
0.0
  0
LINE
  5
2A4
330
1F
100
AcDbEntity
  8
1
  6
Continuous
 62
     3
100
AcDbLine
 10
673.1424926998072
 20
-848.7899458213511
 30
0.0
 11
671.142492699807
 21
-848.7899458213511
 31
0.0
  0
LINE
  5
2A5
330
1F
100
AcDbEntity
  8
1
  6
DOT_CENTER
 62
     1
100
AcDbLine
 10
639.142492699807
 20
-917.2899458213512
 30
0.0
 11
743.6424926998068
 21
-917.2899458213512
 31
0.0
  0
LINE
  5
2A6
330
1F
100
AcDbEntity
  8
1
  6
DOT_CENTER
 62
     1
100
AcDbLine
 10
693.1424926998072
 20
-970.289945821351
 30
0.0
 11
693.1424926998072
 21
-820.7899458213511
 31
0.0
  0
LINE
  5
2A7
330
1F
100
AcDbEntity
  8
1
  6
Continuous
 62
     3
100
AcDbLine
 10
677.0623497158279
 20
-886.5000465379794
 30
0.0
 11
680.8409558037367
 21
-876.1184116344371
 31
0.0
  0
LINE
  5
2A8
330
1F
100
AcDbEntity
  8
1
  6
Continuous
 62
     3
100
AcDbLine
 10
710.4965315037175
 20
-890.0000465379794
 30
0.0
 11
705.4440295958777
 21
-876.1184116344371
 31
0.0
  0
LINE
  5
2A9
330
1F
100
AcDbEntity
  8
1
  6
Continuous
 62
     3
100
AcDbLine
 10
705.142492699807
 20
-887.3604455505495
 30
0.0
 11
705.1424926998072
 21
-864.2540474364888
 31
0.0
  0
LINE
  5
2AA
330
1F
100
AcDbEntity
  8
1
  6
Continuous
 62
     3
100
AcDbLine
 10
669.142492699807
 20
-888.789945821351
 30
0.0
 11
664.142492699807
 21
-888.789945821351
 31
0.0
  0
LINE
  5
2AB
330
1F
100
AcDbEntity
  8
1
  6
Continuous
 62
     3
100
AcDbLine
 10
670.142492699807
 20
-889.789945821351
 30
0.0
 11
669.142492699807
 21
-888.789945821351
 31
0.0
  0
LINE
  5
2AC
330
1F
100
AcDbEntity
  8
1
  6
Continuous
 62
     3
100
AcDbLine
 10
676.1424926998068
 20
-889.789945821351
 30
0.0
 11
670.142492699807
 21
-889.789945821351
 31
0.0
  0
LINE
  5
2AD
330
1F
100
AcDbEntity
  8
1
  6
Continuous
 62
     3
100
AcDbLine
 10
712.8972389649455
 20
-893.2899458213512
 30
0.0
 11
716.5706959300826
 21
-893.2899458213512
 31
0.0
  0
LINE
  5
2AE
330
1F
100
AcDbEntity
  8
1
  6
Continuous
 62
     3
100
AcDbLine
 10
722.4987887132911
 20
-944.289945821351
 30
0.0
 11
739.4877921614277
 21
-944.289945821351
 31
0.0
  0
LINE
  5
2AF
330
1F
100
AcDbEntity
  8
1
  6
Continuous
 62
     3
100
AcDbLine
 10
723.1065943149445
 20
-890.289945821351
 30
0.0
 11
739.4877921614277
 21
-890.289945821351
 31
0.0
  0
LINE
  5
2B0
330
1F
100
AcDbEntity
  8
1
  6
Continuous
 62
     3
100
AcDbLine
 10
740.642492699807
 20
-896.3370672182105
 30
0.0
 11
740.642492699807
 21
-892.2899458213512
 31
0.0
  0
LINE
  5
2B1
330
1F
100
AcDbEntity
  8
1
  6
Continuous
 62
     3
100
AcDbLine
 10
740.642492699807
 20
-892.2899458213512
 30
0.0
 11
739.4877921614277
 21
-890.289945821351
 31
0.0
  0
LINE
  5
2B2
330
1F
100
AcDbEntity
  8
1
  6
Continuous
 62
     3
100
AcDbLine
 10
739.4877921614277
 20
-944.289945821351
 30
0.0
 11
740.642492699807
 21
-942.289945821351
 31
0.0
  0
LINE
  5
2B3
330
1F
100
AcDbEntity
  8
1
  6
Continuous
 62
     3
100
AcDbLine
 10
740.642492699807
 20
-942.289945821351
 30
0.0
 11
740.642492699807
 21
-896.3370672182105
 31
0.0
  0
LINE
  5
2B4
330
1F
100
AcDbEntity
  8
1
  6
Continuous
 62
     3
100
AcDbLine
 10
719.0706959300826
 20
-892.6200728402732
 30
0.0
 11
723.1065943149445
 21
-890.289945821351
 31
0.0
  0
LINE
  5
2B5
330
1F
100
AcDbEntity
  8
1
  6
Continuous
 62
     3
100
AcDbLine
 10
706.1424926998072
 20
-848.7899458213511
 30
0.0
 11
673.1424926998072
 21
-848.7899458213511
 31
0.0
  0
LINE
  5
2B6
330
1F
100
AcDbEntity
  8
1
  6
Continuous
 62
     3
100
AcDbLine
 10
706.1424926998072
 20
-848.7899458213511
 30
0.0
 11
713.1424926998072
 21
-848.7899458213511
 31
0.0
  0
LINE
  5
2B7
330
1F
100
AcDbEntity
  8
1
  6
Continuous
 62
     3
100
AcDbLine
 10
673.1424926998072
 20
-848.7899458213511
 30
0.0
 11
673.1424926998072
 21
-852.2899458213511
 31
0.0
  0
LINE
  5
2B8
330
1F
100
AcDbEntity
  8
1
  6
Continuous
 62
     3
100
AcDbLine
 10
674.1424926998072
 20
-853.2899458213511
 30
0.0
 11
676.3727966927224
 21
-853.2899458213511
 31
0.0
  0
LINE
  5
2B9
330
1F
100
AcDbEntity
  8
1
  6
Continuous
 62
     3
100
AcDbLine
 10
709.9121887068918
 20
-853.2899458213511
 30
0.0
 11
712.1424926998072
 21
-853.2899458213511
 31
0.0
  0
LINE
  5
2BA
330
1F
100
AcDbEntity
  8
1
  6
Continuous
 62
     3
100
AcDbLine
 10
681.1424926998072
 20
-864.2540474364888
 30
0.0
 11
681.142492699807
 21
-884.789945821351
 31
0.0
  0
LINE
  5
2BB
330
1F
100
AcDbEntity
  8
1
  6
Continuous
 62
     3
100
AcDbLine
 10
720.2294411636174
 20
-942.7009315602518
 30
0.0
 11
722.4987887132911
 21
-944.289945821351
 31
0.0
  0
LINE
  5
2BC
330
1F
100
AcDbEntity
  8
1
  6
Continuous
 62
     3
100
AcDbLine
 10
669.142492699807
 20
-913.2899458213512
 30
0.0
 11
715.6424926998072
 21
-913.2899458213512
 31
0.0
  0
LINE
  5
2BD
330
1F
100
AcDbEntity
  8
1
  6
Continuous
 62
     3
100
AcDbLine
 10
715.6424926998072
 20
-921.2899458213512
 30
0.0
 11
669.142492699807
 21
-921.2899458213512
 31
0.0
  0
LINE
  5
2BE
330
1F
100
AcDbEntity
  8
1
  6
Continuous
 62
     3
100
AcDbLine
 10
715.6424926998072
 20
-913.2899458213512
 30
0.0
 11
715.6424926998072
 21
-921.2899458213512
 31
0.0
  0
LINE
  5
2BF
330
1F
100
AcDbEntity
  8
1
  6
Continuous
 62
     3
100
AcDbLine
 10
689.7097914222393
 20
-888.9204721486572
 30
0.0
 11
681.464255408064
 21
-888.9204721486572
 31
0.0
  0
LINE
  5
2C0
330
1F
100
AcDbEntity
  8
1
  6
Continuous
 62
     3
100
AcDbLine
 10
669.142492699807
 20
-912.2899458213512
 30
0.0
 11
669.142492699807
 21
-889.289945821351
 31
0.0
  0
LINE
  5
2C1
330
1F
100
AcDbEntity
  8
1
  6
Continuous
 62
     3
100
AcDbLine
 10
670.142492699807
 20
-890.289945821351
 30
0.0
 11
670.142492699807
 21
-913.2899458213512
 31
0.0
  0
LINE
  5
2C2
330
1F
100
AcDbEntity
  8
1
  6
Continuous
 62
     3
100
AcDbLine
 10
670.142492699807
 20
-945.789945821351
 30
0.0
 11
670.142492699807
 21
-921.2899458213512
 31
0.0
  0
LINE
  5
2C3
330
1F
100
AcDbEntity
  8
1
  6
Continuous
 62
     3
100
AcDbLine
 10
669.142492699807
 20
-945.789945821351
 30
0.0
 11
669.142492699807
 21
-921.2899458213512
 31
0.0
  0
LINE
  5
2C4
330
1F
100
AcDbEntity
  8
1
  6
Continuous
 62
     3
100
AcDbLine
 10
703.7377890868522
 20
-890.0383936943892
 30
0.0
 11
696.7377890868522
 21
-889.038393694389
 31
0.0
  0
LINE
  5
2C5
330
1F
100
AcDbEntity
  8
1
  6
Continuous
 62
     3
100
AcDbLine
 10
669.142492699807
 20
-913.2899458213512
 30
0.0
 11
669.142492699807
 21
-888.789945821351
 31
0.0
  0
LINE
  5
2C6
330
1F
100
AcDbEntity
  8
1
  6
Continuous
 62
     3
100
AcDbLine
 10
691.6424926998072
 20
-888.789945821351
 30
0.0
 11
691.6424926998072
 21
-876.289945821351
 31
0.0
  0
LINE
  5
2C7
330
1F
100
AcDbEntity
  8
1
  6
Continuous
 62
     3
100
AcDbLine
 10
694.6424926998072
 20
-888.789945821351
 30
0.0
 11
694.6424926998072
 21
-876.289945821351
 31
0.0
  0
LINE
  5
2C8
330
1F
100
AcDbEntity
  8
1
  6
Continuous
 62
     3
100
AcDbLine
 10
676.1424926998072
 20
-853.2899458213514
 30
0.0
 11
710.1424926998072
 21
-853.2899458213514
 31
0.0
  0
LINE
  5
2C9
330
1F
100
AcDbEntity
  8
1
  6
Continuous
 62
     3
100
AcDbLine
 10
713.1424926998072
 20
-852.2899458213514
 30
0.0
 11
713.1424926998072
 21
-848.7899458213511
 31
0.0
  0
LINE
  5
2CA
330
1F
100
AcDbEntity
  8
1
  6
Continuous
 62
     3
100
AcDbLine
 10
720.6424926998072
 20
-917.2899458213512
 30
0.0
 11
720.6424926998072
 21
-891.7125955521615
 31
0.0
  0
LINE
  5
2CB
330
1F
100
AcDbEntity
  8
1
  6
Continuous
 62
     3
100
AcDbLine
 10
720.6424926998072
 20
-942.990153359561
 30
0.0
 11
720.6424926998072
 21
-917.2899458213512
 31
0.0
  0
LINE
  5
2CC
330
1F
100
AcDbEntity
  8
1
  6
Continuous
 62
     3
100
AcDbLine
 10
725.8048045506096
 20
-901.0899458213512
 30
0.0
 11
736.4801808490045
 21
-901.0899458213512
 31
0.0
  0
LINE
  5
2CD
330
1F
100
AcDbEntity
  8
1
  6
Continuous
 62
     3
100
AcDbLine
 10
725.8048045506096
 20
-933.4899458213513
 30
0.0
 11
736.4801808490045
 21
-933.4899458213513
 31
0.0
  0
LINE
  5
2CE
330
1F
100
AcDbEntity
  8
1
  6
Continuous
 62
     3
100
AcDbLine
 10
666.1074057827327
 20
-947.289945821351
 30
0.0
 11
718.2122996290216
 21
-947.289945821351
 31
0.0
  0
LINE
  5
2CF
330
1F
100
AcDbEntity
  8
1
  6
Continuous
 62
     3
100
AcDbLine
 10
676.942492699807
 20
-963.2485431186685
 30
0.0
 11
676.942492699807
 21
-952.4522576721536
 31
0.0
  0
LINE
  5
2D0
330
1F
100
AcDbEntity
  8
1
  6
Continuous
 62
     3
100
AcDbLine
 10
709.3424926998071
 20
-963.2485431186685
 30
0.0
 11
709.3424926998071
 21
-952.4522576721536
 31
0.0
  0
LINE
  5
2D1
330
1F
100
AcDbEntity
  8
1
  6
Continuous
 62
     3
100
AcDbLine
 10
720.1424926998072
 20
-950.6331382883693
 30
0.0
 11
720.1424926998072
 21
-966.1352452829719
 31
0.0
  0
LINE
  5
2D2
330
1F
100
AcDbEntity
  8
1
  6
Continuous
 62
     3
100
AcDbLine
 10
718.1424926998072
 20
-967.289945821351
 30
0.0
 11
720.1424926998072
 21
-966.1352452829719
 31
0.0
  0
LINE
  5
2D3
330
1F
100
AcDbEntity
  8
1
  6
Continuous
 62
     3
100
AcDbLine
 10
666.1424926998072
 20
-966.1352452829719
 30
0.0
 11
668.1424926998072
 21
-967.289945821351
 31
0.0
  0
LINE
  5
2D4
330
1F
100
AcDbEntity
  8
1
  6
Continuous
 62
     3
100
AcDbLine
 10
666.1424926998072
 20
-966.1352452829719
 30
0.0
 11
668.1424926998072
 21
-967.289945821351
 31
0.0
  0
LINE
  5
2D5
330
1F
100
AcDbEntity
  8
1
  6
Continuous
 62
     3
100
AcDbLine
 10
666.1424926998072
 20
-966.1352452829719
 30
0.0
 11
666.1424926998072
 21
-947.6629291675586
 31
0.0
  0
LINE
  5
2D6
330
1F
100
AcDbEntity
  8
1
  6
Continuous
 62
     3
100
AcDbLine
 10
666.1424926998072
 20
-966.1352452829719
 30
0.0
 11
666.1424926998072
 21
-949.1749132481193
 31
0.0
  0
LINE
  5
2D7
330
1F
100
AcDbEntity
  8
1
  6
Continuous
 62
     3
100
AcDbLine
 10
718.2122996290216
 20
-944.3509748128881
 30
0.0
 11
718.2122996290216
 21
-947.289945821351
 31
0.0
  0
LINE
  5
2D8
330
1F
100
AcDbEntity
  8
1
  6
Continuous
 62
     3
100
AcDbLine
 10
720.1424926998072
 20
-950.6331382883693
 30
0.0
 11
718.2122996290216
 21
-947.289945821351
 31
0.0
  0
LINE
  5
2D9
330
1F
100
AcDbEntity
  8
1
  6
Continuous
 62
     3
100
AcDbLine
 10
668.1424926998072
 20
-967.289945821351
 30
0.0
 11
718.1424926998072
 21
-967.289945821351
 31
0.0
  0
LINE
  5
2DA
330
1F
100
AcDbEntity
  8
1
  6
Continuous
 62
     3
100
AcDbLine
 10
446.649968718577
 20
-967.289945821351
 30
0.0
 11
496.649968718577
 21
-967.289945821351
 31
0.0
  0
LINE
  5
2DB
330
1F
100
AcDbEntity
  8
1
  6
Continuous
 62
     3
100
AcDbLine
 10
446.5801617893627
 20
-947.289945821351
 30
0.0
 11
444.649968718577
 21
-950.6331382883693
 31
0.0
  0
LINE
  5
2DC
330
1F
100
AcDbEntity
  8
1
  6
Continuous
 62
     3
100
AcDbLine
 10
446.5801617893627
 20
-947.289945821351
 30
0.0
 11
446.5801617893627
 21
-944.3509748128881
 31
0.0
  0
LINE
  5
2DD
330
1F
100
AcDbEntity
  8
1
  6
Continuous
 62
     3
100
AcDbLine
 10
498.649968718577
 20
-949.1749132481193
 30
0.0
 11
498.649968718577
 21
-966.1352452829719
 31
0.0
  0
LINE
  5
2DE
330
1F
100
AcDbEntity
  8
1
  6
Continuous
 62
     3
100
AcDbLine
 10
498.649968718577
 20
-947.6629291675586
 30
0.0
 11
498.649968718577
 21
-966.1352452829719
 31
0.0
  0
LINE
  5
2DF
330
1F
100
AcDbEntity
  8
1
  6
Continuous
 62
     3
100
AcDbLine
 10
496.649968718577
 20
-967.289945821351
 30
0.0
 11
498.649968718577
 21
-966.1352452829719
 31
0.0
  0
LINE
  5
2E0
330
1F
100
AcDbEntity
  8
1
  6
Continuous
 62
     3
100
AcDbLine
 10
496.649968718577
 20
-967.289945821351
 30
0.0
 11
498.649968718577
 21
-966.1352452829719
 31
0.0
  0
LINE
  5
2E1
330
1F
100
AcDbEntity
  8
1
  6
Continuous
 62
     3
100
AcDbLine
 10
444.649968718577
 20
-966.1352452829719
 30
0.0
 11
446.649968718577
 21
-967.289945821351
 31
0.0
  0
LINE
  5
2E2
330
1F
100
AcDbEntity
  8
1
  6
Continuous
 62
     3
100
AcDbLine
 10
444.649968718577
 20
-966.1352452829719
 30
0.0
 11
444.649968718577
 21
-950.6331382883693
 31
0.0
  0
LINE
  5
2E3
330
1F
100
AcDbEntity
  8
1
  6
Continuous
 62
     3
100
AcDbLine
 10
455.4499687185767
 20
-952.4522576721536
 30
0.0
 11
455.4499687185767
 21
-963.2485431186685
 31
0.0
  0
LINE
  5
2E4
330
1F
100
AcDbEntity
  8
1
  6
Continuous
 62
     3
100
AcDbLine
 10
487.8499687185768
 20
-952.4522576721536
 30
0.0
 11
487.8499687185768
 21
-963.2485431186685
 31
0.0
  0
LINE
  5
2E5
330
1F
100
AcDbEntity
  8
1
  6
Continuous
 62
     3
100
AcDbLine
 10
446.5801617893627
 20
-947.289945821351
 30
0.0
 11
498.6850556356515
 21
-947.289945821351
 31
0.0
  0
LINE
  5
2E6
330
1F
100
AcDbEntity
  8
1
  6
Continuous
 62
     3
100
AcDbLine
 10
428.3122805693798
 20
-933.4899458213513
 30
0.0
 11
438.9876568677747
 21
-933.4899458213513
 31
0.0
  0
LINE
  5
2E7
330
1F
100
AcDbEntity
  8
1
  6
Continuous
 62
     3
100
AcDbLine
 10
428.3122805693798
 20
-901.0899458213512
 30
0.0
 11
438.9876568677747
 21
-901.0899458213512
 31
0.0
  0
LINE
  5
2E8
330
1F
100
AcDbEntity
  8
1
  6
Continuous
 62
     3
100
AcDbLine
 10
444.149968718577
 20
-917.2899458213512
 30
0.0
 11
444.149968718577
 21
-942.990153359561
 31
0.0
  0
LINE
  5
2E9
330
1F
100
AcDbEntity
  8
1
  6
Continuous
 62
     3
100
AcDbLine
 10
444.149968718577
 20
-891.7125955521615
 30
0.0
 11
444.149968718577
 21
-917.2899458213512
 31
0.0
  0
LINE
  5
2EA
330
1F
100
AcDbEntity
  8
1
  6
Continuous
 62
     3
100
AcDbLine
 10
451.649968718577
 20
-848.7899458213511
 30
0.0
 11
451.649968718577
 21
-852.2899458213511
 31
0.0
  0
LINE
  5
2EB
330
1F
100
AcDbEntity
  8
1
  6
Continuous
 62
     3
100
AcDbLine
 10
454.649968718577
 20
-853.2899458213514
 30
0.0
 11
488.649968718577
 21
-853.2899458213514
 31
0.0
  0
LINE
  5
2EC
330
1F
100
AcDbEntity
  8
1
  6
Continuous
 62
     3
100
AcDbLine
 10
470.149968718577
 20
-876.289945821351
 30
0.0
 11
470.149968718577
 21
-888.789945821351
 31
0.0
  0
LINE
  5
2ED
330
1F
100
AcDbEntity
  8
1
  6
Continuous
 62
     3
100
AcDbLine
 10
473.149968718577
 20
-876.289945821351
 30
0.0
 11
473.149968718577
 21
-888.789945821351
 31
0.0
  0
LINE
  5
2EE
330
1F
100
AcDbEntity
  8
1
  6
Continuous
 62
     3
100
AcDbLine
 10
468.054672331532
 20
-889.038393694389
 30
0.0
 11
461.054672331532
 21
-890.0383936943892
 31
0.0
  0
LINE
  5
2EF
330
1F
100
AcDbEntity
  8
1
  6
Continuous
 62
     3
100
AcDbLine
 10
483.3282060103202
 20
-888.9204721486572
 30
0.0
 11
475.0826699961449
 21
-888.9204721486572
 31
0.0
  0
LINE
  5
2F0
330
1F
100
AcDbEntity
  8
1
  6
Continuous
 62
     3
100
AcDbLine
 10
442.2936727050931
 20
-944.289945821351
 30
0.0
 11
444.5630202547669
 21
-942.7009315602518
 31
0.0
  0
LINE
  5
2F1
330
1F
100
AcDbEntity
  8
1
  6
Continuous
 62
     3
100
AcDbLine
 10
499.9485890889692
 20
-945.789945821351
 30
0.0
 11
500.6499687185772
 21
-945.789945821351
 31
0.0
  0
LINE
  5
2F2
330
1F
100
AcDbEntity
  8
1
  6
Continuous
 62
     3
100
AcDbLine
 10
483.6499687185772
 20
-884.789945821351
 30
0.0
 11
483.649968718577
 21
-864.2540474364888
 31
0.0
  0
LINE
  5
2F3
330
1F
100
AcDbEntity
  8
1
  6
Continuous
 62
     3
100
AcDbLine
 10
452.649968718577
 20
-853.2899458213511
 30
0.0
 11
454.8802727114924
 21
-853.2899458213511
 31
0.0
  0
LINE
  5
2F4
330
1F
100
AcDbEntity
  8
1
  6
Continuous
 62
     3
100
AcDbLine
 10
488.4196647256616
 20
-853.2899458213511
 30
0.0
 11
490.649968718577
 21
-853.2899458213511
 31
0.0
  0
LINE
  5
2F5
330
1F
100
AcDbEntity
  8
1
  6
Continuous
 62
     3
100
AcDbLine
 10
491.649968718577
 20
-852.2899458213514
 30
0.0
 11
491.649968718577
 21
-848.7899458213511
 31
0.0
  0
LINE
  5
2F6
330
1F
100
AcDbEntity
  8
1
  6
Continuous
 62
     3
100
AcDbLine
 10
451.649968718577
 20
-848.7899458213511
 30
0.0
 11
458.649968718577
 21
-848.7899458213511
 31
0.0
  0
LINE
  5
2F7
330
1F
100
AcDbEntity
  8
1
  6
Continuous
 62
     3
100
AcDbLine
 10
491.649968718577
 20
-848.7899458213511
 30
0.0
 11
458.649968718577
 21
-848.7899458213511
 31
0.0
  0
LINE
  5
2F8
330
1F
100
AcDbEntity
  8
1
  6
Continuous
 62
     3
100
AcDbLine
 10
441.6858671034398
 20
-890.289945821351
 30
0.0
 11
445.7217654883016
 21
-892.6200728402732
 31
0.0
  0
LINE
  5
2F9
330
1F
100
AcDbEntity
  8
1
  6
Continuous
 62
     3
100
AcDbLine
 10
424.1499687185773
 20
-896.3370672182105
 30
0.0
 11
424.1499687185773
 21
-942.289945821351
 31
0.0
  0
LINE
  5
2FA
330
1F
100
AcDbEntity
  8
1
  6
Continuous
 62
     3
100
AcDbLine
 10
424.1499687185773
 20
-942.289945821351
 30
0.0
 11
425.3046692569566
 21
-944.289945821351
 31
0.0
  0
LINE
  5
2FB
330
1F
100
AcDbEntity
  8
1
  6
Continuous
 62
     3
100
AcDbLine
 10
425.3046692569566
 20
-890.289945821351
 30
0.0
 11
424.1499687185773
 21
-892.2899458213512
 31
0.0
  0
LINE
  5
2FC
330
1F
100
AcDbEntity
  8
1
  6
Continuous
 62
     3
100
AcDbLine
 10
424.1499687185773
 20
-892.2899458213512
 30
0.0
 11
424.1499687185773
 21
-896.3370672182105
 31
0.0
  0
LINE
  5
2FD
330
1F
100
AcDbEntity
  8
1
  6
Continuous
 62
     3
100
AcDbLine
 10
425.3046692569566
 20
-890.289945821351
 30
0.0
 11
441.6858671034398
 21
-890.289945821351
 31
0.0
  0
LINE
  5
2FE
330
1F
100
AcDbEntity
  8
1
  6
Continuous
 62
     3
100
AcDbLine
 10
425.3046692569566
 20
-944.289945821351
 30
0.0
 11
442.2936727050931
 21
-944.289945821351
 31
0.0
  0
LINE
  5
2FF
330
1F
100
AcDbEntity
  8
1
  6
Continuous
 62
     3
100
AcDbLine
 10
448.2217654883016
 20
-893.2899458213512
 30
0.0
 11
451.8952224534388
 21
-893.2899458213512
 31
0.0
  0
LINE
  5
300
330
1F
100
AcDbEntity
  8
1
  6
Continuous
 62
     3
100
AcDbLine
 10
494.6499687185772
 20
-889.789945821351
 30
0.0
 11
488.6499687185774
 21
-889.789945821351
 31
0.0
  0
LINE
  5
301
330
1F
100
AcDbEntity
  8
1
  6
Continuous
 62
     3
100
AcDbLine
 10
495.6499687185772
 20
-888.789945821351
 30
0.0
 11
494.6499687185772
 21
-889.789945821351
 31
0.0
  0
LINE
  5
302
330
1F
100
AcDbEntity
  8
1
  6
Continuous
 62
     3
100
AcDbLine
 10
500.6499687185772
 20
-888.789945821351
 30
0.0
 11
495.6499687185772
 21
-888.789945821351
 31
0.0
  0
LINE
  5
303
330
1F
100
AcDbEntity
  8
1
  6
Continuous
 62
     3
100
AcDbLine
 10
459.649968718577
 20
-864.2540474364888
 30
0.0
 11
459.6499687185772
 21
-887.3604455505495
 31
0.0
  0
LINE
  5
304
330
1F
100
AcDbEntity
  8
1
  6
Continuous
 62
     3
100
AcDbLine
 10
459.3484318225065
 20
-876.1184116344371
 30
0.0
 11
454.2959299146667
 21
-890.0000465379794
 31
0.0
  0
LINE
  5
305
330
1F
100
AcDbEntity
  8
1
  6
Continuous
 62
     3
100
AcDbLine
 10
483.9515056146475
 20
-876.1184116344371
 30
0.0
 11
487.7301117025564
 21
-886.5000465379794
 31
0.0
  0
LINE
  5
306
330
1F
100
AcDbEntity
  8
1
  6
DOT_CENTER
 62
     1
100
AcDbLine
 10
471.649968718577
 20
-820.7899458213511
 30
0.0
 11
471.649968718577
 21
-970.289945821351
 31
0.0
  0
LINE
  5
307
330
1F
100
AcDbEntity
  8
1
  6
DOT_CENTER
 62
     1
100
AcDbLine
 10
421.1499687185775
 20
-917.2899458213512
 30
0.0
 11
525.6499687185772
 21
-917.2899458213512
 31
0.0
  0
LINE
  5
308
330
1F
100
AcDbEntity
  8
1
  6
Continuous
 62
     3
100
AcDbLine
 10
493.6499687185772
 20
-848.7899458213511
 30
0.0
 11
491.649968718577
 21
-848.7899458213511
 31
0.0
  0
LINE
  5
309
330
1F
100
AcDbEntity
  8
1
  6
Continuous
 62
     3
100
AcDbLine
 10
493.6499687185772
 20
-851.2899458213511
 30
0.0
 11
493.6499687185772
 21
-848.7899458213511
 31
0.0
  0
LINE
  5
30A
330
1F
100
AcDbEntity
  8
1
  6
Continuous
 62
     3
100
AcDbLine
 10
490.649968718577
 20
-853.2899458213511
 30
0.0
 11
491.6499687185772
 21
-853.2899458213511
 31
0.0
  0
LINE
  5
30B
330
1F
100
AcDbEntity
  8
1
  6
Continuous
 62
     3
100
AcDbLine
 10
485.649968718577
 20
-860.7899458213511
 30
0.0
 11
485.649968718577
 21
-856.2899458213511
 31
0.0
  0
LINE
  5
30C
330
1F
100
AcDbEntity
  8
1
  6
Continuous
 62
     3
100
AcDbLine
 10
457.649968718577
 20
-856.2899458213511
 30
0.0
 11
457.649968718577
 21
-860.7899458213511
 31
0.0
  0
LINE
  5
30D
330
1F
100
AcDbEntity
  8
1
  6
Continuous
 62
     3
100
AcDbLine
 10
458.649968718577
 20
-862.52199662892
 30
0.0
 11
484.649968718577
 21
-862.52199662892
 31
0.0
  0
LINE
  5
30E
330
1F
100
AcDbEntity
  8
1
  6
Continuous
 62
     3
100
AcDbLine
 10
491.649968718577
 20
-768.1627742965272
 30
0.0
 11
491.649968718577
 21
-779.334347171781
 31
0.0
  0
LINE
  5
30F
330
1F
100
AcDbEntity
  8
1
  6
Continuous
 62
     3
100
AcDbLine
 10
451.649968718577
 20
-779.334347171781
 30
0.0
 11
451.649968718577
 21
-765.334347171781
 31
0.0
  0
LINE
  5
310
330
1F
100
AcDbEntity
  8
1
  6
DASH_CENTER
 62
     1
100
AcDbLine
 10
471.649968718577
 20
-732.243120243643
 30
0.0
 11
471.649968718577
 21
-799.352426172392
 31
0.0
  0
LINE
  5
311
330
1F
100
AcDbEntity
  8
1
  6
Continuous
 62
     3
100
AcDbLine
 10
451.649968718577
 20
-765.334347171781
 30
0.0
 11
451.649968718577
 21
-751.334347171781
 31
0.0
  0
LINE
  5
312
330
1F
100
AcDbEntity
  8
1
  6
DASH_CENTER
 62
     1
100
AcDbLine
 10
421.1499687185775
 20
-765.334347171781
 30
0.0
 11
524.8122805693795
 21
-765.334347171781
 31
0.0
  0
LINE
  5
313
330
1F
100
AcDbEntity
  8
1
  6
Continuous
 62
     3
100
AcDbLine
 10
491.649968718577
 20
-751.334347171781
 30
0.0
 11
491.649968718577
 21
-762.5059200470348
 31
0.0
  0
LINE
  5
314
330
1F
100
AcDbEntity
  8
1
  6
Continuous
 62
     3
100
AcDbLine
 10
585.6424926998068
 20
-848.7899458213511
 30
0.0
 11
585.6424926998068
 21
-853.2899458213514
 31
0.0
  0
LINE
  5
315
330
1F
100
AcDbEntity
  8
1
  6
Continuous
 62
     3
100
AcDbLine
 10
585.6424926998068
 20
-853.2899458213514
 30
0.0
 11
600.6424926998068
 21
-853.2899458213514
 31
0.0
  0
LINE
  5
316
330
1F
100
AcDbEntity
  8
1
  6
Continuous
 62
     3
100
AcDbLine
 10
585.6424926998068
 20
-848.7899458213511
 30
0.0
 11
581.6424926998068
 21
-848.7899458213511
 31
0.0
  0
LINE
  5
317
330
1F
100
AcDbEntity
  8
1
  6
Continuous
 62
     3
100
AcDbLine
 10
581.6424926998068
 20
-853.2899458213514
 30
0.0
 11
581.6424926998068
 21
-848.7899458213511
 31
0.0
  0
LINE
  5
318
330
1F
100
AcDbEntity
  8
1
  6
Continuous
 62
     3
100
AcDbLine
 10
581.6424926998068
 20
-853.2899458213514
 30
0.0
 11
585.6424926998068
 21
-853.2899458213514
 31
0.0
  0
LINE
  5
319
330
1F
100
AcDbEntity
  8
1
  6
Continuous
 62
     3
100
AcDbLine
 10
581.6424926998068
 20
-848.7899458213511
 30
0.0
 11
570.6424926998068
 21
-848.7899458213511
 31
0.0
  0
ARC
  5
31A
330
1F
100
AcDbEntity
  8
1
  6
Continuous
 62
     3
100
AcDbCircle
 10
567.442492699807
 20
-940.4108549694706
 30
0.0
 40
28.00000000000014
100
AcDbArc
 50
-73.73315243464326
 51
-54.64987285946052
  0
ARC
  5
31B
330
1F
100
AcDbEntity
  8
1
  6
Continuous
 62
     3
100
AcDbCircle
 10
599.8424926998067
 20
-940.4108549694706
 30
0.0
 40
28.00000000000022
100
AcDbArc
 50
-125.3501271405397
 51
-106.2668475653568
  0
ARC
  5
31C
330
1F
100
AcDbEntity
  8
1
  6
Continuous
 62
     3
100
AcDbCircle
 10
599.8424926998067
 20
-974.1085820991718
 30
0.0
 40
28.00000000000014
100
AcDbArc
 50
106.2668475653568
 51
125.3501271405397
  0
ARC
  5
31D
330
1F
100
AcDbEntity
  8
1
  6
Continuous
 62
     3
100
AcDbCircle
 10
567.442492699807
 20
-974.1085820991718
 30
0.0
 40
28.00000000000015
100
AcDbArc
 50
54.64987285946052
 51
73.73315243464326
  0
ARC
  5
31E
330
1F
100
AcDbEntity
  8
1
  6
Continuous
 62
     3
100
AcDbCircle
 10
341.9499687185777
 20
-974.1085820991718
 30
0.0
 40
28.00000000000015
100
AcDbArc
 50
54.64987285946052
 51
73.73315243464315
  0
ARC
  5
31F
330
1F
100
AcDbEntity
  8
1
  6
Continuous
 62
     3
100
AcDbCircle
 10
374.3499687185774
 20
-974.1085820991718
 30
0.0
 40
28.00000000000014
100
AcDbArc
 50
106.2668475653568
 51
125.3501271405396
  0
ARC
  5
320
330
1F
100
AcDbEntity
  8
1
  6
Continuous
 62
     3
100
AcDbCircle
 10
374.3499687185774
 20
-940.4108549694706
 30
0.0
 40
28.00000000000018
100
AcDbArc
 50
-125.3501271405396
 51
-106.2668475653568
  0
ARC
  5
321
330
1F
100
AcDbEntity
  8
1
  6
Continuous
 62
     3
100
AcDbCircle
 10
341.9499687185777
 20
-940.4108549694706
 30
0.0
 40
28.00000000000015
100
AcDbArc
 50
-73.73315243464315
 51
-54.64987285946052
  0
ARC
  5
322
330
1F
100
AcDbEntity
  8
1
  6
Continuous
 62
     3
100
AcDbCircle
 10
358.1499687185775
 20
-917.2899458213512
 30
0.0
 40
27.00000000000034
100
AcDbArc
 50
-97.80839343372726
 51
-82.19160656627322
  0
ARC
  5
323
330
1F
100
AcDbEntity
  8
1
  6
Continuous
 62
     3
100
AcDbCircle
 10
358.1499687185775
 20
-917.2899458213512
 30
0.0
 40
27.49999999999981
100
AcDbArc
 50
121.5388726535335
 51
140.5280580739835
  0
ARC
  5
324
330
1F
100
AcDbEntity
  8
1
  6
Continuous
 62
     3
100
AcDbCircle
 10
358.1499687185775
 20
-917.2899458213512
 30
0.0
 40
27.4999999999994
100
AcDbArc
 50
39.47194192601627
 51
58.46112734646493
  0
ARC
  5
325
330
1F
100
AcDbEntity
  8
1
  6
Continuous
 62
     3
100
AcDbCircle
 10
358.1499687185775
 20
-917.2899458213512
 30
0.0
 40
27.4999999999999
100
AcDbArc
 50
-37.34831215996795
 51
52.13763326902654
  0
ARC
  5
326
330
1F
100
AcDbEntity
  8
1
  6
Continuous
 62
     3
100
AcDbCircle
 10
358.1499687185775
 20
-917.2899458213512
 30
0.0
 40
27.49999999999973
100
AcDbArc
 50
127.8623667309735
 51
-142.7672230058429
  0
ARC
  5
327
330
1F
100
AcDbEntity
  8
1
  6
Continuous
 62
     3
100
AcDbCircle
 10
358.1499687185775
 20
-917.2899458213512
 30
0.0
 40
27.00000000000013
100
AcDbArc
 50
82.19160656627244
 51
97.80839343372732
  0
ARC
  5
328
330
1F
100
AcDbEntity
  8
1
  6
Continuous
 62
     3
100
AcDbCircle
 10
358.1499687185775
 20
-917.2899458213512
 30
0.0
 40
26.99999999999998
100
AcDbArc
 50
142.1916065662734
 51
157.8083934337265
  0
ARC
  5
329
330
1F
100
AcDbEntity
  8
1
  6
Continuous
 62
     3
100
AcDbCircle
 10
358.1499687185775
 20
-917.2899458213512
 30
0.0
 40
26.99999999999986
100
AcDbArc
 50
-37.80839343372706
 51
-22.19160656627372
  0
ARC
  5
32A
330
1F
100
AcDbEntity
  8
1
  6
Continuous
 62
     3
100
AcDbCircle
 10
358.1499687185775
 20
-917.2899458213512
 30
0.0
 40
27.00000000000018
100
AcDbArc
 50
-157.8083934337263
 51
-142.1916065662732
  0
ARC
  5
32B
330
1F
100
AcDbEntity
  8
1
  6
Continuous
 62
     3
100
AcDbCircle
 10
358.1499687185775
 20
-917.2899458213512
 30
0.0
 40
27.00000000000014
100
AcDbArc
 50
22.19160656627349
 51
37.80839343372658
  0
ARC
  5
32C
330
1F
100
AcDbEntity
  8
1
  6
Continuous
 62
     3
100
AcDbCircle
 10
713.6424926998072
 20
-917.2899458213512
 30
0.0
 40
27.99999999999972
100
AcDbArc
 50
-35.35012714054067
 51
-15.35888558082336
  0
ARC
  5
32D
330
1F
100
AcDbEntity
  8
1
  6
Continuous
 62
     3
100
AcDbCircle
 10
693.1424926998072
 20
-942.289945821351
 30
0.0
 40
52.49999999999996
100
AcDbArc
 50
69.90603333372239
 51
72.80335131374081
  0
ARC
  5
32E
330
1F
100
AcDbEntity
  8
1
  6
Continuous
 62
     3
100
AcDbCircle
 10
748.6424926998072
 20
-917.2899458213512
 30
0.0
 40
28.0000000000001
100
AcDbArc
 50
144.6498728594599
 51
180.0
  0
ARC
  5
32F
330
1F
100
AcDbEntity
  8
1
  6
Continuous
 62
     3
100
AcDbCircle
 10
748.6424926998072
 20
-917.2899458213512
 30
0.0
 40
28.0
100
AcDbArc
 50
180.0
 51
-144.6498728594599
  0
ARC
  5
330
330
1F
100
AcDbEntity
  8
1
  6
Continuous
 62
     3
100
AcDbCircle
 10
713.6424926998072
 20
-917.2899458213512
 30
0.0
 40
27.99999999999988
100
AcDbArc
 50
15.35888558082359
 51
35.35012714054067
  0
ARC
  5
331
330
1F
100
AcDbEntity
  8
1
  6
Continuous
 62
     3
100
AcDbCircle
 10
693.1424926998072
 20
-975.289945821351
 30
0.0
 40
27.99999999999978
100
AcDbArc
 50
54.64987285945998
 51
125.3501271405408
  0
ARC
  5
332
330
1F
100
AcDbEntity
  8
1
  6
Continuous
 62
     3
100
AcDbCircle
 10
693.1424926998072
 20
-940.4108549694706
 30
0.0
 40
28.00000000000001
100
AcDbArc
 50
-73.73315243464415
 51
-54.64987285946052
  0
ARC
  5
333
330
1F
100
AcDbEntity
  8
1
  6
Continuous
 62
     3
100
AcDbCircle
 10
693.1424926998072
 20
-940.4108549694706
 30
0.0
 40
28.00000000000042
100
AcDbArc
 50
-125.3501271405403
 51
-106.2668475653568
  0
ARC
  5
334
330
1F
100
AcDbEntity
  8
1
  6
Continuous
 62
     3
100
AcDbCircle
 10
471.649968718577
 20
-940.4108549694706
 30
0.0
 40
28.00000000000014
100
AcDbArc
 50
-73.73315243464326
 51
-54.64987285946052
  0
ARC
  5
335
330
1F
100
AcDbEntity
  8
1
  6
Continuous
 62
     3
100
AcDbCircle
 10
471.649968718577
 20
-940.4108549694706
 30
0.0
 40
28.00000000000042
100
AcDbArc
 50
-125.3501271405403
 51
-106.2668475653568
  0
ARC
  5
336
330
1F
100
AcDbEntity
  8
1
  6
Continuous
 62
     3
100
AcDbCircle
 10
471.649968718577
 20
-975.289945821351
 30
0.0
 40
27.99999999999978
100
AcDbArc
 50
54.64987285945998
 51
125.3501271405408
  0
ARC
  5
337
330
1F
100
AcDbEntity
  8
1
  6
Continuous
 62
     3
100
AcDbCircle
 10
451.149968718577
 20
-917.2899458213512
 30
0.0
 40
27.99999999999968
100
AcDbArc
 50
144.6498728594593
 51
164.6411144191764
  0
ARC
  5
338
330
1F
100
AcDbEntity
  8
1
  6
Continuous
 62
     3
100
AcDbCircle
 10
416.149968718577
 20
-917.2899458213512
 30
0.0
 40
28.00000000000014
100
AcDbArc
 50
-35.35012714054007
 51
0.0
  0
ARC
  5
339
330
1F
100
AcDbEntity
  8
1
  6
Continuous
 62
     3
100
AcDbCircle
 10
416.149968718577
 20
-917.2899458213512
 30
0.0
 40
28.0
100
AcDbArc
 50
0.0
 51
35.35012714054007
  0
ARC
  5
33A
330
1F
100
AcDbEntity
  8
1
  6
Continuous
 62
     3
100
AcDbCircle
 10
471.649968718577
 20
-942.289945821351
 30
0.0
 40
52.49999999999993
100
AcDbArc
 50
107.1966486862592
 51
110.0939666662776
  0
ARC
  5
33B
330
1F
100
AcDbEntity
  8
1
  6
Continuous
 62
     3
100
AcDbCircle
 10
451.149968718577
 20
-917.2899458213512
 30
0.0
 40
27.99999999999974
100
AcDbArc
 50
-164.6411144191766
 51
-144.6498728594593
  0
ARC
  5
33C
330
1F
100
AcDbEntity
  8
1
  6
Continuous
 62
     3
100
AcDbCircle
 10
471.649968718577
 20
-793.3343471717811
 30
0.0
 40
14.00000000000022
100
AcDbArc
 50
50.30180115945532
 51
129.6981988405447
  0
ARC
  5
33D
330
1F
100
AcDbEntity
  8
1
  6
Continuous
 62
     3
100
AcDbCircle
 10
471.649968718577
 20
-737.334347171781
 30
0.0
 40
14.00000000000006
100
AcDbArc
 50
-129.6981988405446
 51
-50.30180115945472
  0
ARC
  5
33E
330
1F
100
AcDbEntity
  8
1
  6
Continuous
 62
     3
100
AcDbCircle
 10
491.649968718577
 20
-765.334347171781
 30
0.0
 40
2.000000000000004
100
AcDbArc
 50
-70.52877936550705
 51
70.52877936550705
  0
CIRCLE
  5
33F
330
1F
100
AcDbEntity
  8
1
  6
Continuous
 62
     3
100
AcDbCircle
 10
358.1499687185775
 20
-917.2899458213512
 30
0.0
 40
19.476
  0
CIRCLE
  5
340
330
1F
100
AcDbEntity
  8
1
  6
Continuous
 62
     1
100
AcDbCircle
 10
358.1499687185775
 20
-917.2899458213512
 30
0.0
 40
20.95299999999998
  0
CIRCLE
  5
341
330
1F
100
AcDbEntity
  8
1
  6
Continuous
 62
     3
100
AcDbCircle
 10
358.1499687185775
 20
-917.2899458213512
 30
0.0
 40
25.0
  0
CIRCLE
  5
342
330
1F
100
AcDbEntity
  8
1
  6
Continuous
 62
     3
100
AcDbCircle
 10
457.507833094846
 20
-779.476482795512
 30
0.0
 40
2.5
  0
CIRCLE
  5
343
330
1F
100
AcDbEntity
  8
1
  6
Continuous
 62
     3
100
AcDbCircle
 10
457.507833094846
 20
-751.1922115480501
 30
0.0
 40
2.5
  0
CIRCLE
  5
344
330
1F
100
AcDbEntity
  8
1
  6
Continuous
 62
     3
100
AcDbCircle
 10
485.7921043423079
 20
-779.476482795512
 30
0.0
 40
2.5
  0
CIRCLE
  5
345
330
1F
100
AcDbEntity
  8
1
  6
Continuous
 62
     3
100
AcDbCircle
 10
485.7921043423079
 20
-751.1922115480501
 30
0.0
 40
2.5
  0
SPLINE
  5
346
330
1F
100
AcDbEntity
  8
1
  6
Continuous
 62
     3
100
AcDbSpline
210
0.0
220
0.0
230
1.0
 70
     8
 71
     3
 72
     9
 73
     5
 74
     3
 42
0.0000000001
 43
0.0000000001
 44
0.00000001
 40
0.0
 40
0.0
 40
0.0
 40
0.0
 40
3.106534614639579
 40
5.655648352433591
 40
5.655648352433591
 40
5.655648352433591
 40
5.655648352433591
 10
736.4801808490045
 20
-901.0899458213512
 30
0.0
 10
737.3397022472282
 20
-900.5007493937903
 30
0.0
 10
738.904516866334
 20
-899.4280789689736
 30
0.0
 10
740.1025260287031
 20
-897.9602606548228
 30
0.0
 10
740.642492699807
 20
-897.2986856070074
 30
0.0
 11
736.4801808490045
 21
-901.0899458213512
 31
0.0
 11
738.9480767065404
 21
-899.2031370477043
 31
0.0
 11
740.642492699807
 21
-897.2986856070074
 31
0.0
  0
SPLINE
  5
347
330
1F
100
AcDbEntity
  8
1
  6
Continuous
 62
     3
100
AcDbSpline
210
0.0
220
0.0
230
1.0
 70
     8
 71
     3
 72
     9
 73
     5
 74
     3
 42
0.0000000001
 43
0.0000000001
 44
0.00000001
 40
0.0
 40
0.0
 40
0.0
 40
0.0
 40
3.106534614637736
 40
5.655648352430832
 40
5.655648352430832
 40
5.655648352430832
 40
5.655648352430832
 10
736.4801808490045
 20
-933.4899458213513
 30
0.0
 10
737.3397022472277
 20
-934.0791422489117
 30
0.0
 10
738.9045168663326
 20
-935.1518126737278
 30
0.0
 10
740.1025260287015
 20
-936.6196309878779
 30
0.0
 10
740.6424926998054
 20
-937.2812060356928
 30
0.0
 11
736.4801808490045
 21
-933.4899458213513
 31
0.0
 11
738.948076706539
 21
-935.3767545949969
 31
0.0
 11
740.6424926998054
 21
-937.2812060356928
 31
0.0
  0
SPLINE
  5
348
330
1F
100
AcDbEntity
  8
1
  6
Continuous
 62
     3
100
AcDbSpline
210
0.0
220
0.0
230
1.0
 70
     8
 71
     3
 72
     9
 73
     5
 74
     3
 42
0.0000000001
 43
0.0000000001
 44
0.00000001
 40
0.0
 40
0.0
 40
0.0
 40
0.0
 40
4.647606554829434
 40
8.08933381466581
 40
8.08933381466581
 40
8.08933381466581
 40
8.08933381466581
 10
725.8048045506096
 20
-901.0899458213512
 30
0.0
 10
724.488978863318
 20
-900.1970959578525
 30
0.0
 10
722.1987348203165
 20
-898.6430572269463
 30
0.0
 10
721.1069912307278
 20
-896.1230163047492
 30
0.0
 10
720.6424926998072
 20
-895.0508274525466
 30
0.0
 11
725.8048045506096
 21
-901.0899458213512
 31
0.0
 11
722.2529412582294
 21
-898.0925279591345
 31
0.0
 11
720.6424926998072
 21
-895.0508274525466
 31
0.0
  0
SPLINE
  5
349
330
1F
100
AcDbEntity
  8
1
  6
Continuous
 62
     3
100
AcDbSpline
210
0.0
220
0.0
230
1.0
 70
     8
 71
     3
 72
     9
 73
     5
 74
     3
 42
0.0000000001
 43
0.0000000001
 44
0.00000001
 40
0.0
 40
0.0
 40
0.0
 40
0.0
 40
4.647606554829287
 40
8.089333814665665
 40
8.089333814665665
 40
8.089333814665665
 40
8.089333814665665
 10
725.8048045506096
 20
-933.4899458213513
 30
0.0
 10
724.488978863318
 20
-934.38279568485
 30
0.0
 10
722.1987348203162
 20
-935.936834415756
 30
0.0
 10
721.1069912307278
 20
-938.4568753379531
 30
0.0
 10
720.6424926998072
 20
-939.5290641901556
 30
0.0
 11
725.8048045506096
 21
-933.4899458213513
 31
0.0
 11
722.2529412582294
 21
-936.4873636835678
 31
0.0
 11
720.6424926998072
 21
-939.5290641901556
 31
0.0
  0
SPLINE
  5
34A
330
1F
100
AcDbEntity
  8
1
  6
Continuous
 62
     3
100
AcDbSpline
210
0.0
220
0.0
230
1.0
 70
     8
 71
     3
 72
     9
 73
     5
 74
     3
 42
0.0000000001
 43
0.0000000001
 44
0.00000001
 40
0.0
 40
0.0
 40
0.0
 40
0.0
 40
4.647606554829114
 40
8.089333814665491
 40
8.089333814665491
 40
8.089333814665491
 40
8.089333814665491
 10
676.942492699807
 20
-952.4522576721536
 30
0.0
 10
676.0496428363083
 20
-951.136431984862
 30
0.0
 10
674.495604105402
 20
-948.8461879418604
 30
0.0
 10
671.9755631832051
 20
-947.754444352272
 30
0.0
 10
670.9033743310026
 20
-947.2899458213515
 30
0.0
 11
676.942492699807
 21
-952.4522576721536
 31
0.0
 11
673.9450748375905
 21
-948.9003943797736
 31
0.0
 11
670.9033743310026
 21
-947.2899458213515
 31
0.0
  0
SPLINE
  5
34B
330
1F
100
AcDbEntity
  8
1
  6
Continuous
 62
     3
100
AcDbSpline
210
0.0
220
0.0
230
1.0
 70
     8
 71
     3
 72
     9
 73
     5
 74
     3
 42
0.0000000001
 43
0.0000000001
 44
0.00000001
 40
0.0
 40
0.0
 40
0.0
 40
0.0
 40
4.647606554829114
 40
8.089333814665491
 40
8.089333814665491
 40
8.089333814665491
 40
8.089333814665491
 10
709.3424926998071
 20
-952.4522576721536
 30
0.0
 10
710.2353425633055
 20
-951.136431984862
 30
0.0
 10
711.7893812942116
 20
-948.8461879418604
 30
0.0
 10
714.3094222164089
 20
-947.754444352272
 30
0.0
 10
715.3816110686114
 20
-947.2899458213515
 30
0.0
 11
709.3424926998071
 21
-952.4522576721536
 31
0.0
 11
712.3399105620235
 21
-948.9003943797736
 31
0.0
 11
715.3816110686114
 21
-947.2899458213515
 31
0.0
  0
SPLINE
  5
34C
330
1F
100
AcDbEntity
  8
1
  6
Continuous
 62
     3
100
AcDbSpline
210
0.0
220
0.0
230
1.0
 70
     8
 71
     3
 72
     9
 73
     5
 74
     3
 42
0.0000000001
 43
0.0000000001
 44
0.00000001
 40
0.0
 40
0.0
 40
0.0
 40
0.0
 40
2.979643745594442
 40
5.446575464376735
 40
5.446575464376735
 40
5.446575464376735
 40
5.446575464376735
 10
676.942492699807
 20
-963.2485431186685
 30
0.0
 10
676.3779139842641
 20
-964.0723819294906
 30
0.0
 10
675.345904508523
 20
-965.578300299852
 30
0.0
 10
673.9539404699876
 20
-966.7563628561038
 30
0.0
 10
673.3234745450175
 20
-967.289945821351
 30
0.0
 11
676.942492699807
 21
-963.2485431186685
 31
0.0
 11
675.1410283748867
 21
-965.6219379734492
 31
0.0
 11
673.3234745450175
 21
-967.289945821351
 31
0.0
  0
SPLINE
  5
34D
330
1F
100
AcDbEntity
  8
1
  6
Continuous
 62
     3
100
AcDbSpline
210
0.0
220
0.0
230
1.0
 70
     8
 71
     3
 72
     9
 73
     5
 74
     3
 42
0.0000000001
 43
0.0000000001
 44
0.00000001
 40
0.0
 40
0.0
 40
0.0
 40
0.0
 40
2.979643745594579
 40
5.446575464377039
 40
5.446575464377039
 40
5.446575464377039
 40
5.446575464377039
 10
709.3424926998071
 20
-963.2485431186685
 30
0.0
 10
709.90707141535
 20
-964.0723819294904
 30
0.0
 10
710.9390808910912
 20
-965.5783002998523
 30
0.0
 10
712.3310449296268
 20
-966.7563628561034
 30
0.0
 10
712.961510854597
 20
-967.289945821351
 30
0.0
 11
709.3424926998071
 21
-963.2485431186685
 31
0.0
 11
711.1439570247276
 21
-965.6219379734492
 31
0.0
 11
712.961510854597
 21
-967.289945821351
 31
0.0
  0
SPLINE
  5
34E
330
1F
100
AcDbEntity
  8
1
  6
Continuous
 62
     3
100
AcDbSpline
210
0.0
220
0.0
230
1.0
 70
     8
 71
     3
 72
     9
 73
     5
 74
     3
 42
0.0000000001
 43
0.0000000001
 44
0.00000001
 40
0.0
 40
0.0
 40
0.0
 40
0.0
 40
2.979643745594373
 40
5.44657546437675
 40
5.44657546437675
 40
5.44657546437675
 40
5.44657546437675
 10
455.4499687185767
 20
-963.2485431186685
 30
0.0
 10
454.8853900030339
 20
-964.0723819294905
 30
0.0
 10
453.8533805272929
 20
-965.5783002998521
 30
0.0
 10
452.4614164887574
 20
-966.7563628561036
 30
0.0
 10
451.8309505637872
 20
-967.289945821351
 30
0.0
 11
455.4499687185767
 21
-963.2485431186685
 31
0.0
 11
453.6485043936565
 21
-965.6219379734492
 31
0.0
 11
451.8309505637872
 21
-967.289945821351
 31
0.0
  0
SPLINE
  5
34F
330
1F
100
AcDbEntity
  8
1
  6
Continuous
 62
     3
100
AcDbSpline
210
0.0
220
0.0
230
1.0
 70
     8
 71
     3
 72
     9
 73
     5
 74
     3
 42
0.0000000001
 43
0.0000000001
 44
0.00000001
 40
0.0
 40
0.0
 40
0.0
 40
0.0
 40
2.979643745594613
 40
5.446575464377073
 40
5.446575464377073
 40
5.446575464377073
 40
5.446575464377073
 10
487.8499687185768
 20
-963.2485431186685
 30
0.0
 10
488.4145474341199
 20
-964.0723819294905
 30
0.0
 10
489.446556909861
 20
-965.5783002998523
 30
0.0
 10
490.8385209483967
 20
-966.7563628561036
 30
0.0
 10
491.4689868733668
 20
-967.289945821351
 30
0.0
 11
487.8499687185768
 21
-963.2485431186685
 31
0.0
 11
489.6514330434974
 21
-965.6219379734492
 31
0.0
 11
491.4689868733668
 21
-967.289945821351
 31
0.0
  0
SPLINE
  5
350
330
1F
100
AcDbEntity
  8
1
  6
Continuous
 62
     3
100
AcDbSpline
210
0.0
220
0.0
230
1.0
 70
     8
 71
     3
 72
     9
 73
     5
 74
     3
 42
0.0000000001
 43
0.0000000001
 44
0.00000001
 40
0.0
 40
0.0
 40
0.0
 40
0.0
 40
4.647606554828894
 40
8.089333814665221
 40
8.089333814665221
 40
8.089333814665221
 40
8.089333814665221
 10
455.4499687185767
 20
-952.4522576721536
 30
0.0
 10
454.5571188550784
 20
-951.1364319848622
 30
0.0
 10
453.0030801241723
 20
-948.8461879418603
 30
0.0
 10
450.4830392019753
 20
-947.7544443522722
 30
0.0
 10
449.4108503497728
 20
-947.2899458213515
 30
0.0
 11
455.4499687185767
 21
-952.4522576721536
 31
0.0
 11
452.4525508563606
 21
-948.9003943797736
 31
0.0
 11
449.4108503497728
 21
-947.2899458213515
 31
0.0
  0
SPLINE
  5
351
330
1F
100
AcDbEntity
  8
1
  6
Continuous
 62
     3
100
AcDbSpline
210
0.0
220
0.0
230
1.0
 70
     8
 71
     3
 72
     9
 73
     5
 74
     3
 42
0.0000000001
 43
0.0000000001
 44
0.00000001
 40
0.0
 40
0.0
 40
0.0
 40
0.0
 40
4.647606554829114
 40
8.089333814665441
 40
8.089333814665441
 40
8.089333814665441
 40
8.089333814665441
 10
487.8499687185768
 20
-952.4522576721536
 30
0.0
 10
488.7428185820755
 20
-951.1364319848623
 30
0.0
 10
490.2968573129816
 20
-948.8461879418605
 30
0.0
 10
492.8168982351787
 20
-947.7544443522722
 30
0.0
 10
493.8890870873811
 20
-947.2899458213515
 30
0.0
 11
487.8499687185768
 21
-952.4522576721536
 31
0.0
 11
490.8473865807933
 21
-948.9003943797736
 31
0.0
 11
493.8890870873811
 21
-947.2899458213515
 31
0.0
  0
SPLINE
  5
352
330
1F
100
AcDbEntity
  8
1
  6
Continuous
 62
     3
100
AcDbSpline
210
0.0
220
0.0
230
1.0
 70
     8
 71
     3
 72
     9
 73
     5
 74
     3
 42
0.0000000001
 43
0.0000000001
 44
0.00000001
 40
0.0
 40
0.0
 40
0.0
 40
0.0
 40
4.647606554829287
 40
8.089333814665636
 40
8.089333814665636
 40
8.089333814665636
 40
8.089333814665636
 10
438.9876568677747
 20
-933.4899458213513
 30
0.0
 10
440.3034825550664
 20
-934.3827956848498
 30
0.0
 10
442.5937265980681
 20
-935.936834415756
 30
0.0
 10
443.6854701876564
 20
-938.4568753379531
 30
0.0
 10
444.149968718577
 20
-939.5290641901556
 30
0.0
 11
438.9876568677747
 21
-933.4899458213513
 31
0.0
 11
442.5395201601549
 21
-936.4873636835678
 31
0.0
 11
444.149968718577
 21
-939.5290641901556
 31
0.0
  0
SPLINE
  5
353
330
1F
100
AcDbEntity
  8
1
  6
Continuous
 62
     3
100
AcDbSpline
210
0.0
220
0.0
230
1.0
 70
     8
 71
     3
 72
     9
 73
     5
 74
     3
 42
0.0000000001
 43
0.0000000001
 44
0.00000001
 40
0.0
 40
0.0
 40
0.0
 40
0.0
 40
4.647606554829434
 40
8.089333814665784
 40
8.089333814665784
 40
8.089333814665784
 40
8.089333814665784
 10
438.9876568677747
 20
-901.0899458213512
 30
0.0
 10
440.3034825550663
 20
-900.1970959578525
 30
0.0
 10
442.5937265980679
 20
-898.6430572269462
 30
0.0
 10
443.6854701876563
 20
-896.1230163047488
 30
0.0
 10
444.149968718577
 20
-895.0508274525466
 30
0.0
 11
438.9876568677747
 21
-901.0899458213512
 31
0.0
 11
442.5395201601549
 21
-898.0925279591345
 31
0.0
 11
444.149968718577
 21
-895.0508274525466
 31
0.0
  0
SPLINE
  5
354
330
1F
100
AcDbEntity
  8
1
  6
Continuous
 62
     3
100
AcDbSpline
210
0.0
220
0.0
230
1.0
 70
     8
 71
     3
 72
     9
 73
     5
 74
     3
 42
0.0000000001
 43
0.0000000001
 44
0.00000001
 40
0.0
 40
0.0
 40
0.0
 40
0.0
 40
3.106534614637781
 40
5.655648352430801
 40
5.655648352430801
 40
5.655648352430801
 40
5.655648352430801
 10
428.3122805693798
 20
-933.4899458213513
 30
0.0
 10
427.4527591711565
 20
-934.0791422489116
 30
0.0
 10
425.8879445520515
 20
-935.1518126737278
 30
0.0
 10
424.6899353896828
 20
-936.6196309878779
 30
0.0
 10
424.1499687185789
 20
-937.2812060356928
 30
0.0
 11
428.3122805693798
 21
-933.4899458213513
 31
0.0
 11
425.8443847118452
 21
-935.3767545949969
 31
0.0
 11
424.1499687185789
 21
-937.2812060356928
 31
0.0
  0
SPLINE
  5
355
330
1F
100
AcDbEntity
  8
1
  6
Continuous
 62
     3
100
AcDbSpline
210
0.0
220
0.0
230
1.0
 70
     8
 71
     3
 72
     9
 73
     5
 74
     3
 42
0.0000000001
 43
0.0000000001
 44
0.00000001
 40
0.0
 40
0.0
 40
0.0
 40
0.0
 40
3.106534614639579
 40
5.655648352433553
 40
5.655648352433553
 40
5.655648352433553
 40
5.655648352433553
 10
428.3122805693798
 20
-901.0899458213512
 30
0.0
 10
427.452759171156
 20
-900.5007493937904
 30
0.0
 10
425.8879445520502
 20
-899.4280789689735
 30
0.0
 10
424.6899353896813
 20
-897.9602606548228
 30
0.0
 10
424.1499687185773
 20
-897.2986856070074
 30
0.0
 11
428.3122805693798
 21
-901.0899458213512
 31
0.0
 11
425.8443847118439
 21
-899.2031370477043
 31
0.0
 11
424.1499687185773
 21
-897.2986856070074
 31
0.0
  0
ARC
  5
356
330
1F
100
AcDbEntity
  8
1
  6
Continuous
 62
     3
100
AcDbCircle
 10
557.7665154029198
 20
-936.9542230501484
 30
0.0
 40
4.99999999999982
100
AcDbArc
 50
-30.00000000000119
 51
3.09518385633732
  0
ARC
  5
357
330
1F
100
AcDbEntity
  8
1
  6
Continuous
 62
     3
100
AcDbCircle
 10
600.6424926998068
 20
-889.5906678524224
 30
0.0
 40
5.0
100
AcDbArc
 50
180.0
 51
-155.6764657913561
  0
ARC
  5
358
330
1F
100
AcDbEntity
  8
1
  6
Continuous
 62
     3
100
AcDbCircle
 10
564.6424926998068
 20
-852.2899458213511
 30
0.0
 40
1.0
100
AcDbArc
 50
180.0
 51
-90.0
  0
ARC
  5
359
330
1F
100
AcDbEntity
  8
1
  6
Continuous
 62
     3
100
AcDbCircle
 10
602.6424926998068
 20
-852.2899458213511
 30
0.0
 40
1.0
100
AcDbArc
 50
-90.0
 51
-0.00000000001303
  0
ARC
  5
35A
330
1F
100
AcDbEntity
  8
1
  6
Continuous
 62
     3
100
AcDbCircle
 10
600.6424926998068
 20
-856.2899458213511
 30
0.0
 40
2.999999999999773
100
AcDbArc
 50
90.0
 51
180.0
  0
ARC
  5
35B
330
1F
100
AcDbEntity
  8
1
  6
Continuous
 62
     3
100
AcDbCircle
 10
597.6424926998068
 20
-864.2540474364888
 30
0.0
 40
1.999999999999967
100
AcDbArc
 50
120.0000000000006
 51
180.0
  0
ARC
  5
35C
330
1F
100
AcDbEntity
  8
1
  6
Continuous
 62
     3
100
AcDbCircle
 10
595.6424926998068
 20
-860.7899458213511
 30
0.0
 40
1.999999999999967
100
AcDbArc
 50
-59.99999999999946
 51
0.0
  0
ARC
  5
35D
330
1F
100
AcDbEntity
  8
1
  6
Continuous
 62
     3
100
AcDbCircle
 10
569.6424926998068
 20
-864.2540474364888
 30
0.0
 40
2.0
100
AcDbArc
 50
0.0
 51
59.99999999999946
  0
ARC
  5
35E
330
1F
100
AcDbEntity
  8
1
  6
Continuous
 62
     3
100
AcDbCircle
 10
571.6424926998068
 20
-860.7899458213511
 30
0.0
 40
2.0
100
AcDbArc
 50
180.0
 51
-120.0000000000006
  0
ARC
  5
35F
330
1F
100
AcDbEntity
  8
1
  6
Continuous
 62
     3
100
AcDbCircle
 10
566.6424926998068
 20
-856.2899458213511
 30
0.0
 40
3.0
100
AcDbArc
 50
0.0
 51
90.0
  0
ARC
  5
360
330
1F
100
AcDbEntity
  8
1
  6
Continuous
 62
     3
100
AcDbCircle
 10
581.1424926998068
 20
-876.289945821351
 30
0.0
 40
1.0
100
AcDbArc
 50
0.0
 51
90.0
  0
ARC
  5
361
330
1F
100
AcDbEntity
  8
1
  6
Continuous
 62
     3
100
AcDbCircle
 10
586.1424926998068
 20
-876.289945821351
 30
0.0
 40
1.0
100
AcDbArc
 50
90.0
 51
180.0
  0
ARC
  5
362
330
1F
100
AcDbEntity
  8
1
  6
Continuous
 62
     3
100
AcDbCircle
 10
600.6424926998068
 20
-874.408310917809
 30
0.0
 40
5.0
100
AcDbArc
 50
180.0
 51
-159.9999999999986
  0
ARC
  5
363
330
1F
100
AcDbEntity
  8
1
  6
Continuous
 62
     3
100
AcDbCircle
 10
566.6424926998068
 20
-874.408310917809
 30
0.0
 40
5.000000000000407
100
AcDbArc
 50
-19.99999999999903
 51
0.0
  0
ARC
  5
364
330
1F
100
AcDbEntity
  8
1
  6
Continuous
 62
     3
100
AcDbCircle
 10
566.6424926998068
 20
-889.5906678524224
 30
0.0
 40
5.000000000000036
100
AcDbArc
 50
-24.3235342086383
 51
0.0
  0
ARC
  5
365
330
1F
100
AcDbEntity
  8
1
  6
Continuous
 62
     3
100
AcDbCircle
 10
609.4787650094868
 20
-937.0063611431103
 30
0.0
 40
5.000000000000557
100
AcDbArc
 50
176.7892809778575
 51
-150.000000000004
  0
ARC
  5
366
330
1F
100
AcDbEntity
  8
1
  6
Continuous
 62
     3
100
AcDbCircle
 10
332.2739914216905
 20
-936.9542230501484
 30
0.0
 40
4.999999999999869
100
AcDbArc
 50
-30.00000000000087
 51
37.23277699416041
  0
ARC
  5
367
330
1F
100
AcDbEntity
  8
1
  6
Continuous
 62
     3
100
AcDbCircle
 10
383.9862410282575
 20
-937.0063611431103
 30
0.0
 40
5.000000000000618
100
AcDbArc
 50
142.6516878400388
 51
-150.000000000004
  0
ARC
  5
368
330
1F
100
AcDbEntity
  8
1
  6
Continuous
 62
     3
100
AcDbCircle
 10
341.1499687185775
 20
-889.5906678524224
 30
0.0
 40
5.000000000000008
100
AcDbArc
 50
-58.461127346461
 51
0.0
  0
ARC
  5
369
330
1F
100
AcDbEntity
  8
1
  6
Continuous
 62
     3
100
AcDbCircle
 10
375.1499687185775
 20
-889.5906678524224
 30
0.0
 40
5.0
100
AcDbArc
 50
180.0
 51
-121.5388726535301
  0
ARC
  5
36A
330
1F
100
AcDbEntity
  8
1
  6
Continuous
 62
     3
100
AcDbCircle
 10
383.2378881345315
 20
-896.6296868835113
 30
0.0
 40
4.999999999999693
100
AcDbArc
 50
-159.9999999999911
 51
-140.5280580739777
  0
ARC
  5
36B
330
1F
100
AcDbEntity
  8
1
  6
Continuous
 62
     3
100
AcDbCircle
 10
333.0620493026235
 20
-896.6296868835113
 30
0.0
 40
5.00000000000065
100
AcDbArc
 50
-39.47194192602107
 51
-20.00000000000894
  0
ARC
  5
36C
330
1F
100
AcDbEntity
  8
1
  6
Continuous
 62
     3
100
AcDbCircle
 10
341.1499687185775
 20
-874.408310917809
 30
0.0
 40
5.00000000000046
100
AcDbArc
 50
-19.99999999999881
 51
0.0
  0
ARC
  5
36D
330
1F
100
AcDbEntity
  8
1
  6
Continuous
 62
     3
100
AcDbCircle
 10
375.1499687185775
 20
-874.408310917809
 30
0.0
 40
5.0
100
AcDbArc
 50
180.0
 51
-159.9999999999984
  0
ARC
  5
36E
330
1F
100
AcDbEntity
  8
1
  6
Continuous
 62
     3
100
AcDbCircle
 10
360.6499687185775
 20
-876.289945821351
 30
0.0
 40
1.0
100
AcDbArc
 50
90.0
 51
180.0
  0
ARC
  5
36F
330
1F
100
AcDbEntity
  8
1
  6
Continuous
 62
     3
100
AcDbCircle
 10
360.6499687185775
 20
-888.789945821351
 30
0.0
 40
1.0
100
AcDbArc
 50
180.0
 51
-90.0
  0
ARC
  5
370
330
1F
100
AcDbEntity
  8
1
  6
Continuous
 62
     3
100
AcDbCircle
 10
355.6499687185775
 20
-888.789945821351
 30
0.0
 40
1.0
100
AcDbArc
 50
-90.0
 51
0.0
  0
ARC
  5
371
330
1F
100
AcDbEntity
  8
1
  6
Continuous
 62
     3
100
AcDbCircle
 10
355.6499687185775
 20
-876.289945821351
 30
0.0
 40
1.0
100
AcDbArc
 50
0.0
 51
90.0
  0
ARC
  5
372
330
1F
100
AcDbEntity
  8
1
  6
Continuous
 62
     3
100
AcDbCircle
 10
341.1499687185775
 20
-856.2899458213511
 30
0.0
 40
3.0
100
AcDbArc
 50
0.0
 51
90.0
  0
ARC
  5
373
330
1F
100
AcDbEntity
  8
1
  6
Continuous
 62
     3
100
AcDbCircle
 10
346.1499687185775
 20
-860.7899458213511
 30
0.0
 40
2.0
100
AcDbArc
 50
180.0
 51
-120.0000000000006
  0
ARC
  5
374
330
1F
100
AcDbEntity
  8
1
  6
Continuous
 62
     3
100
AcDbCircle
 10
344.1499687185775
 20
-864.2540474364888
 30
0.0
 40
2.0
100
AcDbArc
 50
0.0
 51
59.99999999999946
  0
ARC
  5
375
330
1F
100
AcDbEntity
  8
1
  6
Continuous
 62
     3
100
AcDbCircle
 10
370.1499687185775
 20
-860.7899458213511
 30
0.0
 40
1.999999999999967
100
AcDbArc
 50
-59.99999999999946
 51
0.0
  0
ARC
  5
376
330
1F
100
AcDbEntity
  8
1
  6
Continuous
 62
     3
100
AcDbCircle
 10
372.1499687185775
 20
-864.2540474364888
 30
0.0
 40
1.999999999999967
100
AcDbArc
 50
120.0000000000006
 51
180.0
  0
ARC
  5
377
330
1F
100
AcDbEntity
  8
1
  6
Continuous
 62
     3
100
AcDbCircle
 10
375.1499687185775
 20
-856.2899458213511
 30
0.0
 40
2.999999999999773
100
AcDbArc
 50
90.0
 51
180.0
  0
ARC
  5
378
330
1F
100
AcDbEntity
  8
1
  6
Continuous
 62
     3
100
AcDbCircle
 10
377.1499687185775
 20
-852.2899458213511
 30
0.0
 40
1.0
100
AcDbArc
 50
-90.0
 51
-0.00000000001303
  0
ARC
  5
379
330
1F
100
AcDbEntity
  8
1
  6
Continuous
 62
     3
100
AcDbCircle
 10
339.1499687185775
 20
-852.2899458213511
 30
0.0
 40
1.0
100
AcDbArc
 50
180.0
 51
-90.0
  0
ARC
  5
37A
330
1F
100
AcDbEntity
  8
1
  6
Continuous
 62
     3
100
AcDbCircle
 10
470.1654943677415
 20
-914.2883275309425
 30
0.0
 40
3.001618290408715
100
AcDbArc
 50
-90.0
 51
0.0
  0
ARC
  5
37B
330
1F
100
AcDbEntity
  8
1
  6
Continuous
 62
     3
100
AcDbCircle
 10
710.1424926998072
 20
-856.2899458213511
 30
0.0
 40
2.999999999999773
100
AcDbArc
 50
90.0
 51
180.0
  0
ARC
  5
37C
330
1F
100
AcDbEntity
  8
1
  6
Continuous
 62
     3
100
AcDbCircle
 10
705.1424926998072
 20
-860.7899458213511
 30
0.0
 40
1.999999999999967
100
AcDbArc
 50
-59.99999999999946
 51
0.0
  0
ARC
  5
37D
330
1F
100
AcDbEntity
  8
1
  6
Continuous
 62
     3
100
AcDbCircle
 10
707.1424926998072
 20
-864.2540474364888
 30
0.0
 40
1.999999999999967
100
AcDbArc
 50
120.0000000000006
 51
180.0
  0
ARC
  5
37E
330
1F
100
AcDbEntity
  8
1
  6
Continuous
 62
     3
100
AcDbCircle
 10
681.1424926998072
 20
-860.7899458213511
 30
0.0
 40
2.0
100
AcDbArc
 50
180.0
 51
-120.0000000000006
  0
ARC
  5
37F
330
1F
100
AcDbEntity
  8
1
  6
Continuous
 62
     3
100
AcDbCircle
 10
679.1424926998072
 20
-864.2540474364888
 30
0.0
 40
2.0
100
AcDbArc
 50
0.0
 51
59.99999999999946
  0
ARC
  5
380
330
1F
100
AcDbEntity
  8
1
  6
Continuous
 62
     3
100
AcDbCircle
 10
676.1424926998072
 20
-856.2899458213511
 30
0.0
 40
3.0
100
AcDbArc
 50
0.0
 51
90.0
  0
ARC
  5
381
330
1F
100
AcDbEntity
  8
1
  6
Continuous
 62
     3
100
AcDbCircle
 10
673.142492699807
 20
-851.2899458213511
 30
0.0
 40
2.0
100
AcDbArc
 50
180.0
 51
-90.0
  0
ARC
  5
382
330
1F
100
AcDbEntity
  8
1
  6
Continuous
 62
     3
100
AcDbCircle
 10
712.8972389649455
 20
-888.289945821351
 30
0.0
 40
4.999999999999985
100
AcDbArc
 50
-110.0939666662787
 51
-90.0
  0
ARC
  5
383
330
1F
100
AcDbEntity
  8
1
  6
Continuous
 62
     3
100
AcDbCircle
 10
672.3638866118984
 20
-884.789945821351
 30
0.0
 40
5.0
100
AcDbArc
 50
-90.0
 51
-20.00000000000082
  0
ARC
  5
384
330
1F
100
AcDbEntity
  8
1
  6
Continuous
 62
     3
100
AcDbCircle
 10
676.142492699807
 20
-884.789945821351
 30
0.0
 40
5.0
100
AcDbArc
 50
-90.0000000000026
 51
0.0
  0
ARC
  5
385
330
1F
100
AcDbEntity
  8
1
  6
Continuous
 62
     3
100
AcDbCircle
 10
676.142492699807
 20
-874.4083109178087
 30
0.0
 40
5.000000000000193
100
AcDbArc
 50
-19.99999999999993
 51
0.0
  0
ARC
  5
386
330
1F
100
AcDbEntity
  8
1
  6
Continuous
 62
     3
100
AcDbCircle
 10
710.1424926998072
 20
-874.4083109178087
 30
0.0
 40
5.0
100
AcDbArc
 50
180.0
 51
-159.9999999999992
  0
ARC
  5
387
330
1F
100
AcDbEntity
  8
1
  6
Continuous
 62
     3
100
AcDbCircle
 10
715.1949946076472
 20
-888.289945821351
 30
0.0
 40
5.000000000000193
100
AcDbArc
 50
-160.0000000000001
 51
-90.0
  0
ARC
  5
388
330
1F
100
AcDbEntity
  8
1
  6
Continuous
 62
     3
100
AcDbCircle
 10
710.142492699807
 20
-887.3604455505495
 30
0.0
 40
5.0
100
AcDbArc
 50
180.0
 51
-107.1966486862602
  0
ARC
  5
389
330
1F
100
AcDbEntity
  8
1
  6
Continuous
 62
     3
100
AcDbCircle
 10
716.5706959300826
 20
-888.289945821351
 30
0.0
 40
5.000000000000227
100
AcDbArc
 50
-90.0
 51
-60.00000000000011
  0
ARC
  5
38A
330
1F
100
AcDbEntity
  8
1
  6
Continuous
 62
     3
100
AcDbCircle
 10
674.1424926998072
 20
-852.2899458213511
 30
0.0
 40
1.0
100
AcDbArc
 50
180.0
 51
-90.0
  0
ARC
  5
38B
330
1F
100
AcDbEntity
  8
1
  6
Continuous
 62
     3
100
AcDbCircle
 10
690.6424926998072
 20
-876.289945821351
 30
0.0
 40
1.0
100
AcDbArc
 50
0.0
 51
90.0
  0
ARC
  5
38C
330
1F
100
AcDbEntity
  8
1
  6
Continuous
 62
     3
100
AcDbCircle
 10
690.6424926998072
 20
-888.789945821351
 30
0.0
 40
1.0
100
AcDbArc
 50
-90.0
 51
0.0
  0
ARC
  5
38D
330
1F
100
AcDbEntity
  8
1
  6
Continuous
 62
     3
100
AcDbCircle
 10
695.6424926998072
 20
-888.789945821351
 30
0.0
 40
1.0
100
AcDbArc
 50
180.0
 51
-90.0
  0
ARC
  5
38E
330
1F
100
AcDbEntity
  8
1
  6
Continuous
 62
     3
100
AcDbCircle
 10
695.6424926998072
 20
-876.289945821351
 30
0.0
 40
1.0
100
AcDbArc
 50
90.0
 51
180.0
  0
ARC
  5
38F
330
1F
100
AcDbEntity
  8
1
  6
Continuous
 62
     3
100
AcDbCircle
 10
712.1424926998072
 20
-852.2899458213511
 30
0.0
 40
1.0
100
AcDbArc
 50
-90.0
 51
-0.00000000001303
  0
ARC
  5
390
330
1F
100
AcDbEntity
  8
1
  6
Continuous
 62
     3
100
AcDbCircle
 10
664.1424926998072
 20
-947.6629291675586
 30
0.0
 40
1.999999999999971
100
AcDbArc
 50
10.74811262525493
 51
75.52248781406892
  0
ARC
  5
391
330
1F
100
AcDbEntity
  8
1
  6
Continuous
 62
     3
100
AcDbCircle
 10
664.1424926998072
 20
-947.6629291675586
 30
0.0
 40
2.0
100
AcDbArc
 50
0.0
 51
10.74811262525493
  0
ARC
  5
392
330
1F
100
AcDbEntity
  8
1
  6
Continuous
 62
     3
100
AcDbCircle
 10
720.2122996290216
 20
-944.3509748128881
 30
0.0
 40
2.000000000000105
100
AcDbArc
 50
123.8096042256721
 51
180.0
  0
ARC
  5
393
330
1F
100
AcDbEntity
  8
1
  6
Continuous
 62
     3
100
AcDbCircle
 10
719.6558647272666
 20
-943.5200836045408
 30
0.0
 40
0.9999999999998624
100
AcDbArc
 50
55.00000000001331
 51
123.8096042256775
  0
ARC
  5
394
330
1F
100
AcDbEntity
  8
1
  6
Continuous
 62
     3
100
AcDbCircle
 10
445.1365966911176
 20
-943.5200836045408
 30
0.0
 40
1.000000000000116
100
AcDbArc
 50
56.19039577432252
 51
124.9999999999814
  0
ARC
  5
395
330
1F
100
AcDbEntity
  8
1
  6
Continuous
 62
     3
100
AcDbCircle
 10
444.5801617893627
 20
-944.3509748128881
 30
0.0
 40
2.0
100
AcDbArc
 50
0.0
 51
56.19039577433064
  0
ARC
  5
396
330
1F
100
AcDbEntity
  8
1
  6
Continuous
 62
     3
100
AcDbCircle
 10
500.649968718577
 20
-947.6629291675586
 30
0.0
 40
1.999999999999971
100
AcDbArc
 50
169.2518873747451
 51
180.0
  0
ARC
  5
397
330
1F
100
AcDbEntity
  8
1
  6
Continuous
 62
     3
100
AcDbCircle
 10
500.649968718577
 20
-947.6629291675586
 30
0.0
 40
1.999999999999843
100
AcDbArc
 50
104.4775121859311
 51
169.2518873747451
  0
ARC
  5
398
330
1F
100
AcDbEntity
  8
1
  6
Continuous
 62
     3
100
AcDbCircle
 10
452.649968718577
 20
-852.2899458213511
 30
0.0
 40
1.0
100
AcDbArc
 50
180.0
 51
-90.0
  0
ARC
  5
399
330
1F
100
AcDbEntity
  8
1
  6
Continuous
 62
     3
100
AcDbCircle
 10
469.149968718577
 20
-876.289945821351
 30
0.0
 40
1.0
100
AcDbArc
 50
0.0
 51
90.0
  0
ARC
  5
39A
330
1F
100
AcDbEntity
  8
1
  6
Continuous
 62
     3
100
AcDbCircle
 10
469.149968718577
 20
-888.789945821351
 30
0.0
 40
1.0
100
AcDbArc
 50
-90.0
 51
0.0
  0
ARC
  5
39B
330
1F
100
AcDbEntity
  8
1
  6
Continuous
 62
     3
100
AcDbCircle
 10
474.149968718577
 20
-888.789945821351
 30
0.0
 40
1.0
100
AcDbArc
 50
180.0
 51
-90.0
  0
ARC
  5
39C
330
1F
100
AcDbEntity
  8
1
  6
Continuous
 62
     3
100
AcDbCircle
 10
474.149968718577
 20
-876.289945821351
 30
0.0
 40
1.0
100
AcDbArc
 50
90.0
 51
180.0
  0
ARC
  5
39D
330
1F
100
AcDbEntity
  8
1
  6
Continuous
 62
     3
100
AcDbCircle
 10
490.649968718577
 20
-852.2899458213511
 30
0.0
 40
1.0
100
AcDbArc
 50
-90.0
 51
-0.00000000001303
  0
ARC
  5
39E
330
1F
100
AcDbEntity
  8
1
  6
Continuous
 62
     3
100
AcDbCircle
 10
448.2217654883016
 20
-888.289945821351
 30
0.0
 40
5.000000000000016
100
AcDbArc
 50
-119.9999999999999
 51
-90.0
  0
ARC
  5
39F
330
1F
100
AcDbEntity
  8
1
  6
Continuous
 62
     3
100
AcDbCircle
 10
454.6499687185772
 20
-887.3604455505495
 30
0.0
 40
4.999999999999903
100
AcDbArc
 50
-72.80335131373914
 51
0.0
  0
ARC
  5
3A0
330
1F
100
AcDbEntity
  8
1
  6
Continuous
 62
     3
100
AcDbCircle
 10
449.597466810737
 20
-888.289945821351
 30
0.0
 40
5.000000000000227
100
AcDbArc
 50
-90.0
 51
-19.99999999999993
  0
ARC
  5
3A1
330
1F
100
AcDbEntity
  8
1
  6
Continuous
 62
     3
100
AcDbCircle
 10
454.649968718577
 20
-874.4083109178087
 30
0.0
 40
4.99999999999998
100
AcDbArc
 50
-20.00000000000082
 51
0.0
  0
ARC
  5
3A2
330
1F
100
AcDbEntity
  8
1
  6
Continuous
 62
     3
100
AcDbCircle
 10
488.649968718577
 20
-874.4083109178087
 30
0.0
 40
5.0
100
AcDbArc
 50
180.0
 51
-159.9999999999992
  0
ARC
  5
3A3
330
1F
100
AcDbEntity
  8
1
  6
Continuous
 62
     3
100
AcDbCircle
 10
488.6499687185772
 20
-884.789945821351
 30
0.0
 40
5.0
100
AcDbArc
 50
180.0
 51
-89.99999999999805
  0
ARC
  5
3A4
330
1F
100
AcDbEntity
  8
1
  6
Continuous
 62
     3
100
AcDbCircle
 10
492.4285748064859
 20
-884.789945821351
 30
0.0
 40
4.99999999999998
100
AcDbArc
 50
-159.9999999999992
 51
-90.0
  0
ARC
  5
3A5
330
1F
100
AcDbEntity
  8
1
  6
Continuous
 62
     3
100
AcDbCircle
 10
451.8952224534388
 20
-888.289945821351
 30
0.0
 40
5.000000000000227
100
AcDbArc
 50
-90.0
 51
-69.90603333372189
  0
ARC
  5
3A6
330
1F
100
AcDbEntity
  8
1
  6
Continuous
 62
     3
100
AcDbCircle
 10
491.6499687185772
 20
-851.2899458213511
 30
0.0
 40
2.0
100
AcDbArc
 50
-90.0
 51
0.0
  0
ARC
  5
3A7
330
1F
100
AcDbEntity
  8
1
  6
Continuous
 62
     3
100
AcDbCircle
 10
488.649968718577
 20
-856.2899458213511
 30
0.0
 40
2.999999999999773
100
AcDbArc
 50
90.0
 51
180.0
  0
ARC
  5
3A8
330
1F
100
AcDbEntity
  8
1
  6
Continuous
 62
     3
100
AcDbCircle
 10
485.649968718577
 20
-864.2540474364888
 30
0.0
 40
1.999999999999967
100
AcDbArc
 50
120.0000000000006
 51
180.0
  0
ARC
  5
3A9
330
1F
100
AcDbEntity
  8
1
  6
Continuous
 62
     3
100
AcDbCircle
 10
483.649968718577
 20
-860.7899458213511
 30
0.0
 40
1.999999999999967
100
AcDbArc
 50
-59.99999999999946
 51
0.0
  0
ARC
  5
3AA
330
1F
100
AcDbEntity
  8
1
  6
Continuous
 62
     3
100
AcDbCircle
 10
457.649968718577
 20
-864.2540474364888
 30
0.0
 40
2.0
100
AcDbArc
 50
0.0
 51
59.99999999999946
  0
ARC
  5
3AB
330
1F
100
AcDbEntity
  8
1
  6
Continuous
 62
     3
100
AcDbCircle
 10
459.649968718577
 20
-860.7899458213511
 30
0.0
 40
2.0
100
AcDbArc
 50
180.0
 51
-120.0000000000006
  0
ARC
  5
3AC
330
1F
100
AcDbEntity
  8
1
  6
Continuous
 62
     3
100
AcDbCircle
 10
454.649968718577
 20
-856.2899458213511
 30
0.0
 40
3.0
100
AcDbArc
 50
0.0
 51
90.0
  0
ARC
  5
3AD
330
1F
100
AcDbEntity
  8
1
  6
Continuous
 62
     3
100
AcDbCircle
 10
457.649968718577
 20
-751.334347171781
 30
0.0
 40
6.0
100
AcDbArc
 50
90.0
 51
180.0
  0
ARC
  5
3AE
330
1F
100
AcDbEntity
  8
1
  6
Continuous
 62
     3
100
AcDbCircle
 10
457.649968718577
 20
-779.334347171781
 30
0.0
 40
6.0
100
AcDbArc
 50
-90.0
 51
-32.54901099750673
  0
ARC
  5
3AF
330
1F
100
AcDbEntity
  8
1
  6
Continuous
 62
     3
100
AcDbCircle
 10
485.649968718577
 20
-779.334347171781
 30
0.0
 40
5.999999999999899
100
AcDbArc
 50
-147.4509890024933
 51
0.0
  0
ARC
  5
3B0
330
1F
100
AcDbEntity
  8
1
  6
Continuous
 62
     3
100
AcDbCircle
 10
457.649968718577
 20
-751.334347171781
 30
0.0
 40
5.999999999999995
100
AcDbArc
 50
32.54901099750615
 51
90.0
  0
ARC
  5
3B1
330
1F
100
AcDbEntity
  8
1
  6
Continuous
 62
     3
100
AcDbCircle
 10
457.649968718577
 20
-779.334347171781
 30
0.0
 40
6.0
100
AcDbArc
 50
180.0
 51
-90.0
  0
ARC
  5
3B2
330
1F
100
AcDbEntity
  8
1
  6
Continuous
 62
     3
100
AcDbCircle
 10
485.649968718577
 20
-751.334347171781
 30
0.0
 40
6.0
100
AcDbArc
 50
0.0
 51
147.4509890024924
  0
ARC
  5
3B3
330
1F
100
AcDbEntity
  8
1
  6
Continuous
 62
     3
100
AcDbCircle
 10
492.649968718577
 20
-768.1627742965272
 30
0.0
 40
1.000000000000018
100
AcDbArc
 50
109.4712206344857
 51
180.0
  0
ARC
  5
3B4
330
1F
100
AcDbEntity
  8
1
  6
Continuous
 62
     3
100
AcDbCircle
 10
492.649968718577
 20
-762.5059200470348
 30
0.0
 40
1.0
100
AcDbArc
 50
180.0
 51
-109.4712206344857
  0
MTEXT
  5
3B5
330
1F
100
AcDbEntity
  8
1
 62
     3
100
AcDbMText
 10
491.5875263686706
 20
-913.2025273039278
 30
0.0
 40
8.0
 41
0.0
 71
     1
 72
     1
  1
B
  7
CONVERTER_1
 73
     1
 44
0.84033613445378
  0
MTEXT
  5
3B6
330
1F
100
AcDbEntity
  8
1
 62
     3
100
AcDbMText
 10
437.9474387643607
 20
-913.309425871689
 30
0.0
 40
8.0
 41
0.0
 71
     3
 72
     1
  1
A
  7
CONVERTER_1
 73
     1
 44
0.84033613445378
  0
MTEXT
  5
3B7
330
1F
100
AcDbEntity
  8
1
 62
     3
100
AcDbMText
 10
478.8818591587072
 20
-952.2512642747349
 30
0.0
 40
8.0
 41
0.0
 71
     3
 72
     1
  1
AB
  7
CONVERTER_1
 73
     1
 44
0.84033613445378
  0
TEXT
  5
3B9
330
1F
100
AcDbEntity
  8
1
 62
     1
100
AcDbText
 10
671.598160881671
 20
-919.8165369122617
 30
0.0
 40
4.8
  1
VY5303A0031
 41
0.855
  7
CONVERTER_2
100
AcDbText
  0
ENDSEC
  0
SECTION
  2
OBJECTS
  0
DICTIONARY
  5
C
330
0
100
AcDbDictionary
281
     1
  3
ACAD_GROUP
350
D
  3
ACAD_LAYOUT
350
1A
  3
ACAD_MLINESTYLE
350
17
  3
ACAD_PLOTSETTINGS
350
19
  3
ACAD_PLOTSTYLENAME
350
E
  0
DICTIONARY
  5
D
102
{ACAD_REACTORS
330
C
102
}
330
C
100
AcDbDictionary
281
     1
  0
DICTIONARY
  5
1A
102
{ACAD_REACTORS
330
C
102
}
330
C
100
AcDbDictionary
281
     1
  3
Layout1
350
1E
  3
Layout2
350
26
  3
Model
350
22
  0
DICTIONARY
  5
17
102
{ACAD_REACTORS
330
C
102
}
330
C
100
AcDbDictionary
281
     1
  3
Standard
350
18
  0
DICTIONARY
  5
19
102
{ACAD_REACTORS
330
C
102
}
330
C
100
AcDbDictionary
281
     1
  0
ACDBDICTIONARYWDFLT
  5
E
102
{ACAD_REACTORS
330
C
102
}
330
C
100
AcDbDictionary
281
     1
  3
Normal
350
F
100
AcDbDictionaryWithDefault
340
F
  0
LAYOUT
  5
1E
102
{ACAD_REACTORS
330
1A
102
}
330
1A
100
AcDbPlotSettings
  1

  2

  4

  6

 40
0.0
 41
0.0
 42
0.0
 43
0.0
 44
0.0
 45
0.0
 46
0.0
 47
0.0
 48
0.0
 49
0.0
140
0.0
141
0.0
142
1.0
143
1.0
 70
   688
 72
     0
 73
     0
 74
     5
  7

 75
    16
147
1.0
148
0.0
149
0.0
100
AcDbLayout
  1
Layout1
 70
     1
 71
     1
 10
0.0
 20
0.0
 11
0.0
 21
0.0
 12
0.0
 22
0.0
 32
0.0
 14
0.0
 24
0.0
 34
0.0
 15
0.0
 25
0.0
 35
0.0
146
0.0
 13
0.0
 23
0.0
 33
0.0
 16
1.0
 26
0.0
 36
0.0
 17
0.0
 27
1.0
 37
0.0
 76
     0
330
1B
  0
LAYOUT
  5
26
102
{ACAD_REACTORS
330
1A
102
}
330
1A
100
AcDbPlotSettings
  1

  2

  4

  6

 40
0.0
 41
0.0
 42
0.0
 43
0.0
 44
0.0
 45
0.0
 46
0.0
 47
0.0
 48
0.0
 49
0.0
140
0.0
141
0.0
142
1.0
143
1.0
 70
   688
 72
     0
 73
     0
 74
     5
  7

 75
    16
147
1.0
148
0.0
149
0.0
100
AcDbLayout
  1
Layout2
 70
     1
 71
     2
 10
0.0
 20
0.0
 11
0.0
 21
0.0
 12
0.0
 22
0.0
 32
0.0
 14
0.0
 24
0.0
 34
0.0
 15
0.0
 25
0.0
 35
0.0
146
0.0
 13
0.0
 23
0.0
 33
0.0
 16
1.0
 26
0.0
 36
0.0
 17
0.0
 27
1.0
 37
0.0
 76
     0
330
23
  0
LAYOUT
  5
22
102
{ACAD_REACTORS
330
1A
102
}
330
1A
100
AcDbPlotSettings
  1

  2

  4

  6

 40
0.0
 41
0.0
 42
0.0
 43
0.0
 44
0.0
 45
0.0
 46
0.0
 47
0.0
 48
0.0
 49
0.0
140
0.0
141
0.0
142
1.0
143
1.0
 70
  1712
 72
     0
 73
     0
 74
     0
  7

 75
     0
147
1.0
148
0.0
149
0.0
100
AcDbLayout
  1
Model
 70
     1
 71
     0
 10
0.0
 20
0.0
 11
0.0
 21
0.0
 12
0.0
 22
0.0
 32
0.0
 14
327.7126502562237
 24
-970.2899458213511
 34
0.0
 15
743.6424926998068
 25
-732.243120243643
 35
0.0
146
0.0
 13
0.0
 23
0.0
 33
0.0
 16
1.0
 26
0.0
 36
0.0
 17
0.0
 27
1.0
 37
0.0
 76
     0
330
1F
  0
MLINESTYLE
  5
18
102
{ACAD_REACTORS
330
17
102
}
330
17
100
AcDbMlineStyle
  2
Standard
 70
     0
  3

 62
   256
 51
90.0
 52
90.0
 71
     2
 49
0.5
 62
   256
  6
BYLAYER
 49
-0.5
 62
   256
  6
BYLAYER
  0
ACDBPLACEHOLDER
  5
F
102
{ACAD_REACTORS
330
E
102
}
330
E
  0
ENDSEC
  0
EOF
