  0
SECTION
  2
HEADER
  9
$ACADVER
  1
AC1015
  9
$ACADMAINTVER
 70
     6
  9
$DWGCODEPAGE
  3
ANSI_1252
  9
$INSBASE
 10
0.0
 20
0.0
 30
0.0
  9
$EXTMIN
 10
1599.947773299545
 20
-407.5356070182148
 30
0.0
  9
$EXTMAX
 10
2141.65730968565
 20
-133.616905327916
 30
0.0
  9
$LIMMIN
 10
0.0
 20
0.0
  9
$LIMMAX
 10
12.0
 20
9.0
  9
$ORTHOMODE
 70
     0
  9
$REGENMODE
 70
     1
  9
$FILLMODE
 70
     1
  9
$QTEXTMODE
 70
     0
  9
$MIRRTEXT
 70
     1
  9
$LTSCALE
 40
1.0
  9
$ATTMODE
 70
     1
  9
$TEXTSIZE
 40
0.2
  9
$TRACEWID
 40
0.05
  9
$TEXTSTYLE
  7
Standard
  9
$CLAYER
  8
0
  9
$CELTYPE
  6
ByLayer
  9
$CECOLOR
 62
   256
  9
$CELTSCALE
 40
1.0
  9
$DISPSILH
 70
     0
  9
$DIMSCALE
 40
1.0
  9
$DIMASZ
 40
0.18
  9
$DIMEXO
 40
0.0625
  9
$DIMDLI
 40
0.38
  9
$DIMRND
 40
0.0
  9
$DIMDLE
 40
0.0
  9
$DIMEXE
 40
0.18
  9
$DIMTP
 40
0.0
  9
$DIMTM
 40
0.0
  9
$DIMTXT
 40
0.18
  9
$DIMCEN
 40
0.09
  9
$DIMTSZ
 40
0.0
  9
$DIMTOL
 70
     0
  9
$DIMLIM
 70
     0
  9
$DIMTIH
 70
     1
  9
$DIMTOH
 70
     1
  9
$DIMSE1
 70
     0
  9
$DIMSE2
 70
     0
  9
$DIMTAD
 70
     0
  9
$DIMZIN
 70
     0
  9
$DIMBLK
  1

  9
$DIMASO
 70
     1
  9
$DIMSHO
 70
     1
  9
$DIMPOST
  1

  9
$DIMAPOST
  1

  9
$DIMALT
 70
     0
  9
$DIMALTD
 70
     2
  9
$DIMALTF
 40
25.4
  9
$DIMLFAC
 40
1.0
  9
$DIMTOFL
 70
     0
  9
$DIMTVP
 40
0.0
  9
$DIMTIX
 70
     0
  9
$DIMSOXD
 70
     0
  9
$DIMSAH
 70
     0
  9
$DIMBLK1
  1

  9
$DIMBLK2
  1

  9
$DIMSTYLE
  2
Standard
  9
$DIMCLRD
 70
     0
  9
$DIMCLRE
 70
     0
  9
$DIMCLRT
 70
     0
  9
$DIMTFAC
 40
1.0
  9
$DIMGAP
 40
0.09
  9
$DIMJUST
 70
     0
  9
$DIMSD1
 70
     0
  9
$DIMSD2
 70
     0
  9
$DIMTOLJ
 70
     1
  9
$DIMTZIN
 70
     0
  9
$DIMALTZ
 70
     0
  9
$DIMALTTZ
 70
     0
  9
$DIMUPT
 70
     0
  9
$DIMDEC
 70
     4
  9
$DIMTDEC
 70
     4
  9
$DIMALTU
 70
     2
  9
$DIMALTTD
 70
     2
  9
$DIMTXSTY
  7
Standard
  9
$DIMAUNIT
 70
     0
  9
$DIMADEC
 70
     0
  9
$DIMALTRND
 40
0.0
  9
$DIMAZIN
 70
     0
  9
$DIMDSEP
 70
    46
  9
$DIMATFIT
 70
     3
  9
$DIMFRAC
 70
     0
  9
$DIMLDRBLK
  1

  9
$DIMLUNIT
 70
     2
  9
$DIMLWD
 70
    -2
  9
$DIMLWE
 70
    -2
  9
$DIMTMOVE
 70
     0
  9
$LUNITS
 70
     2
  9
$LUPREC
 70
     4
  9
$SKETCHINC
 40
0.1
  9
$FILLETRAD
 40
0.5
  9
$AUNITS
 70
     0
  9
$AUPREC
 70
     0
  9
$MENU
  1
.
  9
$ELEVATION
 40
0.0
  9
$PELEVATION
 40
0.0
  9
$THICKNESS
 40
0.0
  9
$LIMCHECK
 70
     0
  9
$CHAMFERA
 40
0.5
  9
$CHAMFERB
 40
0.5
  9
$CHAMFERC
 40
1.0
  9
$CHAMFERD
 40
0.0
  9
$SKPOLY
 70
     0
  9
$TDCREATE
 40
2455093.620045382
  9
$TDUCREATE
 40
2455093.245045382
  9
$TDUPDATE
 40
2455093.620045394
  9
$TDUUPDATE
 40
2455093.245045394
  9
$TDINDWG
 40
0.0000000116
  9
$TDUSRTIMER
 40
0.0000000116
  9
$USRTIMER
 70
     1
  9
$ANGBASE
 50
0.0
  9
$ANGDIR
 70
     0
  9
$PDMODE
 70
     0
  9
$PDSIZE
 40
0.0
  9
$PLINEWID
 40
0.0
  9
$SPLFRAME
 70
     0
  9
$SPLINETYPE
 70
     6
  9
$SPLINESEGS
 70
     8
  9
$HANDSEED
  5
601
  9
$SURFTAB1
 70
     6
  9
$SURFTAB2
 70
     6
  9
$SURFTYPE
 70
     6
  9
$SURFU
 70
     6
  9
$SURFV
 70
     6
  9
$UCSBASE
  2

  9
$UCSNAME
  2

  9
$UCSORG
 10
0.0
 20
0.0
 30
0.0
  9
$UCSXDIR
 10
1.0
 20
0.0
 30
0.0
  9
$UCSYDIR
 10
0.0
 20
1.0
 30
0.0
  9
$UCSORTHOREF
  2

  9
$UCSORTHOVIEW
 70
     0
  9
$UCSORGTOP
 10
0.0
 20
0.0
 30
0.0
  9
$UCSORGBOTTOM
 10
0.0
 20
0.0
 30
0.0
  9
$UCSORGLEFT
 10
0.0
 20
0.0
 30
0.0
  9
$UCSORGRIGHT
 10
0.0
 20
0.0
 30
0.0
  9
$UCSORGFRONT
 10
0.0
 20
0.0
 30
0.0
  9
$UCSORGBACK
 10
0.0
 20
0.0
 30
0.0
  9
$PUCSBASE
  2

  9
$PUCSNAME
  2

  9
$PUCSORG
 10
0.0
 20
0.0
 30
0.0
  9
$PUCSXDIR
 10
1.0
 20
0.0
 30
0.0
  9
$PUCSYDIR
 10
0.0
 20
1.0
 30
0.0
  9
$PUCSORTHOREF
  2

  9
$PUCSORTHOVIEW
 70
     0
  9
$PUCSORGTOP
 10
0.0
 20
0.0
 30
0.0
  9
$PUCSORGBOTTOM
 10
0.0
 20
0.0
 30
0.0
  9
$PUCSORGLEFT
 10
0.0
 20
0.0
 30
0.0
  9
$PUCSORGRIGHT
 10
0.0
 20
0.0
 30
0.0
  9
$PUCSORGFRONT
 10
0.0
 20
0.0
 30
0.0
  9
$PUCSORGBACK
 10
0.0
 20
0.0
 30
0.0
  9
$USERI1
 70
     0
  9
$USERI2
 70
     0
  9
$USERI3
 70
     0
  9
$USERI4
 70
     0
  9
$USERI5
 70
     0
  9
$USERR1
 40
14.0
  9
$USERR2
 40
0.0
  9
$USERR3
 40
0.0
  9
$USERR4
 40
0.0
  9
$USERR5
 40
0.0
  9
$WORLDVIEW
 70
     1
  9
$SHADEDGE
 70
     3
  9
$SHADEDIF
 70
    70
  9
$TILEMODE
 70
     1
  9
$MAXACTVP
 70
    64
  9
$PINSBASE
 10
0.0
 20
0.0
 30
0.0
  9
$PLIMCHECK
 70
     0
  9
$PEXTMIN
 10
1.00000000000000E+20
 20
1.00000000000000E+20
 30
1.00000000000000E+20
  9
$PEXTMAX
 10
-1.00000000000000E+20
 20
-1.00000000000000E+20
 30
-1.00000000000000E+20
  9
$PLIMMIN
 10
0.0
 20
0.0
  9
$PLIMMAX
 10
12.0
 20
9.0
  9
$UNITMODE
 70
     0
  9
$VISRETAIN
 70
     1
  9
$PLINEGEN
 70
     0
  9
$PSLTSCALE
 70
     1
  9
$TREEDEPTH
 70
  3020
  9
$CMLSTYLE
  2
Standard
  9
$CMLJUST
 70
     0
  9
$CMLSCALE
 40
1.0
  9
$PROXYGRAPHICS
 70
     1
  9
$MEASUREMENT
 70
     1
  9
$CELWEIGHT
370
    -1
  9
$ENDCAPS
280
     0
  9
$JOINSTYLE
280
     0
  9
$LWDISPLAY
290
     0
  9
$INSUNITS
 70
     1
  9
$HYPERLINKBASE
  1

  9
$STYLESHEET
  1

  9
$XEDIT
290
     1
  9
$CEPSNTYPE
380
     0
  9
$PSTYLEMODE
290
     1
  9
$FINGERPRINTGUID
  2
{5317DFAD-C3A4-42A4-8808-4944D1FF57F6}
  9
$VERSIONGUID
  2
{FAEB1C32-E019-11D5-929B-00C0DF256EC4}
  9
$EXTNAMES
290
     1
  9
$PSVPSCALE
 40
0.0
  9
$OLESTARTUP
290
     0
  0
ENDSEC
  0
SECTION
  2
CLASSES
  0
CLASS
  1
ACDBDICTIONARYWDFLT
  2
AcDbDictionaryWithDefault
  3
ObjectDBX Classes
 90
        0
280
     0
281
     0
  0
CLASS
  1

  2
exOdDbCircle
  3

 90
        0
280
     0
281
     1
  0
CLASS
  1

  2
exOdDbSpline
  3

 90
        0
280
     0
281
     1
  0
CLASS
  1
ACDBPLACEHOLDER
  2
AcDbPlaceHolder
  3
ObjectDBX Classes
 90
        0
280
     0
281
     0
  0
CLASS
  1
LAYOUT
  2
AcDbLayout
  3
ObjectDBX Classes
 90
        0
280
     0
281
     0
  0
ENDSEC
  0
SECTION
  2
TABLES
  0
TABLE
  2
VPORT
  5
8
330
0
100
AcDbSymbolTable
 70
     1
  0
VPORT
  5
29
330
8
100
AcDbSymbolTableRecord
100
AcDbViewportTableRecord
  2
*Active
 70
     0
 10
0.0
 20
0.0
 11
1.0
 21
1.0
 12
1870.802541492597
 22
-270.5762561730654
 13
0.0
 23
0.0
 14
0.5
 24
0.5
 15
0.5
 25
0.5
 16
0.0
 26
0.0
 36
1.0
 17
0.0
 27
0.0
 37
0.0
 40
371.8028684276779
 41
1.60267857142857
 42
50.0
 43
0.0
 44
0.0
 50
0.0
 51
0.0
 71
     0
 72
   100
 73
     1
 74
     3
 75
     0
 76
     0
 77
     0
 78
     0
281
     0
 65
     1
110
0.0
120
0.0
130
0.0
111
1.0
121
0.0
131
0.0
112
0.0
122
1.0
132
0.0
 79
     0
146
0.0
  0
ENDTAB
  0
TABLE
  2
LTYPE
  5
5
330
0
100
AcDbSymbolTable
 70
     8
  0
LTYPE
  5
14
330
5
100
AcDbSymbolTableRecord
100
AcDbLinetypeTableRecord
  2
ByBlock
 70
     0
  3

 72
    65
 73
     0
 40
0.0
  0
LTYPE
  5
15
330
5
100
AcDbSymbolTableRecord
100
AcDbLinetypeTableRecord
  2
ByLayer
 70
     0
  3

 72
    65
 73
     0
 40
0.0
  0
LTYPE
  5
16
330
5
100
AcDbSymbolTableRecord
100
AcDbLinetypeTableRecord
  2
Continuous
 70
     0
  3
Solid line
 72
    65
 73
     0
 40
0.0
  0
LTYPE
  5
2A
330
5
100
AcDbSymbolTableRecord
100
AcDbLinetypeTableRecord
  2
DASHED
 70
     0
  3
Dashed
 72
    65
 73
     2
 40
15.0
 49
7.0
 74
     0
 49
-8.0
 74
     0
  0
LTYPE
  5
2B
330
5
100
AcDbSymbolTableRecord
100
AcDbLinetypeTableRecord
  2
DOTTED
 70
     0
  3
Dotted
 72
    65
 73
     2
 40
1.0
 49
0.0
 74
     0
 49
-1.0
 74
     0
  0
LTYPE
  5
2C
330
5
100
AcDbSymbolTableRecord
100
AcDbLinetypeTableRecord
  2
DOT_CENTER
 70
     0
  3
Dot_Center
 72
    65
 73
     4
 40
14.0
 49
12.0
 74
     0
 49
-1.0
 74
     0
 49
0.0
 74
     0
 49
-1.0
 74
     0
  0
LTYPE
  5
2D
330
5
100
AcDbSymbolTableRecord
100
AcDbLinetypeTableRecord
  2
LONG_DASHED
 70
     0
  3
Long_Dashed
 72
    65
 73
     2
 40
15.0
 49
10.0
 74
     0
 49
-5.0
 74
     0
  0
LTYPE
  5
2E
330
5
100
AcDbSymbolTableRecord
100
AcDbLinetypeTableRecord
  2
DASH_CENTER
 70
     0
  3
Dash_Center
 72
    65
 73
     4
 40
14.0
 49
11.0
 74
     0
 49
-1.0
 74
     0
 49
1.0
 74
     0
 49
-1.0
 74
     0
  0
LTYPE
  5
2F
330
5
100
AcDbSymbolTableRecord
100
AcDbLinetypeTableRecord
  2
PHANTOM
 70
     0
  3
Phantom
 72
    65
 73
     6
 40
13.0
 49
10.0
 74
     0
 49
-1.0
 74
     0
 49
0.0
 74
     0
 49
-1.0
 74
     0
 49
0.0
 74
     0
 49
-1.0
 74
     0
  0
LTYPE
  5
30
330
5
100
AcDbSymbolTableRecord
100
AcDbLinetypeTableRecord
  2
CENTER_DASH_DASH
 70
     0
  3
Center_Dash_Dash
 72
    65
 73
     6
 40
14.0
 49
9.0
 74
     0
 49
-1.0
 74
     0
 49
1.0
 74
     0
 49
-1.0
 74
     0
 49
1.0
 74
     0
 49
-1.0
 74
     0
  0
ENDTAB
  0
TABLE
  2
LAYER
  5
2
330
0
100
AcDbSymbolTable
 70
     2
  0
LAYER
  5
10
330
2
100
AcDbSymbolTableRecord
100
AcDbLayerTableRecord
  2
0
 70
     0
 62
     7
  6
Continuous
370
    -3
390
F
  0
LAYER
  5
31
330
2
100
AcDbSymbolTableRecord
100
AcDbLayerTableRecord
  2
1
 70
     0
 62
     7
  6
Continuous
370
    -3
390
F
  0
ENDTAB
  0
TABLE
  2
STYLE
  5
3
330
0
100
AcDbSymbolTable
 70
     4
  0
STYLE
  5
11
330
3
100
AcDbSymbolTableRecord
100
AcDbTextStyleTableRecord
  2
Standard
 70
     0
 40
0.0
 41
1.0
 50
0.0
 71
     0
 42
0.2
  3
txt
  4

  0
STYLE
  5
173
330
3
100
AcDbSymbolTableRecord
100
AcDbTextStyleTableRecord
  2
CONVERTER_1
 70
     0
 40
0.0
 41
1.045
 50
0.0
 71
     0
 42
0.2
  3
complex.shx
  4

  0
STYLE
  5
2C3
330
3
100
AcDbSymbolTableRecord
100
AcDbTextStyleTableRecord
  2
CONVERTER_2
 70
     0
 40
0.0
 41
0.9
 50
0.0
 71
     0
 42
0.2
  3
txt.shx
  4

  0
STYLE
  5
5A5
330
3
100
AcDbSymbolTableRecord
100
AcDbTextStyleTableRecord
  2
CONVERTER_3
 70
     0
 40
0.0
 41
1.08
 50
0.0
 71
     0
 42
0.2
  3
txt.shx
  4

  0
ENDTAB
  0
TABLE
  2
VIEW
  5
6
330
0
100
AcDbSymbolTable
 70
     0
  0
ENDTAB
  0
TABLE
  2
UCS
  5
7
330
0
100
AcDbSymbolTable
 70
     0
  0
ENDTAB
  0
TABLE
  2
APPID
  5
9
330
0
100
AcDbSymbolTable
 70
     1
  0
APPID
  5
12
330
9
100
AcDbSymbolTableRecord
100
AcDbRegAppTableRecord
  2
ACAD
 70
     0
  0
ENDTAB
  0
TABLE
  2
DIMSTYLE
  5
A
330
0
100
AcDbSymbolTable
 70
     1
100
AcDbDimStyleTable
  0
DIMSTYLE
105
27
330
A
100
AcDbSymbolTableRecord
100
AcDbDimStyleTableRecord
  2
Standard
 70
     0
340
11
  0
ENDTAB
  0
TABLE
  2
BLOCK_RECORD
  5
1
330
0
100
AcDbSymbolTable
 70
    14
  0
BLOCK_RECORD
  5
1F
330
1
100
AcDbSymbolTableRecord
100
AcDbBlockTableRecord
  2
*Model_Space
340
22
  0
BLOCK_RECORD
  5
1B
330
1
100
AcDbSymbolTableRecord
100
AcDbBlockTableRecord
  2
*Paper_Space
340
1E
  0
BLOCK_RECORD
  5
23
330
1
100
AcDbSymbolTableRecord
100
AcDbBlockTableRecord
  2
*Paper_Space0
340
26
  0
BLOCK_RECORD
  5
32
330
1
100
AcDbSymbolTableRecord
100
AcDbBlockTableRecord
  2
1
340
0
102
{BLKREFS
331
60
102
}
  0
BLOCK_RECORD
  5
35
330
1
100
AcDbSymbolTableRecord
100
AcDbBlockTableRecord
  2
7
340
0
102
{BLKREFS
331
61
102
}
  0
BLOCK_RECORD
  5
38
330
1
100
AcDbSymbolTableRecord
100
AcDbBlockTableRecord
  2
3
340
0
102
{BLKREFS
331
62
102
}
  0
BLOCK_RECORD
  5
3B
330
1
100
AcDbSymbolTableRecord
100
AcDbBlockTableRecord
  2
2-2
340
0
102
{BLKREFS
331
51
102
}
  0
BLOCK_RECORD
  5
3E
330
1
100
AcDbSymbolTableRecord
100
AcDbBlockTableRecord
  2
2-8
340
0
102
{BLKREFS
331
52
102
}
  0
BLOCK_RECORD
  5
41
330
1
100
AcDbSymbolTableRecord
100
AcDbBlockTableRecord
  2
2-7
340
0
102
{BLKREFS
331
53
102
}
  0
BLOCK_RECORD
  5
44
330
1
100
AcDbSymbolTableRecord
100
AcDbBlockTableRecord
  2
2-5
340
0
102
{BLKREFS
331
54
102
}
  0
BLOCK_RECORD
  5
47
330
1
100
AcDbSymbolTableRecord
100
AcDbBlockTableRecord
  2
2-1
340
0
102
{BLKREFS
331
55
102
}
  0
BLOCK_RECORD
  5
4A
330
1
100
AcDbSymbolTableRecord
100
AcDbBlockTableRecord
  2
2-6
340
0
102
{BLKREFS
331
56
102
}
  0
BLOCK_RECORD
  5
4D
330
1
100
AcDbSymbolTableRecord
100
AcDbBlockTableRecord
  2
2-4
340
0
102
{BLKREFS
331
57
102
}
  0
BLOCK_RECORD
  5
50
330
1
100
AcDbSymbolTableRecord
100
AcDbBlockTableRecord
  2
2
340
0
102
{BLKREFS
331
63
102
}
  0
BLOCK_RECORD
  5
5A
330
1
100
AcDbSymbolTableRecord
100
AcDbBlockTableRecord
  2
_3
340
0
102
{BLKREFS
331
64
102
}
  0
BLOCK_RECORD
  5
5D
330
1
100
AcDbSymbolTableRecord
100
AcDbBlockTableRecord
  2
_4
340
0
102
{BLKREFS
331
65
102
}
  0
ENDTAB
  0
ENDSEC
  0
SECTION
  2
BLOCKS
  0
BLOCK
  5
20
330
1F
100
AcDbEntity
  8
0
100
AcDbBlockBegin
  2
*Model_Space
 70
     0
 71
     0
 10
0.0
 20
0.0
 30
0.0
  3
*Model_Space
  1

  0
ENDBLK
  5
21
330
1F
100
AcDbEntity
  8
0
100
AcDbBlockEnd
  0
BLOCK
  5
1C
330
1B
100
AcDbEntity
 67
     1
  8
0
100
AcDbBlockBegin
  2
*Paper_Space
 70
     0
 71
     0
 10
0.0
 20
0.0
 30
0.0
  3
*Paper_Space
  1

  0
ENDBLK
  5
1D
330
1B
100
AcDbEntity
 67
     1
  8
0
100
AcDbBlockEnd
  0
BLOCK
  5
24
330
23
100
AcDbEntity
  8
0
100
AcDbBlockBegin
  2
*Paper_Space0
 70
     0
 71
     0
 10
0.0
 20
0.0
 30
0.0
  3
*Paper_Space0
  1

  0
ENDBLK
  5
25
330
23
100
AcDbEntity
  8
0
100
AcDbBlockEnd
  0
BLOCK
  5
33
330
32
100
AcDbEntity
  8
0
100
AcDbBlockBegin
  2
1
 70
     0
 71
     0
 10
1612.947773299545
 20
-397.166476434231
 30
0.0
  3
1
  1

  0
LINE
  5
66
330
32
100
AcDbEntity
  8
1
  6
Continuous
 62
     1
100
AcDbLine
 10
2032.727232492802
 20
-370.4901070182146
 30
0.0
 11
2030.342160938555
 21
-370.4901070182146
 31
0.0
  0
LINE
  5
67
330
32
100
AcDbEntity
  8
1
  6
Continuous
 62
     3
100
AcDbLine
 10
2032.242160938555
 20
-369.0111070182148
 30
0.0
 11
2030.342160938555
 21
-369.0111070182148
 31
0.0
  0
LINE
  5
68
330
32
100
AcDbEntity
  8
1
  6
Continuous
 62
     3
100
AcDbLine
 10
2087.242160938555
 20
-403.1356070182147
 30
0.0
 11
2087.242160938555
 21
-392.3247178857592
 31
0.0
  0
LINE
  5
69
330
32
100
AcDbEntity
  8
1
  6
Continuous
 62
     3
100
AcDbLine
 10
2075.164810669366
 20
-378.94649615067
 30
0.0
 11
2075.164810669366
 21
-392.3247178857592
 31
0.0
  0
LINE
  5
6A
330
32
100
AcDbEntity
  8
1
  6
Continuous
 62
     3
100
AcDbLine
 10
2077.942160938555
 20
-397.739236729033
 30
0.0
 11
2087.242160938555
 21
-397.739236729033
 31
0.0
  0
LINE
  5
6B
330
32
100
AcDbEntity
  8
1
  6
Continuous
 62
     3
100
AcDbLine
 10
2087.242160938555
 20
-392.3247178857592
 30
0.0
 11
2087.242160938555
 21
-378.94649615067
 31
0.0
  0
LINE
  5
6C
330
32
100
AcDbEntity
  8
1
  6
Continuous
 62
     3
100
AcDbLine
 10
2075.164810669366
 20
-369.1356070182147
 30
0.0
 11
2075.164810669366
 21
-378.94649615067
 31
0.0
  0
LINE
  5
6D
330
32
100
AcDbEntity
  8
1
  6
Continuous
 62
     3
100
AcDbLine
 10
2077.942160938555
 20
-373.5319773073962
 30
0.0
 11
2087.242160938555
 21
-373.5319773073962
 31
0.0
  0
LINE
  5
6E
330
32
100
AcDbEntity
  8
1
  6
Continuous
 62
     3
100
AcDbLine
 10
2088.242160938555
 20
-396.739236729033
 30
0.0
 11
2087.242160938555
 21
-397.739236729033
 31
0.0
  0
LINE
  5
6F
330
32
100
AcDbEntity
  8
1
  6
Continuous
 62
     3
100
AcDbLine
 10
2088.242160938555
 20
-374.5319773073962
 30
0.0
 11
2087.242160938555
 21
-373.5319773073962
 31
0.0
  0
LINE
  5
70
330
32
100
AcDbEntity
  8
1
  6
DASH_CENTER
 62
     1
100
AcDbLine
 10
2054.842160938555
 20
-405.7980818558272
 30
0.0
 11
2054.842160938555
 21
-370.7505805010231
 31
0.0
  0
LINE
  5
71
330
32
100
AcDbEntity
  8
1
  6
Continuous
 62
     3
100
AcDbLine
 10
2087.242160938555
 20
-378.94649615067
 30
0.0
 11
2087.242160938555
 21
-368.1356070182147
 31
0.0
  0
LINE
  5
72
330
32
100
AcDbEntity
  8
1
  6
Continuous
 62
     3
100
AcDbLine
 10
2075.164810669366
 20
-392.3247178857592
 30
0.0
 11
2075.164810669366
 21
-402.1356070182147
 31
0.0
  0
LINE
  5
73
330
32
100
AcDbEntity
  8
1
  6
Continuous
 62
     3
100
AcDbLine
 10
2044.342160938555
 20
-338.6356070182147
 30
0.0
 11
2065.342160938555
 21
-338.6356070182146
 31
0.0
  0
LINE
  5
74
330
32
100
AcDbEntity
  8
1
  6
Continuous
 62
     3
100
AcDbLine
 10
2066.842160938555
 20
-340.6356070182147
 30
0.0
 11
2066.842160938555
 21
-337.1356070182146
 31
0.0
  0
LINE
  5
75
330
32
100
AcDbEntity
  8
1
  6
Continuous
 62
     3
100
AcDbLine
 10
2042.842160938555
 20
-335.1356070182147
 30
0.0
 11
2042.842160938555
 21
-337.1356070182147
 31
0.0
  0
LINE
  5
76
330
32
100
AcDbEntity
  8
1
  6
Continuous
 62
     3
100
AcDbLine
 10
2042.842160938555
 20
-337.1356070182147
 30
0.0
 11
2042.842160938555
 21
-340.6356070182147
 31
0.0
  0
LINE
  5
77
330
32
100
AcDbEntity
  8
1
  6
Continuous
 62
     3
100
AcDbLine
 10
2045.842160938555
 20
-343.6356070182147
 30
0.0
 11
2043.842160938555
 21
-343.6356070182147
 31
0.0
  0
LINE
  5
78
330
32
100
AcDbEntity
  8
1
  6
Continuous
 62
     3
100
AcDbLine
 10
2040.842160938555
 20
-340.6356070182147
 30
0.0
 11
2040.842160938555
 21
-335.1356070182147
 31
0.0
  0
LINE
  5
79
330
32
100
AcDbEntity
  8
1
  6
Continuous
 62
     3
100
AcDbLine
 10
2059.342160938555
 20
-343.6356070182147
 30
0.0
 11
2061.484306908991
 21
-343.6356070182147
 31
0.0
  0
LINE
  5
7A
330
32
100
AcDbEntity
  8
1
  6
Continuous
 62
     3
100
AcDbLine
 10
2075.742160938555
 20
-368.1356070182147
 30
0.0
 11
2087.242160938555
 21
-368.1356070182147
 31
0.0
  0
LINE
  5
7B
330
32
100
AcDbEntity
  8
1
  6
Continuous
 62
     3
100
AcDbLine
 10
2075.742160938555
 20
-403.1356070182147
 30
0.0
 11
2087.242160938555
 21
-403.1356070182147
 31
0.0
  0
LINE
  5
7C
330
32
100
AcDbEntity
  8
1
  6
Continuous
 62
     3
100
AcDbLine
 10
2045.842160938555
 20
-343.6356070182147
 30
0.0
 11
2046.342160938555
 21
-343.6356070182147
 31
0.0
  0
LINE
  5
7D
330
32
100
AcDbEntity
  8
1
  6
Continuous
 62
     3
100
AcDbLine
 10
2063.342160938555
 20
-343.6356070182147
 30
0.0
 11
2063.842160938555
 21
-343.6356070182147
 31
0.0
  0
LINE
  5
7E
330
32
100
AcDbEntity
  8
1
  6
Continuous
 62
     3
100
AcDbLine
 10
2066.842160938555
 20
-337.1356070182146
 30
0.0
 11
2066.842160938555
 21
-335.1356070182147
 31
0.0
  0
LINE
  5
7F
330
32
100
AcDbEntity
  8
1
  6
Continuous
 62
     3
100
AcDbLine
 10
2061.842160938555
 20
-364.1356070182147
 30
0.0
 11
2061.842160938555
 21
-345.1356070182147
 31
0.0
  0
LINE
  5
80
330
32
100
AcDbEntity
  8
1
  6
Continuous
 62
     3
100
AcDbLine
 10
2047.842160938555
 20
-365.8856070182147
 30
0.0
 11
2047.842160938555
 21
-345.1356070182147
 31
0.0
  0
LINE
  5
81
330
32
100
AcDbEntity
  8
1
  6
Continuous
 62
     3
100
AcDbLine
 10
2042.842160938555
 20
-370.8856070182147
 30
0.0
 11
2033.742160938555
 21
-370.8856070182147
 31
0.0
  0
LINE
  5
82
330
32
100
AcDbEntity
  8
1
  6
Continuous
 62
     3
100
AcDbLine
 10
2059.245838204572
 20
-400.3856070182147
 30
0.0
 11
2033.742160938555
 21
-400.3856070182147
 31
0.0
  0
LINE
  5
83
330
32
100
AcDbEntity
  8
1
  6
Continuous
 62
     3
100
AcDbLine
 10
2075.164810669366
 20
-402.1356070182147
 30
0.0
 11
2075.742160938555
 21
-403.1356070182147
 31
0.0
  0
LINE
  5
84
330
32
100
AcDbEntity
  8
1
  6
Continuous
 62
     3
100
AcDbLine
 10
2067.742160938555
 20
-402.1356070182147
 30
0.0
 11
2075.164810669366
 21
-402.1356070182147
 31
0.0
  0
LINE
  5
85
330
32
100
AcDbEntity
  8
1
  6
Continuous
 62
     3
100
AcDbLine
 10
2075.164810669366
 20
-369.1356070182147
 30
0.0
 11
2066.842160938555
 21
-369.1356070182147
 31
0.0
  0
LINE
  5
86
330
32
100
AcDbEntity
  8
1
  6
Continuous
 62
     3
100
AcDbLine
 10
2075.742160938555
 20
-368.1356070182147
 30
0.0
 11
2075.164810669366
 21
-369.1356070182147
 31
0.0
  0
LINE
  5
87
330
32
100
AcDbEntity
  8
1
  6
Continuous
 62
     3
100
AcDbLine
 10
2088.242160938555
 20
-369.1356070182147
 30
0.0
 11
2087.242160938555
 21
-368.1356070182147
 31
0.0
  0
LINE
  5
88
330
32
100
AcDbEntity
  8
1
  6
Continuous
 62
     3
100
AcDbLine
 10
2088.242160938555
 20
-402.1356070182147
 30
0.0
 11
2087.242160938555
 21
-403.1356070182147
 31
0.0
  0
LINE
  5
89
330
32
100
AcDbEntity
  8
1
  6
Continuous
 62
     3
100
AcDbLine
 10
2088.242160938555
 20
-402.1356070182147
 30
0.0
 11
2088.242160938555
 21
-369.1356070182147
 31
0.0
  0
LINE
  5
8A
330
32
100
AcDbEntity
  8
1
  6
DASH_CENTER
 62
     1
100
AcDbLine
 10
2014.626566996651
 20
-385.6356070182147
 30
0.0
 11
2094.858297487477
 21
-385.6356070182147
 31
0.0
  0
LINE
  5
8B
330
32
100
AcDbEntity
  8
1
  6
DASH_CENTER
 62
     1
100
AcDbLine
 10
2054.842160938555
 20
-370.7505805010231
 30
0.0
 11
2054.842160938555
 21
-328.9144784658307
 31
0.0
  0
LINE
  5
8C
330
32
100
AcDbEntity
  8
1
  6
Continuous
 62
     3
100
AcDbLine
 10
2040.927947376183
 20
-334.6356070182147
 30
0.0
 11
2066.756374500929
 21
-334.6356070182147
 31
0.0
  0
LINE
  5
8D
330
32
100
AcDbEntity
  8
1
  6
Continuous
 62
     3
100
AcDbLine
 10
2032.242160938555
 20
-369.3856070182147
 30
0.0
 11
2032.242160938555
 21
-369.0111070182148
 31
0.0
  0
LINE
  5
8E
330
32
100
AcDbEntity
  8
1
  6
Continuous
 62
     1
100
AcDbLine
 10
2030.342160938555
 20
-400.7811070182147
 30
0.0
 11
2032.727232492802
 21
-400.7811070182147
 31
0.0
  0
LINE
  5
8F
330
32
100
AcDbEntity
  8
1
  6
Continuous
 62
     3
100
AcDbLine
 10
2030.342160938555
 20
-402.2601070182147
 30
0.0
 11
2032.242160938555
 21
-402.2601070182147
 31
0.0
  0
LINE
  5
90
330
32
100
AcDbEntity
  8
1
  6
Continuous
 62
     3
100
AcDbLine
 10
2032.242160938555
 20
-402.2601070182147
 30
0.0
 11
2032.242160938555
 21
-401.8856070182147
 31
0.0
  0
LINE
  5
91
330
32
100
AcDbEntity
  8
1
  6
Continuous
 62
     3
100
AcDbLine
 10
2032.242160938555
 20
-401.8856070182147
 30
0.0
 11
2032.242160938555
 21
-369.3856070182147
 31
0.0
  0
LINE
  5
92
330
32
100
AcDbEntity
  8
1
  6
Continuous
 62
     3
100
AcDbLine
 10
2047.32390957557
 20
-343.6356070182147
 30
0.0
 11
2050.342160938555
 21
-343.6356070182147
 31
0.0
  0
LINE
  5
93
330
32
100
AcDbEntity
  8
1
  6
Continuous
 62
     3
100
AcDbLine
 10
1653.447773299545
 20
-376.1093275765858
 30
0.0
 11
1641.368934974659
 21
-369.1356070182147
 31
0.0
  0
LINE
  5
94
330
32
100
AcDbEntity
  8
1
  6
Continuous
 62
     3
100
AcDbLine
 10
1653.447773299545
 20
-376.1093275765858
 30
0.0
 11
1654.447773299545
 21
-375.5319773073962
 31
0.0
  0
LINE
  5
95
330
32
100
AcDbEntity
  8
1
  6
Continuous
 62
     3
100
AcDbLine
 10
1653.447773299545
 20
-395.1618864598435
 30
0.0
 11
1653.447773299545
 21
-376.1093275765858
 31
0.0
  0
LINE
  5
96
330
32
100
AcDbEntity
  8
1
  6
Continuous
 62
     3
100
AcDbLine
 10
1641.368934974659
 20
-402.1356070182147
 30
0.0
 11
1653.447773299545
 21
-395.1618864598435
 31
0.0
  0
LINE
  5
97
330
32
100
AcDbEntity
  8
1
  6
Continuous
 62
     3
100
AcDbLine
 10
1632.526611624432
 20
-402.1356070182147
 30
0.0
 11
1641.368934974659
 21
-402.1356070182147
 31
0.0
  0
LINE
  5
98
330
32
100
AcDbEntity
  8
1
  6
Continuous
 62
     3
100
AcDbLine
 10
1620.447773299545
 20
-395.1618864598435
 30
0.0
 11
1632.526611624432
 21
-402.1356070182147
 31
0.0
  0
LINE
  5
99
330
32
100
AcDbEntity
  8
1
  6
Continuous
 62
     3
100
AcDbLine
 10
1620.447773299545
 20
-395.1618864598435
 30
0.0
 11
1619.447773299545
 21
-395.7392367290331
 31
0.0
  0
LINE
  5
9A
330
32
100
AcDbEntity
  8
1
  6
Continuous
 62
     3
100
AcDbLine
 10
1620.447773299545
 20
-376.1093275765859
 30
0.0
 11
1620.447773299545
 21
-395.1618864598435
 31
0.0
  0
LINE
  5
9B
330
32
100
AcDbEntity
  8
1
  6
Continuous
 62
     3
100
AcDbLine
 10
1620.447773299545
 20
-376.1093275765859
 30
0.0
 11
1619.447773299545
 21
-375.5319773073962
 31
0.0
  0
LINE
  5
9C
330
32
100
AcDbEntity
  8
1
  6
Continuous
 62
     3
100
AcDbLine
 10
1632.526611624432
 20
-369.1356070182147
 30
0.0
 11
1620.447773299545
 21
-376.1093275765859
 31
0.0
  0
LINE
  5
9D
330
32
100
AcDbEntity
  8
1
  6
Continuous
 62
     3
100
AcDbLine
 10
1641.368934974659
 20
-369.1356070182147
 30
0.0
 11
1641.63688416709
 21
-368.1356070182146
 31
0.0
  0
LINE
  5
9E
330
32
100
AcDbEntity
  8
1
  6
Continuous
 62
     3
100
AcDbLine
 10
1632.526611624432
 20
-369.1356070182147
 30
0.0
 11
1632.258662432001
 21
-368.1356070182146
 31
0.0
  0
LINE
  5
9F
330
32
100
AcDbEntity
  8
1
  6
Continuous
 62
     3
100
AcDbLine
 10
1641.368934974659
 20
-369.1356070182147
 30
0.0
 11
1632.526611624432
 21
-369.1356070182147
 31
0.0
  0
LINE
  5
A0
330
32
100
AcDbEntity
  8
1
  6
DASH_CENTER
 62
     1
100
AcDbLine
 10
1636.947773299545
 20
-372.5903252426436
 30
0.0
 11
1636.947773299545
 21
-373.622890035189
 31
0.0
  0
LINE
  5
A1
330
32
100
AcDbEntity
  8
1
  6
DASH_CENTER
 62
     1
100
AcDbLine
 10
1636.947773299545
 20
-373.622890035189
 30
0.0
 11
1636.947773299545
 21
-406.1283580653686
 31
0.0
  0
LINE
  5
A2
330
32
100
AcDbEntity
  8
1
  6
Continuous
 62
     3
100
AcDbLine
 10
1789.342160938555
 20
-343.6356070182147
 30
0.0
 11
1792.36041230154
 21
-343.6356070182147
 31
0.0
  0
LINE
  5
A3
330
32
100
AcDbEntity
  8
1
  6
DASHED
 62
     2
100
AcDbLine
 10
1815.342160938139
 20
-158.0157324546828
 30
0.0
 11
1807.442160938555
 21
-158.0157324546828
 31
0.0
  0
LINE
  5
A4
330
32
100
AcDbEntity
  8
1
  6
DASH_CENTER
 62
     1
100
AcDbLine
 10
1784.842160938139
 20
-133.616905327916
 30
0.0
 11
1784.842160938139
 21
-215.353191656468
 31
0.0
  0
LINE
  5
A5
330
32
100
AcDbEntity
  8
1
  6
DASH_CENTER
 62
     1
100
AcDbLine
 10
1822.090219815568
 20
-174.6402324546827
 30
0.0
 11
1702.842160938123
 21
-174.6402324546827
 31
0.0
  0
LINE
  5
A6
330
32
100
AcDbEntity
  8
1
  6
DASHED
 62
     2
100
AcDbLine
 10
1792.348741348118
 20
-189.3902324546827
 30
0.0
 11
1790.501191010168
 21
-194.6340676155149
 31
0.0
  0
LINE
  5
A7
330
32
100
AcDbEntity
  8
1
  6
DASHED
 62
     2
100
AcDbLine
 10
1777.596072026032
 20
-159.1391586397854
 30
0.0
 11
1779.184763040525
 21
-154.6417707904619
 31
0.0
  0
LINE
  5
A8
330
32
100
AcDbEntity
  8
1
  6
DASHED
 62
     2
100
AcDbLine
 10
1792.353669316421
 20
-159.8902324546827
 30
0.0
 11
1790.499523454015
 21
-154.6416706296033
 31
0.0
  0
LINE
  5
A9
330
32
100
AcDbEntity
  8
1
  6
Continuous
 62
     3
100
AcDbLine
 10
1921.842160938555
 20
-338.6356070182147
 30
0.0
 11
1933.342160938555
 21
-338.6356070182147
 31
0.0
  0
LINE
  5
AA
330
32
100
AcDbEntity
  8
1
  6
Continuous
 62
     3
100
AcDbLine
 10
1921.842160938555
 20
-334.6356070182147
 30
0.0
 11
1943.756374500928
 21
-334.6356070182147
 31
0.0
  0
LINE
  5
AB
330
32
100
AcDbEntity
  8
1
  6
Continuous
 62
     3
100
AcDbLine
 10
1921.842160938555
 20
-343.5936469097645
 30
0.0
 11
1917.842160938555
 21
-343.5936469097645
 31
0.0
  0
LINE
  5
AC
330
32
100
AcDbEntity
  8
1
  6
Continuous
 62
     3
100
AcDbLine
 10
1921.842160938555
 20
-343.5936469097645
 30
0.0
 11
1921.842160938555
 21
-334.6356070182147
 31
0.0
  0
LINE
  5
AD
330
32
100
AcDbEntity
  8
1
  6
Continuous
 62
     3
100
AcDbLine
 10
1917.842160938555
 20
-334.6356070182147
 30
0.0
 11
1921.842160938555
 21
-334.6356070182147
 31
0.0
  0
LINE
  5
AE
330
32
100
AcDbEntity
  8
1
  6
Continuous
 62
     3
100
AcDbLine
 10
1917.842160938555
 20
-343.5936469097645
 30
0.0
 11
1910.342160938555
 21
-343.5936469097645
 31
0.0
  0
LINE
  5
AF
330
32
100
AcDbEntity
  8
1
  6
Continuous
 62
     3
100
AcDbLine
 10
1917.842160938555
 20
-334.6356070182147
 30
0.0
 11
1917.842160938555
 21
-343.5936469097645
 31
0.0
  0
LINE
  5
B0
330
32
100
AcDbEntity
  8
1
  6
Continuous
 62
     3
100
AcDbLine
 10
1912.842160938555
 20
-369.4697994809055
 30
0.0
 11
1912.842160938555
 21
-370.4901070182146
 31
0.0
  0
LINE
  5
B1
330
32
100
AcDbEntity
  8
1
  6
Continuous
 62
     3
100
AcDbLine
 10
1926.842160938555
 20
-369.4697994809048
 30
0.0
 11
1937.342160938555
 21
-375.5319773073962
 31
0.0
  0
LINE
  5
B2
330
32
100
AcDbEntity
  8
1
  6
Continuous
 62
     3
100
AcDbLine
 10
1926.842160938555
 20
-369.4697994809048
 30
0.0
 11
1926.842160938555
 21
-370.5566813187494
 31
0.0
  0
LINE
  5
B3
330
32
100
AcDbEntity
  8
1
  6
DASH_CENTER
 62
     1
100
AcDbLine
 10
1919.842160938555
 20
-369.0111070182148
 30
0.0
 11
1919.842160938555
 21
-370.4901070182146
 31
0.0
  0
LINE
  5
B4
330
32
100
AcDbEntity
  8
1
  6
DASH_CENTER
 62
     1
100
AcDbLine
 10
1919.842160938555
 20
-370.4901070182146
 30
0.0
 11
1919.842160938555
 21
-371.6356070182147
 31
0.0
  0
LINE
  5
B5
330
32
100
AcDbEntity
  8
1
  6
DASH_CENTER
 62
     1
100
AcDbLine
 10
1919.842160938555
 20
-371.6356070182147
 30
0.0
 11
1919.842160938555
 21
-406.1283580653686
 31
0.0
  0
LINE
  5
B6
330
32
100
AcDbEntity
  8
1
  6
Continuous
 62
     3
100
AcDbLine
 10
1912.842160938555
 20
-346.5516868013143
 30
0.0
 11
1912.842160938555
 21
-369.4697994809055
 31
0.0
  0
LINE
  5
B7
330
32
100
AcDbEntity
  8
1
  6
Continuous
 62
     3
100
AcDbLine
 10
1926.842160938555
 20
-346.5516868013143
 30
0.0
 11
1926.842160938555
 21
-369.4697994809048
 31
0.0
  0
LINE
  5
B8
330
32
100
AcDbEntity
  8
1
  6
Continuous
 62
     3
100
AcDbLine
 10
1942.342160938555
 20
-338.6356070182147
 30
0.0
 11
1933.342160938555
 21
-338.6356070182147
 31
0.0
  0
LINE
  5
B9
330
32
100
AcDbEntity
  8
1
  6
Continuous
 62
     3
100
AcDbLine
 10
1943.842160938555
 20
-335.1356070182147
 30
0.0
 11
1943.842160938555
 21
-337.1356070182147
 31
0.0
  0
LINE
  5
BA
330
32
100
AcDbEntity
  8
1
  6
Continuous
 62
     3
100
AcDbLine
 10
1895.842160938555
 20
-337.1356070182147
 30
0.0
 11
1895.842160938555
 21
-335.1356070182147
 31
0.0
  0
LINE
  5
BB
330
32
100
AcDbEntity
  8
1
  6
Continuous
 62
     3
100
AcDbLine
 10
1906.342160938555
 20
-338.6356070182147
 30
0.0
 11
1897.342160938555
 21
-338.6356070182147
 31
0.0
  0
LINE
  5
BC
330
32
100
AcDbEntity
  8
1
  6
Continuous
 62
     3
100
AcDbLine
 10
1931.842160938555
 20
-340.6356070182147
 30
0.0
 11
1931.842160938555
 21
-340.1356070182147
 31
0.0
  0
LINE
  5
BD
330
32
100
AcDbEntity
  8
1
  6
Continuous
 62
     3
100
AcDbLine
 10
1907.842160938555
 20
-340.1356070182147
 30
0.0
 11
1907.842160938555
 21
-340.6356070182147
 31
0.0
  0
LINE
  5
BE
330
32
100
AcDbEntity
  8
1
  6
Continuous
 62
     3
100
AcDbLine
 10
1895.927947376182
 20
-334.6356070182147
 30
0.0
 11
1917.842160938555
 21
-334.6356070182147
 31
0.0
  0
LINE
  5
BF
330
32
100
AcDbEntity
  8
1
  6
Continuous
 62
     3
100
AcDbLine
 10
1906.342160938555
 20
-338.6356070182147
 30
0.0
 11
1917.842160938555
 21
-338.6356070182147
 31
0.0
  0
LINE
  5
C0
330
32
100
AcDbEntity
  8
1
  6
Continuous
 62
     3
100
AcDbLine
 10
1929.342160938555
 20
-343.5936469097645
 30
0.0
 11
1921.842160938555
 21
-343.5936469097645
 31
0.0
  0
LINE
  5
C1
330
32
100
AcDbEntity
  8
1
  6
DASH_CENTER
 62
     1
100
AcDbLine
 10
1940.842160938555
 20
-385.6356070182147
 30
0.0
 11
1898.842160938555
 21
-385.6356070182147
 31
0.0
  0
LINE
  5
C2
330
32
100
AcDbEntity
  8
1
  6
Continuous
 62
     3
100
AcDbLine
 10
1902.342160938555
 20
-375.5319773073962
 30
0.0
 11
1912.842160938555
 21
-369.4697994809055
 31
0.0
  0
LINE
  5
C3
330
32
100
AcDbEntity
  8
1
  6
Continuous
 62
     3
100
AcDbLine
 10
1915.153050071011
 20
-403.1356070182147
 30
0.0
 11
1924.5312718061
 21
-403.1356070182147
 31
0.0
  0
LINE
  5
C4
330
32
100
AcDbEntity
  8
1
  6
Continuous
 62
     3
100
AcDbLine
 10
1915.153050071011
 20
-403.1356070182147
 30
0.0
 11
1902.342160938555
 21
-395.7392367290331
 31
0.0
  0
LINE
  5
C5
330
32
100
AcDbEntity
  8
1
  6
Continuous
 62
     3
100
AcDbLine
 10
1937.342160938555
 20
-395.7392367290331
 30
0.0
 11
1924.5312718061
 21
-403.1356070182147
 31
0.0
  0
LINE
  5
C6
330
32
100
AcDbEntity
  8
1
  6
Continuous
 62
     3
100
AcDbLine
 10
1937.342160938555
 20
-375.5319773073962
 30
0.0
 11
1937.342160938555
 21
-395.7392367290331
 31
0.0
  0
LINE
  5
C7
330
32
100
AcDbEntity
  8
1
  6
Continuous
 62
     3
100
AcDbLine
 10
1902.342160938555
 20
-375.5319773073962
 30
0.0
 11
1902.342160938555
 21
-395.7392367290331
 31
0.0
  0
LINE
  5
C8
330
32
100
AcDbEntity
  8
1
  6
DASH_CENTER
 62
     1
100
AcDbLine
 10
1919.842160938555
 20
-330.0663844332753
 30
0.0
 11
1919.842160938555
 21
-369.0111070182148
 31
0.0
  0
LINE
  5
C9
330
32
100
AcDbEntity
  8
1
  6
Continuous
 62
     3
100
AcDbLine
 10
1807.442160938555
 20
-369.3856070182147
 30
0.0
 11
1807.442160938555
 21
-401.8856070182147
 31
0.0
  0
LINE
  5
CA
330
32
100
AcDbEntity
  8
1
  6
Continuous
 62
     3
100
AcDbLine
 10
1807.442160938555
 20
-401.8856070182147
 30
0.0
 11
1807.442160938555
 21
-402.2601070182147
 31
0.0
  0
LINE
  5
CB
330
32
100
AcDbEntity
  8
1
  6
Continuous
 62
     3
100
AcDbLine
 10
1807.442160938555
 20
-402.2601070182147
 30
0.0
 11
1809.342160938555
 21
-402.2601070182147
 31
0.0
  0
LINE
  5
CC
330
32
100
AcDbEntity
  8
1
  6
Continuous
 62
     1
100
AcDbLine
 10
1806.957089384308
 20
-400.7811070182147
 30
0.0
 11
1809.342160938555
 21
-400.7811070182147
 31
0.0
  0
LINE
  5
CD
330
32
100
AcDbEntity
  8
1
  6
Continuous
 62
     3
100
AcDbLine
 10
1807.442160938555
 20
-369.0111070182148
 30
0.0
 11
1807.442160938555
 21
-369.3856070182147
 31
0.0
  0
LINE
  5
CE
330
32
100
AcDbEntity
  8
1
  6
DASHED
 62
     2
100
AcDbLine
 10
1807.442160938555
 20
-158.0157324546828
 30
0.0
 11
1807.442160938555
 21
-158.3902324546827
 31
0.0
  0
LINE
  5
CF
330
32
100
AcDbEntity
  8
1
  6
DASHED
 62
     2
100
AcDbLine
 10
1807.442160938555
 20
-191.2647324546827
 30
0.0
 11
1815.342160938139
 21
-191.2647324546827
 31
0.0
  0
LINE
  5
D0
330
32
100
AcDbEntity
  8
1
  6
DASHED
 62
     2
100
AcDbLine
 10
1807.442160938555
 20
-190.8902324546827
 30
0.0
 11
1807.442160938555
 21
-191.2647324546827
 31
0.0
  0
LINE
  5
D1
330
32
100
AcDbEntity
  8
1
  6
DASHED
 62
     2
100
AcDbLine
 10
1761.805964942553
 20
-194.8402324546827
 30
0.0
 11
1763.07613553477
 21
-192.6402324546827
 31
0.0
  0
LINE
  5
D2
330
32
100
AcDbEntity
  8
1
  6
DASHED
 62
     2
100
AcDbLine
 10
1763.07613553477
 20
-156.6402324546828
 30
0.0
 11
1761.805964942553
 21
-154.4402324546828
 31
0.0
  0
LINE
  5
D3
330
32
100
AcDbEntity
  8
1
  6
DASHED
 62
     2
100
AcDbLine
 10
1752.442160938555
 20
-154.4402324546828
 30
0.0
 11
1761.805964942553
 21
-154.4402324546828
 31
0.0
  0
LINE
  5
D4
330
32
100
AcDbEntity
  8
1
  6
DASHED
 62
     2
100
AcDbLine
 10
1752.442160938555
 20
-194.8402324546827
 30
0.0
 11
1761.805964942553
 21
-194.8402324546827
 31
0.0
  0
LINE
  5
D5
330
32
100
AcDbEntity
  8
1
  6
DASHED
 62
     2
100
AcDbLine
 10
1752.442160938555
 20
-154.4402324546828
 30
0.0
 11
1751.442160938555
 21
-155.4402324546828
 31
0.0
  0
LINE
  5
D6
330
32
100
AcDbEntity
  8
1
  6
DASHED
 62
     2
100
AcDbLine
 10
1752.442160938555
 20
-194.8402324546827
 30
0.0
 11
1751.442160938555
 21
-193.8402324546827
 31
0.0
  0
LINE
  5
D7
330
32
100
AcDbEntity
  8
1
  6
DASHED
 62
     2
100
AcDbLine
 10
1751.442160938555
 20
-193.8402324546827
 30
0.0
 11
1751.442160938555
 21
-155.4402324546828
 31
0.0
  0
LINE
  5
D8
330
32
100
AcDbEntity
  8
1
  6
DASHED
 62
     2
100
AcDbLine
 10
1765.674211746124
 20
-191.1402324546827
 30
0.0
 11
1771.942160938555
 21
-191.1402324546827
 31
0.0
  0
LINE
  5
D9
330
32
100
AcDbEntity
  8
1
  6
DASHED
 62
     2
100
AcDbLine
 10
1771.942160938555
 20
-158.1402324546827
 30
0.0
 11
1765.674211746124
 21
-158.1402324546828
 31
0.0
  0
LINE
  5
DA
330
32
100
AcDbEntity
  8
1
  6
DASHED
 62
     2
100
AcDbLine
 10
1805.942160938555
 20
-159.8902324546827
 30
0.0
 11
1792.353669316421
 21
-159.8902324546827
 31
0.0
  0
LINE
  5
DB
330
32
100
AcDbEntity
  8
1
  6
DASHED
 62
     2
100
AcDbLine
 10
1805.942160938555
 20
-189.3902324546827
 30
0.0
 11
1792.348741348118
 21
-189.3902324546827
 31
0.0
  0
LINE
  5
DC
330
32
100
AcDbEntity
  8
1
  6
DASHED
 62
     2
100
AcDbLine
 10
1779.183130866941
 20
-194.6340676155149
 30
0.0
 11
1777.599734131747
 21
-190.1399700512898
 31
0.0
  0
LINE
  5
DD
330
32
100
AcDbEntity
  8
1
  6
DASH_CENTER
 62
     1
100
AcDbLine
 10
1636.947773299545
 20
-330.0663844332753
 30
0.0
 11
1636.947773299545
 21
-372.5903252426436
 31
0.0
  0
LINE
  5
DE
330
32
100
AcDbEntity
  8
1
  6
Continuous
 62
     3
100
AcDbLine
 10
1619.447773299545
 20
-375.5319773073962
 30
0.0
 11
1619.447773299545
 21
-395.7392367290331
 31
0.0
  0
LINE
  5
DF
330
32
100
AcDbEntity
  8
1
  6
Continuous
 62
     3
100
AcDbLine
 10
1654.447773299545
 20
-375.5319773073962
 30
0.0
 11
1654.447773299545
 21
-395.7392367290331
 31
0.0
  0
LINE
  5
E0
330
32
100
AcDbEntity
  8
1
  6
Continuous
 62
     3
100
AcDbLine
 10
1654.447773299545
 20
-395.7392367290331
 30
0.0
 11
1641.63688416709
 21
-403.1356070182147
 31
0.0
  0
LINE
  5
E1
330
32
100
AcDbEntity
  8
1
  6
Continuous
 62
     3
100
AcDbLine
 10
1632.258662432001
 20
-403.1356070182147
 30
0.0
 11
1619.447773299545
 21
-395.7392367290331
 31
0.0
  0
LINE
  5
E2
330
32
100
AcDbEntity
  8
1
  6
Continuous
 62
     3
100
AcDbLine
 10
1632.258662432001
 20
-403.1356070182147
 30
0.0
 11
1641.63688416709
 21
-403.1356070182147
 31
0.0
  0
LINE
  5
E3
330
32
100
AcDbEntity
  8
1
  6
Continuous
 62
     3
100
AcDbLine
 10
1641.63688416709
 20
-368.1356070182146
 30
0.0
 11
1632.258662432001
 21
-368.1356070182146
 31
0.0
  0
LINE
  5
E4
330
32
100
AcDbEntity
  8
1
  6
Continuous
 62
     3
100
AcDbLine
 10
1641.63688416709
 20
-368.1356070182146
 30
0.0
 11
1654.447773299545
 21
-375.5319773073962
 31
0.0
  0
LINE
  5
E5
330
32
100
AcDbEntity
  8
1
  6
Continuous
 62
     3
100
AcDbLine
 10
1619.447773299545
 20
-375.5319773073962
 30
0.0
 11
1632.258662432001
 21
-368.1356070182146
 31
0.0
  0
LINE
  5
E6
330
32
100
AcDbEntity
  8
1
  6
DASH_CENTER
 62
     1
100
AcDbLine
 10
1657.947773299545
 20
-385.6356070182147
 30
0.0
 11
1615.947773299545
 21
-385.6356070182147
 31
0.0
  0
LINE
  5
E7
330
32
100
AcDbEntity
  8
1
  6
Continuous
 62
     3
100
AcDbLine
 10
1632.258662432001
 20
-403.1356070182147
 30
0.0
 11
1632.526611624432
 21
-402.1356070182147
 31
0.0
  0
LINE
  5
E8
330
32
100
AcDbEntity
  8
1
  6
Continuous
 62
     3
100
AcDbLine
 10
1641.63688416709
 20
-403.1356070182147
 30
0.0
 11
1641.368934974659
 21
-402.1356070182147
 31
0.0
  0
LINE
  5
E9
330
32
100
AcDbEntity
  8
1
  6
Continuous
 62
     3
100
AcDbLine
 10
1654.447773299545
 20
-395.7392367290331
 30
0.0
 11
1653.447773299545
 21
-395.1618864598435
 31
0.0
  0
LINE
  5
EA
330
32
100
AcDbEntity
  8
1
  6
Continuous
 62
     3
100
AcDbLine
 10
1646.447773299545
 20
-343.5936469097645
 30
0.0
 11
1627.447773299545
 21
-343.5936469097645
 31
0.0
  0
LINE
  5
EB
330
32
100
AcDbEntity
  8
1
  6
Continuous
 62
     3
100
AcDbLine
 10
1623.447773299545
 20
-338.6356070182147
 30
0.0
 11
1650.447773299545
 21
-338.6356070182147
 31
0.0
  0
LINE
  5
EC
330
32
100
AcDbEntity
  8
1
  6
Continuous
 62
     3
100
AcDbLine
 10
1613.033559737172
 20
-334.6356070182147
 30
0.0
 11
1660.861986861918
 21
-334.6356070182147
 31
0.0
  0
LINE
  5
ED
330
32
100
AcDbEntity
  8
1
  6
Continuous
 62
     3
100
AcDbLine
 10
1624.947773299545
 20
-340.1356070182147
 30
0.0
 11
1624.947773299545
 21
-340.6356070182147
 31
0.0
  0
LINE
  5
EE
330
32
100
AcDbEntity
  8
1
  6
Continuous
 62
     3
100
AcDbLine
 10
1648.947773299545
 20
-340.6356070182147
 30
0.0
 11
1648.947773299545
 21
-340.1356070182147
 31
0.0
  0
LINE
  5
EF
330
32
100
AcDbEntity
  8
1
  6
Continuous
 62
     3
100
AcDbLine
 10
1623.447773299545
 20
-338.6356070182147
 30
0.0
 11
1614.447773299545
 21
-338.6356070182147
 31
0.0
  0
LINE
  5
F0
330
32
100
AcDbEntity
  8
1
  6
Continuous
 62
     3
100
AcDbLine
 10
1612.947773299545
 20
-337.1356070182147
 30
0.0
 11
1612.947773299545
 21
-335.1356070182147
 31
0.0
  0
LINE
  5
F1
330
32
100
AcDbEntity
  8
1
  6
Continuous
 62
     3
100
AcDbLine
 10
1660.947773299545
 20
-335.1356070182147
 30
0.0
 11
1660.947773299545
 21
-337.1356070182147
 31
0.0
  0
LINE
  5
F2
330
32
100
AcDbEntity
  8
1
  6
Continuous
 62
     3
100
AcDbLine
 10
1659.447773299545
 20
-338.6356070182147
 30
0.0
 11
1650.447773299545
 21
-338.6356070182147
 31
0.0
  0
LINE
  5
F3
330
32
100
AcDbEntity
  8
1
  6
Continuous
 62
     3
100
AcDbLine
 10
1643.947773299545
 20
-346.5516868013143
 30
0.0
 11
1643.947773299545
 21
-369.4697994809048
 31
0.0
  0
LINE
  5
F4
330
32
100
AcDbEntity
  8
1
  6
Continuous
 62
     3
100
AcDbLine
 10
1629.947773299545
 20
-346.5516868013143
 30
0.0
 11
1629.947773299545
 21
-369.4697994809055
 31
0.0
  0
LINE
  5
F5
330
32
100
AcDbEntity
  8
1
  6
Continuous
 62
     3
100
AcDbLine
 10
1772.927947376181
 20
-334.6356070182147
 30
0.0
 11
1798.756374500927
 21
-334.6356070182147
 31
0.0
  0
LINE
  5
F6
330
32
100
AcDbEntity
  8
1
  6
DASH_CENTER
 62
     1
100
AcDbLine
 10
1784.842160938555
 20
-328.9144784658307
 30
0.0
 11
1784.842160938555
 21
-370.7505805010231
 31
0.0
  0
LINE
  5
F7
330
32
100
AcDbEntity
  8
1
  6
DASH_CENTER
 62
     1
100
AcDbLine
 10
1744.826024389633
 20
-385.6356070182147
 30
0.0
 11
1825.057754880459
 21
-385.6356070182147
 31
0.0
  0
LINE
  5
F8
330
32
100
AcDbEntity
  8
1
  6
Continuous
 62
     3
100
AcDbLine
 10
1751.442160938555
 20
-369.1356070182147
 30
0.0
 11
1751.442160938555
 21
-402.1356070182147
 31
0.0
  0
LINE
  5
F9
330
32
100
AcDbEntity
  8
1
  6
Continuous
 62
     3
100
AcDbLine
 10
1752.442160938555
 20
-403.1356070182147
 30
0.0
 11
1751.442160938555
 21
-402.1356070182147
 31
0.0
  0
LINE
  5
FA
330
32
100
AcDbEntity
  8
1
  6
Continuous
 62
     3
100
AcDbLine
 10
1752.442160938555
 20
-368.1356070182147
 30
0.0
 11
1751.442160938555
 21
-369.1356070182147
 31
0.0
  0
LINE
  5
FB
330
32
100
AcDbEntity
  8
1
  6
Continuous
 62
     3
100
AcDbLine
 10
1764.519511207744
 20
-369.1356070182147
 30
0.0
 11
1763.942160938555
 21
-368.1356070182147
 31
0.0
  0
LINE
  5
FC
330
32
100
AcDbEntity
  8
1
  6
Continuous
 62
     3
100
AcDbLine
 10
1772.842160938555
 20
-369.1356070182147
 30
0.0
 11
1764.519511207744
 21
-369.1356070182147
 31
0.0
  0
LINE
  5
FD
330
32
100
AcDbEntity
  8
1
  6
Continuous
 62
     3
100
AcDbLine
 10
1764.519511207744
 20
-402.1356070182147
 30
0.0
 11
1771.942160938555
 21
-402.1356070182147
 31
0.0
  0
LINE
  5
FE
330
32
100
AcDbEntity
  8
1
  6
Continuous
 62
     3
100
AcDbLine
 10
1763.942160938555
 20
-403.1356070182147
 30
0.0
 11
1764.519511207744
 21
-402.1356070182147
 31
0.0
  0
LINE
  5
FF
330
32
100
AcDbEntity
  8
1
  6
Continuous
 62
     3
100
AcDbLine
 10
1805.942160938555
 20
-400.3856070182147
 30
0.0
 11
1780.438483672538
 21
-400.3856070182147
 31
0.0
  0
LINE
  5
100
330
32
100
AcDbEntity
  8
1
  6
Continuous
 62
     3
100
AcDbLine
 10
1805.942160938555
 20
-370.8856070182147
 30
0.0
 11
1796.842160938555
 21
-370.8856070182147
 31
0.0
  0
LINE
  5
101
330
32
100
AcDbEntity
  8
1
  6
Continuous
 62
     3
100
AcDbLine
 10
1791.842160938555
 20
-345.1356070182147
 30
0.0
 11
1791.842160938555
 21
-365.8856070182147
 31
0.0
  0
LINE
  5
102
330
32
100
AcDbEntity
  8
1
  6
Continuous
 62
     3
100
AcDbLine
 10
1777.842160938555
 20
-345.1356070182147
 30
0.0
 11
1777.842160938555
 21
-364.1356070182147
 31
0.0
  0
LINE
  5
103
330
32
100
AcDbEntity
  8
1
  6
Continuous
 62
     3
100
AcDbLine
 10
1772.842160938555
 20
-335.1356070182147
 30
0.0
 11
1772.842160938555
 21
-337.1356070182147
 31
0.0
  0
LINE
  5
104
330
32
100
AcDbEntity
  8
1
  6
Continuous
 62
     3
100
AcDbLine
 10
1775.842160938555
 20
-343.6356070182147
 30
0.0
 11
1776.342160938555
 21
-343.6356070182147
 31
0.0
  0
LINE
  5
105
330
32
100
AcDbEntity
  8
1
  6
Continuous
 62
     3
100
AcDbLine
 10
1793.342160938555
 20
-343.6356070182147
 30
0.0
 11
1793.842160938555
 21
-343.6356070182147
 31
0.0
  0
LINE
  5
106
330
32
100
AcDbEntity
  8
1
  6
Continuous
 62
     3
100
AcDbLine
 10
1752.442160938555
 20
-403.1356070182147
 30
0.0
 11
1763.942160938555
 21
-403.1356070182147
 31
0.0
  0
LINE
  5
107
330
32
100
AcDbEntity
  8
1
  6
Continuous
 62
     3
100
AcDbLine
 10
1752.442160938555
 20
-368.1356070182147
 30
0.0
 11
1763.942160938555
 21
-368.1356070182147
 31
0.0
  0
LINE
  5
108
330
32
100
AcDbEntity
  8
1
  6
Continuous
 62
     3
100
AcDbLine
 10
1778.200014968119
 20
-343.6356070182147
 30
0.0
 11
1780.342160938555
 21
-343.6356070182147
 31
0.0
  0
LINE
  5
109
330
32
100
AcDbEntity
  8
1
  6
Continuous
 62
     3
100
AcDbLine
 10
1798.842160938555
 20
-335.1356070182147
 30
0.0
 11
1798.842160938555
 21
-340.6356070182147
 31
0.0
  0
LINE
  5
10A
330
32
100
AcDbEntity
  8
1
  6
Continuous
 62
     3
100
AcDbLine
 10
1795.842160938555
 20
-343.6356070182147
 30
0.0
 11
1793.842160938555
 21
-343.6356070182147
 31
0.0
  0
LINE
  5
10B
330
32
100
AcDbEntity
  8
1
  6
Continuous
 62
     3
100
AcDbLine
 10
1796.842160938555
 20
-340.6356070182147
 30
0.0
 11
1796.842160938555
 21
-337.1356070182146
 31
0.0
  0
LINE
  5
10C
330
32
100
AcDbEntity
  8
1
  6
Continuous
 62
     3
100
AcDbLine
 10
1796.842160938555
 20
-337.1356070182146
 30
0.0
 11
1796.842160938555
 21
-335.1356070182147
 31
0.0
  0
LINE
  5
10D
330
32
100
AcDbEntity
  8
1
  6
Continuous
 62
     3
100
AcDbLine
 10
1772.842160938555
 20
-337.1356070182147
 30
0.0
 11
1772.842160938555
 21
-340.6356070182147
 31
0.0
  0
LINE
  5
10E
330
32
100
AcDbEntity
  8
1
  6
Continuous
 62
     3
100
AcDbLine
 10
1774.342160938555
 20
-338.6356070182147
 30
0.0
 11
1795.342160938555
 21
-338.6356070182146
 31
0.0
  0
LINE
  5
10F
330
32
100
AcDbEntity
  8
1
  6
Continuous
 62
     3
100
AcDbLine
 10
1764.519511207744
 20
-402.1356070182147
 30
0.0
 11
1764.519511207744
 21
-392.3247178857592
 31
0.0
  0
LINE
  5
110
330
32
100
AcDbEntity
  8
1
  6
Continuous
 62
     3
100
AcDbLine
 10
1752.442160938555
 20
-368.1356070182147
 30
0.0
 11
1752.442160938555
 21
-378.94649615067
 31
0.0
  0
LINE
  5
111
330
32
100
AcDbEntity
  8
0
  6
Continuous
 62
     2
100
AcDbLine
 10
1780.825742162881
 20
-382.4854762983756
 30
0.0
 11
1783.6608667207
 21
-385.6355916515419
 31
0.0
  0
LINE
  5
112
330
32
100
AcDbEntity
  8
0
  6
Continuous
 62
     2
100
AcDbLine
 10
1781.534523296038
 20
-388.7857377380537
 30
0.0
 11
1784.290879019547
 21
-388.7857377380537
 31
0.0
  0
LINE
  5
113
330
32
100
AcDbEntity
  8
0
  6
Continuous
 62
     2
100
AcDbLine
 10
1788.937333181865
 20
-382.4854762983756
 30
0.0
 11
1786.023455156409
 21
-382.4854762983756
 31
0.0
  0
LINE
  5
114
330
32
100
AcDbEntity
  8
0
  6
Continuous
 62
     2
100
AcDbLine
 10
1780.825742162881
 20
-382.4854762983756
 30
0.0
 11
1783.6608667207
 21
-382.4854762983756
 31
0.0
  0
LINE
  5
115
330
32
100
AcDbEntity
  8
0
  6
Continuous
 62
     2
100
AcDbLine
 10
1783.6608667207
 20
-382.4854762983756
 30
0.0
 11
1783.6608667207
 21
-385.6355916515419
 31
0.0
  0
LINE
  5
116
330
32
100
AcDbEntity
  8
0
  6
Continuous
 62
     2
100
AcDbLine
 10
1786.023455156409
 20
-382.4854762983756
 30
0.0
 11
1786.023455156409
 21
-384.5330508887286
 31
0.0
  0
LINE
  5
117
330
32
100
AcDbEntity
  8
0
  6
Continuous
 62
     2
100
AcDbLine
 10
1788.937333181865
 20
-382.4854762983756
 30
0.0
 11
1784.290879019547
 21
-388.7857377380537
 31
0.0
  0
LINE
  5
118
330
32
100
AcDbEntity
  8
0
  6
Continuous
 62
     2
100
AcDbLine
 10
1784.920906710259
 20
-385.6355916515419
 30
0.0
 11
1783.897165540293
 21
-385.6355916515419
 31
0.0
  0
LINE
  5
119
330
32
100
AcDbEntity
  8
0
  6
Continuous
 62
     2
100
AcDbLine
 10
1781.534523296038
 20
-388.7857377380537
 30
0.0
 11
1783.897165540293
 21
-385.6355916515419
 31
0.0
  0
LINE
  5
11A
330
32
100
AcDbEntity
  8
1
  6
DASH_CENTER
 62
     1
100
AcDbLine
 10
1784.842160938555
 20
-370.7505805010231
 30
0.0
 11
1784.842160938555
 21
-405.7980818558272
 31
0.0
  0
LINE
  5
11B
330
32
100
AcDbEntity
  8
1
  6
Continuous
 62
     3
100
AcDbLine
 10
1752.442160938555
 20
-373.5319773073962
 30
0.0
 11
1751.442160938555
 21
-374.5319773073962
 31
0.0
  0
LINE
  5
11C
330
32
100
AcDbEntity
  8
1
  6
Continuous
 62
     3
100
AcDbLine
 10
1752.442160938555
 20
-397.739236729033
 30
0.0
 11
1751.442160938555
 21
-396.739236729033
 31
0.0
  0
LINE
  5
11D
330
32
100
AcDbEntity
  8
1
  6
Continuous
 62
     3
100
AcDbLine
 10
1752.442160938555
 20
-373.5319773073962
 30
0.0
 11
1761.742160938555
 21
-373.5319773073962
 31
0.0
  0
LINE
  5
11E
330
32
100
AcDbEntity
  8
1
  6
Continuous
 62
     3
100
AcDbLine
 10
1764.519511207744
 20
-378.94649615067
 30
0.0
 11
1764.519511207744
 21
-369.1356070182147
 31
0.0
  0
LINE
  5
11F
330
32
100
AcDbEntity
  8
1
  6
Continuous
 62
     3
100
AcDbLine
 10
1752.442160938555
 20
-378.94649615067
 30
0.0
 11
1752.442160938555
 21
-392.3247178857592
 31
0.0
  0
LINE
  5
120
330
32
100
AcDbEntity
  8
1
  6
Continuous
 62
     3
100
AcDbLine
 10
1752.442160938555
 20
-397.739236729033
 30
0.0
 11
1761.742160938555
 21
-397.739236729033
 31
0.0
  0
LINE
  5
121
330
32
100
AcDbEntity
  8
1
  6
Continuous
 62
     3
100
AcDbLine
 10
1764.519511207744
 20
-392.3247178857592
 30
0.0
 11
1764.519511207744
 21
-378.94649615067
 31
0.0
  0
LINE
  5
122
330
32
100
AcDbEntity
  8
1
  6
Continuous
 62
     3
100
AcDbLine
 10
1752.442160938555
 20
-392.3247178857592
 30
0.0
 11
1752.442160938555
 21
-403.1356070182147
 31
0.0
  0
LINE
  5
123
330
32
100
AcDbEntity
  8
1
  6
Continuous
 62
     3
100
AcDbLine
 10
1809.342160938555
 20
-369.0111070182148
 30
0.0
 11
1807.442160938555
 21
-369.0111070182148
 31
0.0
  0
LINE
  5
124
330
32
100
AcDbEntity
  8
1
  6
Continuous
 62
     1
100
AcDbLine
 10
1809.342160938555
 20
-370.4901070182146
 30
0.0
 11
1806.957089384308
 21
-370.4901070182146
 31
0.0
  0
ARC
  5
125
330
32
100
AcDbEntity
  8
1
  6
Continuous
 62
     3
100
AcDbCircle
 10
2081.796038862718
 20
-368.1356070182147
 30
0.0
 40
6.631228193351667
100
AcDbArc
 50
-172.2439187924381
 51
-125.5329510425648
  0
ARC
  5
126
330
32
100
AcDbEntity
  8
1
  6
Continuous
 62
     3
100
AcDbCircle
 10
2081.796038862718
 20
-403.1356070182147
 30
0.0
 40
6.631228193352615
100
AcDbArc
 50
125.5329510425633
 51
172.2439187924371
  0
ARC
  5
127
330
32
100
AcDbEntity
  8
1
  6
Continuous
 62
     3
100
AcDbCircle
 10
2102.92715818547
 20
-385.6356070182147
 30
0.0
 40
27.7623475161047
100
AcDbArc
 50
154.1527861325781
 51
-154.1527861325787
  0
ARC
  5
128
330
32
100
AcDbEntity
  8
1
  6
Continuous
 62
     3
100
AcDbCircle
 10
2065.342160938555
 20
-337.1356070182146
 30
0.0
 40
1.5
100
AcDbArc
 50
-90.0
 51
0.0
  0
ARC
  5
129
330
32
100
AcDbEntity
  8
1
  6
Continuous
 62
     3
100
AcDbCircle
 10
2044.342160938555
 20
-337.1356070182146
 30
0.0
 40
1.5
100
AcDbArc
 50
-179.9999999999957
 51
-90.0
  0
ARC
  5
12A
330
32
100
AcDbEntity
  8
1
  6
Continuous
 62
     3
100
AcDbCircle
 10
2067.742160938555
 20
-385.6356070182147
 30
0.0
 40
16.50000000000005
100
AcDbArc
 50
-113.277063550487
 51
-90.0
  0
ARC
  5
12B
330
32
100
AcDbEntity
  8
1
  6
Continuous
 62
     3
100
AcDbCircle
 10
1919.842160938555
 20
-385.6356070182147
 30
0.0
 40
16.62449999999989
100
AcDbArc
 50
65.0981376900004
 51
90.0
  0
ARC
  5
12C
330
32
100
AcDbEntity
  8
1
  6
Continuous
 62
     3
100
AcDbCircle
 10
1919.842160938555
 20
-385.6356070182147
 30
0.0
 40
16.62449999999996
100
AcDbArc
 50
90.0
 51
65.0981376900004
  0
ARC
  5
12D
330
32
100
AcDbEntity
  8
1
  6
Continuous
 62
     3
100
AcDbCircle
 10
1909.842160938555
 20
-346.5516868013143
 30
0.0
 40
3.0
100
AcDbArc
 50
0.0
 51
80.40593177313947
  0
ARC
  5
12E
330
32
100
AcDbEntity
  8
1
  6
Continuous
 62
     3
100
AcDbCircle
 10
1929.842160938555
 20
-346.5516868013143
 30
0.0
 40
2.999999999999981
100
AcDbArc
 50
99.59406822686053
 51
180.0
  0
ARC
  5
12F
330
32
100
AcDbEntity
  8
1
  6
DASHED
 62
     2
100
AcDbCircle
 10
1771.942160938555
 20
-174.6402324546827
 30
0.0
 40
16.5
100
AcDbArc
 50
-90.0
 51
-69.94736667659856
  0
ARC
  5
130
330
32
100
AcDbEntity
  8
1
  6
DASHED
 62
     2
100
AcDbCircle
 10
1771.942160938555
 20
-174.6402324546827
 30
0.0
 40
16.49999999999974
100
AcDbArc
 50
69.96090330296818
 51
90.0
  0
ARC
  5
131
330
32
100
AcDbEntity
  8
1
  6
DASHED
 62
     2
100
AcDbCircle
 10
1784.842160938555
 20
-192.6402324546827
 30
0.0
 40
6.000000000000062
100
AcDbArc
 50
-160.9853430807039
 51
-19.40879171233005
  0
ARC
  5
132
330
32
100
AcDbEntity
  8
1
  6
DASHED
 62
     2
100
AcDbCircle
 10
1784.842160938555
 20
-156.6402324546827
 30
0.0
 40
5.999999999999623
100
AcDbArc
 50
19.4566546500458
 51
160.5443597407601
  0
ARC
  5
133
330
32
100
AcDbEntity
  8
1
  6
Continuous
 62
     3
100
AcDbCircle
 10
1646.947773299545
 20
-346.5516868013143
 30
0.0
 40
2.999999999999981
100
AcDbArc
 50
99.59406822686053
 51
180.0
  0
ARC
  5
134
330
32
100
AcDbEntity
  8
1
  6
Continuous
 62
     3
100
AcDbCircle
 10
1626.947773299545
 20
-346.5516868013143
 30
0.0
 40
3.0
100
AcDbArc
 50
0.0
 51
80.40593177313947
  0
ARC
  5
135
330
32
100
AcDbEntity
  8
1
  6
Continuous
 62
     3
100
AcDbCircle
 10
1771.942160938555
 20
-385.6356070182147
 30
0.0
 40
16.5
100
AcDbArc
 50
-90.0
 51
-66.7229364495137
  0
ARC
  5
136
330
32
100
AcDbEntity
  8
1
  6
Continuous
 62
     3
100
AcDbCircle
 10
1795.342160938555
 20
-337.1356070182146
 30
0.0
 40
1.5
100
AcDbArc
 50
-90.0
 51
0.0
  0
ARC
  5
137
330
32
100
AcDbEntity
  8
1
  6
Continuous
 62
     3
100
AcDbCircle
 10
1774.342160938555
 20
-337.1356070182147
 30
0.0
 40
1.5
100
AcDbArc
 50
180.0
 51
-90.0
  0
ARC
  5
138
330
32
100
AcDbEntity
  8
0
  6
Continuous
 62
     2
100
AcDbCircle
 10
1784.920906710259
 20
-384.5330508887286
 30
0.0
 40
1.102545927023016
100
AcDbArc
 50
-90.0
 51
0.0
  0
ARC
  5
139
330
32
100
AcDbEntity
  8
1
  6
Continuous
 62
     3
100
AcDbCircle
 10
1736.75716369164
 20
-385.6356070182147
 30
0.0
 40
27.76234751610437
100
AcDbArc
 50
-25.84721386742153
 51
25.84721386742206
  0
ARC
  5
13A
330
32
100
AcDbEntity
  8
1
  6
Continuous
 62
     3
100
AcDbCircle
 10
1757.888283014392
 20
-403.1356070182147
 30
0.0
 40
6.631228193351683
100
AcDbArc
 50
7.75608120756294
 51
54.46704895743826
  0
ARC
  5
13B
330
32
100
AcDbEntity
  8
1
  6
Continuous
 62
     3
100
AcDbCircle
 10
1757.888283014392
 20
-368.1356070182147
 30
0.0
 40
6.631228193352252
100
AcDbArc
 50
-54.46704895743683
 51
-7.75608120756196
  0
CIRCLE
  5
13C
330
32
100
AcDbEntity
  8
1
  6
Continuous
 62
     1
100
AcDbCircle
 10
1636.947773299545
 20
-385.6356070182147
 30
0.0
 40
13.04528177557114
  0
CIRCLE
  5
13D
330
32
100
AcDbEntity
  8
1
  6
Continuous
 62
     3
100
AcDbCircle
 10
1636.947773299545
 20
-385.6356070182147
 30
0.0
 40
12.01271698302571
  0
CIRCLE
  5
13E
330
32
100
AcDbEntity
  8
1
  6
Continuous
 62
     1
100
AcDbCircle
 10
1919.842160938555
 20
-385.6356070182147
 30
0.0
 40
15.14550000000014
  0
CIRCLE
  5
13F
330
32
100
AcDbEntity
  8
1
  6
Continuous
 62
     3
100
AcDbCircle
 10
1919.842160938555
 20
-385.6356070182147
 30
0.0
 40
14.0
  0
CIRCLE
  5
140
330
32
100
AcDbEntity
  8
1
  6
Continuous
 62
     3
100
AcDbCircle
 10
1919.842160938555
 20
-385.6356070182147
 30
0.0
 40
10.5
  0
ARC
  5
141
330
32
100
AcDbEntity
  8
1
  6
Continuous
 62
     3
100
AcDbCircle
 10
2043.842160938555
 20
-340.6356070182147
 30
0.0
 40
3.0
100
AcDbArc
 50
180.0
 51
-90.0
  0
ARC
  5
142
330
32
100
AcDbEntity
  8
1
  6
Continuous
 62
     3
100
AcDbCircle
 10
2045.842160938555
 20
-340.6356070182147
 30
0.0
 40
3.0
100
AcDbArc
 50
180.0
 51
-90.0
  0
ARC
  5
143
330
32
100
AcDbEntity
  8
1
  6
Continuous
 62
     3
100
AcDbCircle
 10
2063.342160938555
 20
-345.1356070182147
 30
0.0
 40
1.5
100
AcDbArc
 50
90.0
 51
180.0
  0
ARC
  5
144
330
32
100
AcDbEntity
  8
1
  6
Continuous
 62
     3
100
AcDbCircle
 10
2046.342160938555
 20
-345.1356070182147
 30
0.0
 40
1.5
100
AcDbArc
 50
0.0
 51
90.0
  0
ARC
  5
145
330
32
100
AcDbEntity
  8
1
  6
Continuous
 62
     3
100
AcDbCircle
 10
2063.842160938555
 20
-340.6356070182147
 30
0.0
 40
3.0
100
AcDbArc
 50
-90.0
 51
0.0
  0
ARC
  5
146
330
32
100
AcDbEntity
  8
1
  6
Continuous
 62
     3
100
AcDbCircle
 10
2065.342160938555
 20
-335.1356070182147
 30
0.0
 40
1.5
100
AcDbArc
 50
0.0
 51
19.47122063448186
  0
ARC
  5
147
330
32
100
AcDbEntity
  8
1
  6
Continuous
 62
     3
100
AcDbCircle
 10
2066.842160938555
 20
-364.1356070182147
 30
0.0
 40
5.0
100
AcDbArc
 50
180.0
 51
-90.0
  0
ARC
  5
148
330
32
100
AcDbEntity
  8
1
  6
Continuous
 62
     3
100
AcDbCircle
 10
2042.842160938555
 20
-365.8856070182147
 30
0.0
 40
5.0
100
AcDbArc
 50
-90.0
 51
0.0
  0
ARC
  5
149
330
32
100
AcDbEntity
  8
1
  6
Continuous
 62
     3
100
AcDbCircle
 10
2059.245838204572
 20
-405.3856070182147
 30
0.0
 40
4.999999999999904
100
AcDbArc
 50
66.72293644951517
 51
90.0
  0
ARC
  5
14A
330
32
100
AcDbEntity
  8
1
  6
Continuous
 62
     3
100
AcDbCircle
 10
2042.342160938555
 20
-335.1356070182147
 30
0.0
 40
1.499999999998939
100
AcDbArc
 50
160.528779365495
 51
180.0
  0
ARC
  5
14B
330
32
100
AcDbEntity
  8
1
  6
Continuous
 62
     3
100
AcDbCircle
 10
2044.342160938555
 20
-335.1356070182147
 30
0.0
 40
1.499999999998939
100
AcDbArc
 50
160.528779365495
 51
180.0
  0
ARC
  5
14C
330
32
100
AcDbEntity
  8
1
  6
Continuous
 62
     3
100
AcDbCircle
 10
2033.742160938555
 20
-369.3856070182147
 30
0.0
 40
1.5
100
AcDbArc
 50
180.0
 51
-132.5799985792278
  0
ARC
  5
14D
330
32
100
AcDbEntity
  8
1
  6
Continuous
 62
     3
100
AcDbCircle
 10
2033.742160938555
 20
-369.3856070182147
 30
0.0
 40
1.499999999999401
100
AcDbArc
 50
-132.5799985792278
 51
-90.0
  0
ARC
  5
14E
330
32
100
AcDbEntity
  8
1
  6
Continuous
 62
     3
100
AcDbCircle
 10
2033.742160938555
 20
-401.8856070182147
 30
0.0
 40
1.5
100
AcDbArc
 50
90.0
 51
132.5799985792234
  0
ARC
  5
14F
330
32
100
AcDbEntity
  8
1
  6
Continuous
 62
     3
100
AcDbCircle
 10
2033.742160938555
 20
-401.8856070182147
 30
0.0
 40
1.499999999999527
100
AcDbArc
 50
132.5799985792234
 51
180.0
  0
ARC
  5
150
330
32
100
AcDbEntity
  8
1
  6
Continuous
 62
     3
100
AcDbCircle
 10
1897.342160938555
 20
-337.1356070182147
 30
0.0
 40
1.5
100
AcDbArc
 50
180.0
 51
-90.0
  0
ARC
  5
151
330
32
100
AcDbEntity
  8
1
  6
Continuous
 62
     3
100
AcDbCircle
 10
1897.342160938555
 20
-335.1356070182147
 30
0.0
 40
1.500000000000011
100
AcDbArc
 50
160.5287793655095
 51
180.0
  0
ARC
  5
152
330
32
100
AcDbEntity
  8
1
  6
Continuous
 62
     3
100
AcDbCircle
 10
1942.342160938555
 20
-337.1356070182147
 30
0.0
 40
1.5
100
AcDbArc
 50
-90.0
 51
0.0
  0
ARC
  5
153
330
32
100
AcDbEntity
  8
1
  6
Continuous
 62
     3
100
AcDbCircle
 10
1933.342160938555
 20
-340.1356070182147
 30
0.0
 40
1.5
100
AcDbArc
 50
90.0
 51
180.0
  0
ARC
  5
154
330
32
100
AcDbEntity
  8
1
  6
Continuous
 62
     3
100
AcDbCircle
 10
1906.342160938555
 20
-340.1356070182147
 30
0.0
 40
1.5
100
AcDbArc
 50
0.0
 51
90.0
  0
ARC
  5
155
330
32
100
AcDbEntity
  8
1
  6
Continuous
 62
     3
100
AcDbCircle
 10
1910.842160938555
 20
-340.6356070182147
 30
0.0
 40
3.0
100
AcDbArc
 50
180.0
 51
-99.59406822686053
  0
ARC
  5
156
330
32
100
AcDbEntity
  8
1
  6
Continuous
 62
     3
100
AcDbCircle
 10
1928.842160938555
 20
-340.6356070182147
 30
0.0
 40
2.999999999999981
100
AcDbArc
 50
-80.40593177313947
 51
0.0
  0
ARC
  5
157
330
32
100
AcDbEntity
  8
1
  6
Continuous
 62
     3
100
AcDbCircle
 10
1942.342160938555
 20
-335.1356070182147
 30
0.0
 40
1.5
100
AcDbArc
 50
0.0
 51
19.47122063449344
  0
ARC
  5
158
330
32
100
AcDbEntity
  8
1
  6
Continuous
 62
     3
100
AcDbCircle
 10
1805.942160938555
 20
-401.8856070182147
 30
0.0
 40
1.5
100
AcDbArc
 50
0.0
 51
47.42000142077663
  0
ARC
  5
159
330
32
100
AcDbEntity
  8
1
  6
Continuous
 62
     3
100
AcDbCircle
 10
1805.942160938555
 20
-401.8856070182147
 30
0.0
 40
1.499999999999527
100
AcDbArc
 50
47.42000142077663
 51
90.0
  0
ARC
  5
15A
330
32
100
AcDbEntity
  8
1
  6
Continuous
 62
     3
100
AcDbCircle
 10
1805.942160938555
 20
-369.3856070182147
 30
0.0
 40
1.5
100
AcDbArc
 50
-90.0
 51
-47.42000142077222
  0
ARC
  5
15B
330
32
100
AcDbEntity
  8
1
  6
Continuous
 62
     3
100
AcDbCircle
 10
1805.942160938555
 20
-369.3856070182147
 30
0.0
 40
1.499999999999401
100
AcDbArc
 50
-47.42000142077222
 51
0.0
  0
ARC
  5
15C
330
32
100
AcDbEntity
  8
1
  6
DASHED
 62
     2
100
AcDbCircle
 10
1805.942160938555
 20
-158.3902324546827
 30
0.0
 40
1.5
100
AcDbArc
 50
-90.0
 51
0.0
  0
ARC
  5
15D
330
32
100
AcDbEntity
  8
1
  6
DASHED
 62
     2
100
AcDbCircle
 10
1805.942160938555
 20
-190.8902324546827
 30
0.0
 40
1.5
100
AcDbArc
 50
0.0
 51
90.0
  0
ARC
  5
15E
330
32
100
AcDbEntity
  8
1
  6
DASHED
 62
     2
100
AcDbCircle
 10
1765.674211746124
 20
-194.1402324546827
 30
0.0
 40
3.0
100
AcDbArc
 50
90.0
 51
150.0000000000071
  0
ARC
  5
15F
330
32
100
AcDbEntity
  8
1
  6
DASHED
 62
     2
100
AcDbCircle
 10
1765.674211746124
 20
-155.1402324546828
 30
0.0
 40
3.00000000000064
100
AcDbArc
 50
-150.0000000000071
 51
-90.0
  0
ARC
  5
160
330
32
100
AcDbEntity
  8
1
  6
Continuous
 62
     3
100
AcDbCircle
 10
1659.447773299545
 20
-335.1356070182147
 30
0.0
 40
1.5
100
AcDbArc
 50
0.0
 51
19.47122063449055
  0
ARC
  5
161
330
32
100
AcDbEntity
  8
1
  6
Continuous
 62
     3
100
AcDbCircle
 10
1645.947773299545
 20
-340.6356070182147
 30
0.0
 40
2.999999999999981
100
AcDbArc
 50
-80.40593177313947
 51
0.0
  0
ARC
  5
162
330
32
100
AcDbEntity
  8
1
  6
Continuous
 62
     3
100
AcDbCircle
 10
1627.947773299545
 20
-340.6356070182147
 30
0.0
 40
3.0
100
AcDbArc
 50
180.0
 51
-99.59406822686053
  0
ARC
  5
163
330
32
100
AcDbEntity
  8
1
  6
Continuous
 62
     3
100
AcDbCircle
 10
1623.447773299545
 20
-340.1356070182147
 30
0.0
 40
1.5
100
AcDbArc
 50
0.0
 51
90.0
  0
ARC
  5
164
330
32
100
AcDbEntity
  8
1
  6
Continuous
 62
     3
100
AcDbCircle
 10
1650.447773299545
 20
-340.1356070182147
 30
0.0
 40
1.5
100
AcDbArc
 50
90.0
 51
180.0
  0
ARC
  5
165
330
32
100
AcDbEntity
  8
1
  6
Continuous
 62
     3
100
AcDbCircle
 10
1659.447773299545
 20
-337.1356070182147
 30
0.0
 40
1.5
100
AcDbArc
 50
-90.0
 51
0.0
  0
ARC
  5
166
330
32
100
AcDbEntity
  8
1
  6
Continuous
 62
     3
100
AcDbCircle
 10
1614.447773299545
 20
-335.1356070182147
 30
0.0
 40
1.499999999999796
100
AcDbArc
 50
160.5287793655066
 51
180.0
  0
ARC
  5
167
330
32
100
AcDbEntity
  8
1
  6
Continuous
 62
     3
100
AcDbCircle
 10
1614.447773299545
 20
-337.1356070182147
 30
0.0
 40
1.5
100
AcDbArc
 50
180.0
 51
-90.0
  0
ARC
  5
168
330
32
100
AcDbEntity
  8
1
  6
Continuous
 62
     3
100
AcDbCircle
 10
1795.342160938555
 20
-335.1356070182147
 30
0.0
 40
1.5
100
AcDbArc
 50
0.0
 51
19.47122063450502
  0
ARC
  5
169
330
32
100
AcDbEntity
  8
1
  6
Continuous
 62
     3
100
AcDbCircle
 10
1797.342160938555
 20
-335.1356070182147
 30
0.0
 40
1.5
100
AcDbArc
 50
0.0
 51
19.47122063450502
  0
ARC
  5
16A
330
32
100
AcDbEntity
  8
1
  6
Continuous
 62
     3
100
AcDbCircle
 10
1780.438483672538
 20
-405.3856070182147
 30
0.0
 40
5.0
100
AcDbArc
 50
90.0
 51
113.2770635504872
  0
ARC
  5
16B
330
32
100
AcDbEntity
  8
1
  6
Continuous
 62
     3
100
AcDbCircle
 10
1796.842160938555
 20
-365.8856070182147
 30
0.0
 40
5.0
100
AcDbArc
 50
180.0
 51
-90.0
  0
ARC
  5
16C
330
32
100
AcDbEntity
  8
1
  6
Continuous
 62
     3
100
AcDbCircle
 10
1772.842160938555
 20
-364.1356070182147
 30
0.0
 40
5.0
100
AcDbArc
 50
-90.0
 51
0.0
  0
ARC
  5
16D
330
32
100
AcDbEntity
  8
1
  6
Continuous
 62
     3
100
AcDbCircle
 10
1774.342160938555
 20
-335.1356070182147
 30
0.0
 40
1.500000000000868
100
AcDbArc
 50
160.5287793655211
 51
180.0
  0
ARC
  5
16E
330
32
100
AcDbEntity
  8
1
  6
Continuous
 62
     3
100
AcDbCircle
 10
1775.842160938555
 20
-340.6356070182147
 30
0.0
 40
3.0
100
AcDbArc
 50
180.0
 51
-90.0
  0
ARC
  5
16F
330
32
100
AcDbEntity
  8
1
  6
Continuous
 62
     3
100
AcDbCircle
 10
1793.342160938555
 20
-345.1356070182147
 30
0.0
 40
1.5
100
AcDbArc
 50
90.0
 51
180.0
  0
ARC
  5
170
330
32
100
AcDbEntity
  8
1
  6
Continuous
 62
     3
100
AcDbCircle
 10
1776.342160938555
 20
-345.1356070182147
 30
0.0
 40
1.5
100
AcDbArc
 50
0.0
 51
90.0
  0
ARC
  5
171
330
32
100
AcDbEntity
  8
1
  6
Continuous
 62
     3
100
AcDbCircle
 10
1793.842160938555
 20
-340.6356070182147
 30
0.0
 40
3.0
100
AcDbArc
 50
-90.0
 51
0.0
  0
ARC
  5
172
330
32
100
AcDbEntity
  8
1
  6
Continuous
 62
     3
100
AcDbCircle
 10
1795.842160938555
 20
-340.6356070182147
 30
0.0
 40
3.0
100
AcDbArc
 50
-90.0
 51
0.0
  0
TEXT
  5
174
330
32
100
AcDbEntity
  8
1
 62
     2
100
AcDbText
 10
1780.542160938554
 20
-380.4854762983756
 30
0.0
 40
5.0
  1
20
 41
1.045
  7
CONVERTER_1
100
AcDbText
  0
TEXT
  5
175
330
32
100
AcDbEntity
  8
1
 62
     2
100
AcDbText
 10
1777.742160938555
 20
-395.7857377380537
 30
0.0
 40
5.0
  1
20K
 41
1.045
  7
CONVERTER_1
100
AcDbText
  0
ENDBLK
  5
34
330
32
100
AcDbEntity
  8
0
100
AcDbBlockEnd
  0
BLOCK
  5
36
330
35
100
AcDbEntity
  8
0
100
AcDbBlockBegin
  2
7
 70
     0
 71
     0
 10
1612.447773299545
 20
-335.6356070182147
 30
0.0
  3
7
  1

  0
LINE
  5
176
330
35
100
AcDbEntity
  8
1
  6
DASH_CENTER
 62
     1
100
AcDbLine
 10
1636.947773299545
 20
-330.1488417011445
 30
0.0
 11
1636.947773299545
 21
-335.6356070182147
 31
0.0
  0
LINE
  5
177
330
35
100
AcDbEntity
  8
1
  6
Continuous
 62
     3
100
AcDbLine
 10
1612.447773299545
 20
-334.6356070182147
 30
0.0
 11
1612.447773299545
 21
-333.6356070182147
 31
0.0
  0
LINE
  5
178
330
35
100
AcDbEntity
  8
1
  6
Continuous
 62
     3
100
AcDbLine
 10
1612.447773299545
 20
-333.6356070182147
 30
0.0
 11
1661.447773299545
 21
-333.6356070182147
 31
0.0
  0
LINE
  5
179
330
35
100
AcDbEntity
  8
1
  6
Continuous
 62
     3
100
AcDbLine
 10
1661.447773299545
 20
-333.6356070182147
 30
0.0
 11
1661.447773299545
 21
-334.6356070182147
 31
0.0
  0
LINE
  5
17A
330
35
100
AcDbEntity
  8
1
  6
Continuous
 62
     3
100
AcDbLine
 10
1612.447773299545
 20
-334.6356070182147
 30
0.0
 11
1661.447773299545
 21
-334.6356070182147
 31
0.0
  0
LINE
  5
17B
330
35
100
AcDbEntity
  8
1
  6
Continuous
 62
     3
100
AcDbLine
 10
1895.342160938555
 20
-334.6356070182147
 30
0.0
 11
1944.342160938555
 21
-334.6356070182147
 31
0.0
  0
LINE
  5
17C
330
35
100
AcDbEntity
  8
1
  6
Continuous
 62
     3
100
AcDbLine
 10
1944.342160938555
 20
-333.6356070182147
 30
0.0
 11
1944.342160938555
 21
-334.6356070182147
 31
0.0
  0
LINE
  5
17D
330
35
100
AcDbEntity
  8
1
  6
Continuous
 62
     3
100
AcDbLine
 10
1895.342160938555
 20
-333.6356070182147
 30
0.0
 11
1944.342160938555
 21
-333.6356070182147
 31
0.0
  0
LINE
  5
17E
330
35
100
AcDbEntity
  8
1
  6
Continuous
 62
     3
100
AcDbLine
 10
1895.342160938555
 20
-334.6356070182147
 30
0.0
 11
1895.342160938555
 21
-333.6356070182147
 31
0.0
  0
LINE
  5
17F
330
35
100
AcDbEntity
  8
1
  6
DASH_CENTER
 62
     1
100
AcDbLine
 10
1919.842160938555
 20
-330.1488417011445
 30
0.0
 11
1919.842160938555
 21
-335.6356070182147
 31
0.0
  0
LINE
  5
180
330
35
100
AcDbEntity
  8
1
  6
DASH_CENTER
 62
     1
100
AcDbLine
 10
1784.842160938555
 20
-330.1488417011445
 30
0.0
 11
1784.842160938555
 21
-335.6356070182147
 31
0.0
  0
LINE
  5
181
330
35
100
AcDbEntity
  8
1
  6
Continuous
 62
     3
100
AcDbLine
 10
1773.342160938555
 20
-334.6356070182147
 30
0.0
 11
1773.342160938555
 21
-333.6356070182147
 31
0.0
  0
LINE
  5
182
330
35
100
AcDbEntity
  8
1
  6
Continuous
 62
     3
100
AcDbLine
 10
1773.342160938555
 20
-333.6356070182147
 30
0.0
 11
1796.342160938555
 21
-333.6356070182147
 31
0.0
  0
LINE
  5
183
330
35
100
AcDbEntity
  8
1
  6
Continuous
 62
     3
100
AcDbLine
 10
1796.342160938555
 20
-333.6356070182147
 30
0.0
 11
1796.342160938555
 21
-334.6356070182147
 31
0.0
  0
LINE
  5
184
330
35
100
AcDbEntity
  8
1
  6
Continuous
 62
     3
100
AcDbLine
 10
1773.342160938555
 20
-334.6356070182147
 30
0.0
 11
1796.342160938555
 21
-334.6356070182147
 31
0.0
  0
LINE
  5
185
330
35
100
AcDbEntity
  8
1
  6
Continuous
 62
     3
100
AcDbLine
 10
2043.342160938555
 20
-334.6356070182147
 30
0.0
 11
2066.342160938555
 21
-334.6356070182147
 31
0.0
  0
LINE
  5
186
330
35
100
AcDbEntity
  8
1
  6
Continuous
 62
     3
100
AcDbLine
 10
2066.342160938555
 20
-333.6356070182147
 30
0.0
 11
2066.342160938555
 21
-334.6356070182147
 31
0.0
  0
LINE
  5
187
330
35
100
AcDbEntity
  8
1
  6
Continuous
 62
     3
100
AcDbLine
 10
2043.342160938555
 20
-333.6356070182147
 30
0.0
 11
2066.342160938555
 21
-333.6356070182147
 31
0.0
  0
LINE
  5
188
330
35
100
AcDbEntity
  8
1
  6
Continuous
 62
     3
100
AcDbLine
 10
2043.342160938555
 20
-334.6356070182147
 30
0.0
 11
2043.342160938555
 21
-333.6356070182147
 31
0.0
  0
LINE
  5
189
330
35
100
AcDbEntity
  8
1
  6
DASH_CENTER
 62
     1
100
AcDbLine
 10
2054.842160938555
 20
-330.1488417011444
 30
0.0
 11
2054.842160938555
 21
-335.6356070182147
 31
0.0
  0
ENDBLK
  5
37
330
35
100
AcDbEntity
  8
0
100
AcDbBlockEnd
  0
BLOCK
  5
39
330
38
100
AcDbEntity
  8
0
100
AcDbBlockBegin
  2
3
 70
     0
 71
     0
 10
1613.947773299545
 20
-347.3739443588877
 30
0.0
  3
3
  1

  0
LINE
  5
18A
330
38
100
AcDbEntity
  8
1
  6
Continuous
 62
     3
100
AcDbLine
 10
1649.947773299545
 20
-338.6356172206779
 30
0.0
 11
1659.947773299545
 21
-338.6356172206779
 31
0.0
  0
LINE
  5
18B
330
38
100
AcDbEntity
  8
1
  6
DOT_CENTER
 62
     1
100
AcDbLine
 10
1654.947773299545
 20
-334.3673259097147
 30
0.0
 11
1654.947773299545
 21
-347.3739443588877
 31
0.0
  0
LINE
  5
18C
330
38
100
AcDbEntity
  8
1
  6
Continuous
 62
     3
100
AcDbLine
 10
1655.947773299545
 20
-339.6356172206779
 30
0.0
 11
1659.947773299545
 21
-339.6356172206779
 31
0.0
  0
LINE
  5
18D
330
38
100
AcDbEntity
  8
1
  6
Continuous
 62
     3
100
AcDbLine
 10
1654.947773299545
 20
-340.6356172206779
 30
0.0
 11
1653.947773299545
 21
-340.6356172206779
 31
0.0
  0
LINE
  5
18E
330
38
100
AcDbEntity
  8
1
  6
Continuous
 62
     3
100
AcDbLine
 10
1654.947773299545
 20
-340.6356172206779
 30
0.0
 11
1655.947773299545
 21
-339.6356172206779
 31
0.0
  0
LINE
  5
18F
330
38
100
AcDbEntity
  8
1
  6
Continuous
 62
     3
100
AcDbLine
 10
1653.947773299545
 20
-340.6356172206779
 30
0.0
 11
1650.447773299545
 21
-340.6356172206779
 31
0.0
  0
LINE
  5
190
330
38
100
AcDbEntity
  8
1
  6
Continuous
 62
     3
100
AcDbLine
 10
1654.947773299545
 20
-339.6356172206779
 30
0.0
 11
1655.947773299545
 21
-339.6356172206779
 31
0.0
  0
LINE
  5
191
330
38
100
AcDbEntity
  8
1
  6
DASH_CENTER
 62
     3
100
AcDbLine
 10
1654.947773299545
 20
-339.6356172206779
 30
0.0
 11
1654.947773299545
 21
-340.6356172206779
 31
0.0
  0
LINE
  5
192
330
38
100
AcDbEntity
  8
1
  6
Continuous
 62
     3
100
AcDbLine
 10
1654.947773299545
 20
-339.6356172206779
 30
0.0
 11
1653.947773299545
 21
-340.6356172206779
 31
0.0
  0
LINE
  5
193
330
38
100
AcDbEntity
  8
1
  6
Continuous
 62
     3
100
AcDbLine
 10
1659.947773299545
 20
-339.6356172206779
 30
0.0
 11
1659.947773299545
 21
-338.6356172206779
 31
0.0
  0
LINE
  5
194
330
38
100
AcDbEntity
  8
1
  6
Continuous
 62
     3
100
AcDbLine
 10
1649.947773299545
 20
-339.6356172206779
 30
0.0
 11
1654.947773299545
 21
-339.6356172206779
 31
0.0
  0
LINE
  5
195
330
38
100
AcDbEntity
  8
1
  6
Continuous
 62
     3
100
AcDbLine
 10
1649.947773299545
 20
-338.6356172206779
 30
0.0
 11
1649.947773299545
 21
-339.6356172206779
 31
0.0
  0
LINE
  5
196
330
38
100
AcDbEntity
  8
1
  6
Continuous
 62
     3
100
AcDbLine
 10
1650.447773299545
 20
-340.6356172206779
 30
0.0
 11
1650.447773299545
 21
-339.6356172206779
 31
0.0
  0
LINE
  5
197
330
38
100
AcDbEntity
  8
1
  6
Continuous
 62
     3
100
AcDbLine
 10
1659.447773299545
 20
-340.6356172206779
 30
0.0
 11
1659.447773299545
 21
-339.6356172206779
 31
0.0
  0
LINE
  5
198
330
38
100
AcDbEntity
  8
1
  6
Continuous
 62
     3
100
AcDbLine
 10
1659.447773299545
 20
-345.6356172206779
 30
0.0
 11
1659.447773299545
 21
-340.6356172206779
 31
0.0
  0
LINE
  5
199
330
38
100
AcDbEntity
  8
1
  6
Continuous
 62
     3
100
AcDbLine
 10
1650.447773299545
 20
-345.6356172206779
 30
0.0
 11
1659.447773299545
 21
-345.6356172206779
 31
0.0
  0
LINE
  5
19A
330
38
100
AcDbEntity
  8
1
  6
Continuous
 62
     3
100
AcDbLine
 10
1650.447773299545
 20
-340.6356172206779
 30
0.0
 11
1650.447773299545
 21
-345.6356172206779
 31
0.0
  0
LINE
  5
19B
330
38
100
AcDbEntity
  8
1
  6
Continuous
 62
     3
100
AcDbLine
 10
1659.447773299545
 20
-340.6356172206779
 30
0.0
 11
1654.947773299545
 21
-340.6356172206779
 31
0.0
  0
LINE
  5
19C
330
38
100
AcDbEntity
  8
1
  6
Continuous
 62
     3
100
AcDbLine
 10
1623.447773299545
 20
-340.6356172206779
 30
0.0
 11
1618.947773299545
 21
-340.6356172206779
 31
0.0
  0
LINE
  5
19D
330
38
100
AcDbEntity
  8
1
  6
Continuous
 62
     3
100
AcDbLine
 10
1614.447773299545
 20
-340.6356172206779
 30
0.0
 11
1614.447773299545
 21
-345.6356172206779
 31
0.0
  0
LINE
  5
19E
330
38
100
AcDbEntity
  8
1
  6
Continuous
 62
     3
100
AcDbLine
 10
1614.447773299545
 20
-345.6356172206779
 30
0.0
 11
1623.447773299545
 21
-345.6356172206779
 31
0.0
  0
LINE
  5
19F
330
38
100
AcDbEntity
  8
1
  6
Continuous
 62
     3
100
AcDbLine
 10
1623.447773299545
 20
-345.6356172206779
 30
0.0
 11
1623.447773299545
 21
-340.6356172206779
 31
0.0
  0
LINE
  5
1A0
330
38
100
AcDbEntity
  8
1
  6
Continuous
 62
     3
100
AcDbLine
 10
1623.447773299545
 20
-340.6356172206779
 30
0.0
 11
1623.447773299545
 21
-339.6356172206779
 31
0.0
  0
LINE
  5
1A1
330
38
100
AcDbEntity
  8
1
  6
Continuous
 62
     3
100
AcDbLine
 10
1614.447773299545
 20
-340.6356172206779
 30
0.0
 11
1614.447773299545
 21
-339.6356172206779
 31
0.0
  0
LINE
  5
1A2
330
38
100
AcDbEntity
  8
1
  6
Continuous
 62
     3
100
AcDbLine
 10
1613.947773299545
 20
-338.6356172206779
 30
0.0
 11
1613.947773299545
 21
-339.6356172206779
 31
0.0
  0
LINE
  5
1A3
330
38
100
AcDbEntity
  8
1
  6
Continuous
 62
     3
100
AcDbLine
 10
1613.947773299545
 20
-339.6356172206779
 30
0.0
 11
1618.947773299545
 21
-339.6356172206779
 31
0.0
  0
LINE
  5
1A4
330
38
100
AcDbEntity
  8
1
  6
Continuous
 62
     3
100
AcDbLine
 10
1623.947773299545
 20
-339.6356172206779
 30
0.0
 11
1623.947773299545
 21
-338.6356172206779
 31
0.0
  0
LINE
  5
1A5
330
38
100
AcDbEntity
  8
1
  6
Continuous
 62
     3
100
AcDbLine
 10
1618.947773299545
 20
-339.6356172206779
 30
0.0
 11
1617.947773299545
 21
-340.6356172206779
 31
0.0
  0
LINE
  5
1A6
330
38
100
AcDbEntity
  8
1
  6
DASH_CENTER
 62
     3
100
AcDbLine
 10
1618.947773299545
 20
-339.6356172206779
 30
0.0
 11
1618.947773299545
 21
-340.6356172206779
 31
0.0
  0
LINE
  5
1A7
330
38
100
AcDbEntity
  8
1
  6
Continuous
 62
     3
100
AcDbLine
 10
1618.947773299545
 20
-339.6356172206779
 30
0.0
 11
1619.947773299545
 21
-339.6356172206779
 31
0.0
  0
LINE
  5
1A8
330
38
100
AcDbEntity
  8
1
  6
Continuous
 62
     3
100
AcDbLine
 10
1617.947773299545
 20
-340.6356172206779
 30
0.0
 11
1614.447773299545
 21
-340.6356172206779
 31
0.0
  0
LINE
  5
1A9
330
38
100
AcDbEntity
  8
1
  6
Continuous
 62
     3
100
AcDbLine
 10
1618.947773299545
 20
-340.6356172206779
 30
0.0
 11
1619.947773299545
 21
-339.6356172206779
 31
0.0
  0
LINE
  5
1AA
330
38
100
AcDbEntity
  8
1
  6
Continuous
 62
     3
100
AcDbLine
 10
1618.947773299545
 20
-340.6356172206779
 30
0.0
 11
1617.947773299545
 21
-340.6356172206779
 31
0.0
  0
LINE
  5
1AB
330
38
100
AcDbEntity
  8
1
  6
Continuous
 62
     3
100
AcDbLine
 10
1619.947773299545
 20
-339.6356172206779
 30
0.0
 11
1623.947773299545
 21
-339.6356172206779
 31
0.0
  0
LINE
  5
1AC
330
38
100
AcDbEntity
  8
1
  6
DOT_CENTER
 62
     1
100
AcDbLine
 10
1618.947773299545
 20
-334.3673259097147
 30
0.0
 11
1618.947773299545
 21
-347.3739443588877
 31
0.0
  0
LINE
  5
1AD
330
38
100
AcDbEntity
  8
1
  6
Continuous
 62
     3
100
AcDbLine
 10
1613.947773299545
 20
-338.6356172206779
 30
0.0
 11
1623.947773299545
 21
-338.6356172206779
 31
0.0
  0
LINE
  5
1AE
330
38
100
AcDbEntity
  8
1
  6
Continuous
 62
     3
100
AcDbLine
 10
1896.842160938555
 20
-338.6356172206779
 30
0.0
 11
1906.842160938555
 21
-338.6356172206779
 31
0.0
  0
LINE
  5
1AF
330
38
100
AcDbEntity
  8
1
  6
DOT_CENTER
 62
     1
100
AcDbLine
 10
1901.842160938555
 20
-334.3673259097147
 30
0.0
 11
1901.842160938555
 21
-347.3739443588877
 31
0.0
  0
LINE
  5
1B0
330
38
100
AcDbEntity
  8
1
  6
Continuous
 62
     3
100
AcDbLine
 10
1902.842160938555
 20
-339.6356172206779
 30
0.0
 11
1906.842160938555
 21
-339.6356172206779
 31
0.0
  0
LINE
  5
1B1
330
38
100
AcDbEntity
  8
1
  6
Continuous
 62
     3
100
AcDbLine
 10
1901.842160938555
 20
-340.6356172206779
 30
0.0
 11
1900.842160938555
 21
-340.6356172206779
 31
0.0
  0
LINE
  5
1B2
330
38
100
AcDbEntity
  8
1
  6
Continuous
 62
     3
100
AcDbLine
 10
1901.842160938555
 20
-340.6356172206779
 30
0.0
 11
1902.842160938555
 21
-339.6356172206779
 31
0.0
  0
LINE
  5
1B3
330
38
100
AcDbEntity
  8
1
  6
Continuous
 62
     3
100
AcDbLine
 10
1900.842160938555
 20
-340.6356172206779
 30
0.0
 11
1897.342160938555
 21
-340.6356172206779
 31
0.0
  0
LINE
  5
1B4
330
38
100
AcDbEntity
  8
1
  6
Continuous
 62
     3
100
AcDbLine
 10
1901.842160938555
 20
-339.6356172206779
 30
0.0
 11
1902.842160938555
 21
-339.6356172206779
 31
0.0
  0
LINE
  5
1B5
330
38
100
AcDbEntity
  8
1
  6
DASH_CENTER
 62
     3
100
AcDbLine
 10
1901.842160938555
 20
-339.6356172206779
 30
0.0
 11
1901.842160938555
 21
-340.6356172206779
 31
0.0
  0
LINE
  5
1B6
330
38
100
AcDbEntity
  8
1
  6
Continuous
 62
     3
100
AcDbLine
 10
1901.842160938555
 20
-339.6356172206779
 30
0.0
 11
1900.842160938555
 21
-340.6356172206779
 31
0.0
  0
LINE
  5
1B7
330
38
100
AcDbEntity
  8
1
  6
Continuous
 62
     3
100
AcDbLine
 10
1906.842160938555
 20
-339.6356172206779
 30
0.0
 11
1906.842160938555
 21
-338.6356172206779
 31
0.0
  0
LINE
  5
1B8
330
38
100
AcDbEntity
  8
1
  6
Continuous
 62
     3
100
AcDbLine
 10
1896.842160938555
 20
-339.6356172206779
 30
0.0
 11
1901.842160938555
 21
-339.6356172206779
 31
0.0
  0
LINE
  5
1B9
330
38
100
AcDbEntity
  8
1
  6
Continuous
 62
     3
100
AcDbLine
 10
1896.842160938555
 20
-338.6356172206779
 30
0.0
 11
1896.842160938555
 21
-339.6356172206779
 31
0.0
  0
LINE
  5
1BA
330
38
100
AcDbEntity
  8
1
  6
Continuous
 62
     3
100
AcDbLine
 10
1897.342160938555
 20
-340.6356172206779
 30
0.0
 11
1897.342160938555
 21
-339.6356172206779
 31
0.0
  0
LINE
  5
1BB
330
38
100
AcDbEntity
  8
1
  6
Continuous
 62
     3
100
AcDbLine
 10
1906.342160938555
 20
-340.6356172206779
 30
0.0
 11
1906.342160938555
 21
-339.6356172206779
 31
0.0
  0
LINE
  5
1BC
330
38
100
AcDbEntity
  8
1
  6
Continuous
 62
     3
100
AcDbLine
 10
1906.342160938555
 20
-345.6356172206779
 30
0.0
 11
1906.342160938555
 21
-340.6356172206779
 31
0.0
  0
LINE
  5
1BD
330
38
100
AcDbEntity
  8
1
  6
Continuous
 62
     3
100
AcDbLine
 10
1897.342160938555
 20
-345.6356172206779
 30
0.0
 11
1906.342160938555
 21
-345.6356172206779
 31
0.0
  0
LINE
  5
1BE
330
38
100
AcDbEntity
  8
1
  6
Continuous
 62
     3
100
AcDbLine
 10
1897.342160938555
 20
-340.6356172206779
 30
0.0
 11
1897.342160938555
 21
-345.6356172206779
 31
0.0
  0
LINE
  5
1BF
330
38
100
AcDbEntity
  8
1
  6
Continuous
 62
     3
100
AcDbLine
 10
1906.342160938555
 20
-340.6356172206779
 30
0.0
 11
1901.842160938555
 21
-340.6356172206779
 31
0.0
  0
LINE
  5
1C0
330
38
100
AcDbEntity
  8
1
  6
Continuous
 62
     3
100
AcDbLine
 10
1942.342160938555
 20
-340.6356172206779
 30
0.0
 11
1937.842160938555
 21
-340.6356172206779
 31
0.0
  0
LINE
  5
1C1
330
38
100
AcDbEntity
  8
1
  6
Continuous
 62
     3
100
AcDbLine
 10
1933.342160938555
 20
-340.6356172206779
 30
0.0
 11
1933.342160938555
 21
-345.6356172206779
 31
0.0
  0
LINE
  5
1C2
330
38
100
AcDbEntity
  8
1
  6
Continuous
 62
     3
100
AcDbLine
 10
1933.342160938555
 20
-345.6356172206779
 30
0.0
 11
1942.342160938555
 21
-345.6356172206779
 31
0.0
  0
LINE
  5
1C3
330
38
100
AcDbEntity
  8
1
  6
Continuous
 62
     3
100
AcDbLine
 10
1942.342160938555
 20
-345.6356172206779
 30
0.0
 11
1942.342160938555
 21
-340.6356172206779
 31
0.0
  0
LINE
  5
1C4
330
38
100
AcDbEntity
  8
1
  6
Continuous
 62
     3
100
AcDbLine
 10
1942.342160938555
 20
-340.6356172206779
 30
0.0
 11
1942.342160938555
 21
-339.6356172206779
 31
0.0
  0
LINE
  5
1C5
330
38
100
AcDbEntity
  8
1
  6
Continuous
 62
     3
100
AcDbLine
 10
1933.342160938555
 20
-340.6356172206779
 30
0.0
 11
1933.342160938555
 21
-339.6356172206779
 31
0.0
  0
LINE
  5
1C6
330
38
100
AcDbEntity
  8
1
  6
Continuous
 62
     3
100
AcDbLine
 10
1932.842160938555
 20
-338.6356172206779
 30
0.0
 11
1932.842160938555
 21
-339.6356172206779
 31
0.0
  0
LINE
  5
1C7
330
38
100
AcDbEntity
  8
1
  6
Continuous
 62
     3
100
AcDbLine
 10
1932.842160938555
 20
-339.6356172206779
 30
0.0
 11
1937.842160938555
 21
-339.6356172206779
 31
0.0
  0
LINE
  5
1C8
330
38
100
AcDbEntity
  8
1
  6
Continuous
 62
     3
100
AcDbLine
 10
1942.842160938555
 20
-339.6356172206779
 30
0.0
 11
1942.842160938555
 21
-338.6356172206779
 31
0.0
  0
LINE
  5
1C9
330
38
100
AcDbEntity
  8
1
  6
Continuous
 62
     3
100
AcDbLine
 10
1937.842160938555
 20
-339.6356172206779
 30
0.0
 11
1936.842160938555
 21
-340.6356172206779
 31
0.0
  0
LINE
  5
1CA
330
38
100
AcDbEntity
  8
1
  6
DASH_CENTER
 62
     3
100
AcDbLine
 10
1937.842160938555
 20
-339.6356172206779
 30
0.0
 11
1937.842160938555
 21
-340.6356172206779
 31
0.0
  0
LINE
  5
1CB
330
38
100
AcDbEntity
  8
1
  6
Continuous
 62
     3
100
AcDbLine
 10
1937.842160938555
 20
-339.6356172206779
 30
0.0
 11
1938.842160938555
 21
-339.6356172206779
 31
0.0
  0
LINE
  5
1CC
330
38
100
AcDbEntity
  8
1
  6
Continuous
 62
     3
100
AcDbLine
 10
1936.842160938555
 20
-340.6356172206779
 30
0.0
 11
1933.342160938555
 21
-340.6356172206779
 31
0.0
  0
LINE
  5
1CD
330
38
100
AcDbEntity
  8
1
  6
Continuous
 62
     3
100
AcDbLine
 10
1937.842160938555
 20
-340.6356172206779
 30
0.0
 11
1938.842160938555
 21
-339.6356172206779
 31
0.0
  0
LINE
  5
1CE
330
38
100
AcDbEntity
  8
1
  6
Continuous
 62
     3
100
AcDbLine
 10
1937.842160938555
 20
-340.6356172206779
 30
0.0
 11
1936.842160938555
 21
-340.6356172206779
 31
0.0
  0
LINE
  5
1CF
330
38
100
AcDbEntity
  8
1
  6
Continuous
 62
     3
100
AcDbLine
 10
1938.842160938555
 20
-339.6356172206779
 30
0.0
 11
1942.842160938555
 21
-339.6356172206779
 31
0.0
  0
LINE
  5
1D0
330
38
100
AcDbEntity
  8
1
  6
DOT_CENTER
 62
     1
100
AcDbLine
 10
1937.842160938555
 20
-334.3673259097147
 30
0.0
 11
1937.842160938555
 21
-347.3739443588877
 31
0.0
  0
LINE
  5
1D1
330
38
100
AcDbEntity
  8
1
  6
Continuous
 62
     3
100
AcDbLine
 10
1932.842160938555
 20
-338.6356172206779
 30
0.0
 11
1942.842160938555
 21
-338.6356172206779
 31
0.0
  0
LINE
  5
1D2
330
38
100
AcDbEntity
  8
1
  6
Continuous
 62
     3
100
AcDbLine
 10
1779.842160938555
 20
-338.6356172206779
 30
0.0
 11
1789.842160938555
 21
-338.6356172206779
 31
0.0
  0
LINE
  5
1D3
330
38
100
AcDbEntity
  8
1
  6
DOT_CENTER
 62
     1
100
AcDbLine
 10
1784.842160938555
 20
-334.3673259097147
 30
0.0
 11
1784.842160938555
 21
-347.3739443588877
 31
0.0
  0
LINE
  5
1D4
330
38
100
AcDbEntity
  8
1
  6
Continuous
 62
     3
100
AcDbLine
 10
1785.842160938555
 20
-339.6356172206779
 30
0.0
 11
1789.842160938555
 21
-339.6356172206779
 31
0.0
  0
LINE
  5
1D5
330
38
100
AcDbEntity
  8
1
  6
Continuous
 62
     3
100
AcDbLine
 10
1784.842160938555
 20
-340.6356172206779
 30
0.0
 11
1783.842160938555
 21
-340.6356172206779
 31
0.0
  0
LINE
  5
1D6
330
38
100
AcDbEntity
  8
1
  6
Continuous
 62
     3
100
AcDbLine
 10
1784.842160938555
 20
-340.6356172206779
 30
0.0
 11
1785.842160938555
 21
-339.6356172206779
 31
0.0
  0
LINE
  5
1D7
330
38
100
AcDbEntity
  8
1
  6
Continuous
 62
     3
100
AcDbLine
 10
1783.842160938555
 20
-340.6356172206779
 30
0.0
 11
1780.342160938555
 21
-340.6356172206779
 31
0.0
  0
LINE
  5
1D8
330
38
100
AcDbEntity
  8
1
  6
Continuous
 62
     3
100
AcDbLine
 10
1784.842160938555
 20
-339.6356172206779
 30
0.0
 11
1785.842160938555
 21
-339.6356172206779
 31
0.0
  0
LINE
  5
1D9
330
38
100
AcDbEntity
  8
1
  6
DASH_CENTER
 62
     3
100
AcDbLine
 10
1784.842160938555
 20
-339.6356172206779
 30
0.0
 11
1784.842160938555
 21
-340.6356172206779
 31
0.0
  0
LINE
  5
1DA
330
38
100
AcDbEntity
  8
1
  6
Continuous
 62
     3
100
AcDbLine
 10
1784.842160938555
 20
-339.6356172206779
 30
0.0
 11
1783.842160938555
 21
-340.6356172206779
 31
0.0
  0
LINE
  5
1DB
330
38
100
AcDbEntity
  8
1
  6
Continuous
 62
     3
100
AcDbLine
 10
1789.842160938555
 20
-339.6356172206779
 30
0.0
 11
1789.842160938555
 21
-338.6356172206779
 31
0.0
  0
LINE
  5
1DC
330
38
100
AcDbEntity
  8
1
  6
Continuous
 62
     3
100
AcDbLine
 10
1779.842160938555
 20
-339.6356172206779
 30
0.0
 11
1784.842160938555
 21
-339.6356172206779
 31
0.0
  0
LINE
  5
1DD
330
38
100
AcDbEntity
  8
1
  6
Continuous
 62
     3
100
AcDbLine
 10
1779.842160938555
 20
-338.6356172206779
 30
0.0
 11
1779.842160938555
 21
-339.6356172206779
 31
0.0
  0
LINE
  5
1DE
330
38
100
AcDbEntity
  8
1
  6
Continuous
 62
     3
100
AcDbLine
 10
1780.342160938555
 20
-340.6356172206779
 30
0.0
 11
1780.342160938555
 21
-339.6356172206779
 31
0.0
  0
LINE
  5
1DF
330
38
100
AcDbEntity
  8
1
  6
Continuous
 62
     3
100
AcDbLine
 10
1789.342160938555
 20
-340.6356172206779
 30
0.0
 11
1789.342160938555
 21
-339.6356172206779
 31
0.0
  0
LINE
  5
1E0
330
38
100
AcDbEntity
  8
1
  6
Continuous
 62
     3
100
AcDbLine
 10
1789.342160938555
 20
-345.6356172206779
 30
0.0
 11
1789.342160938555
 21
-340.6356172206779
 31
0.0
  0
LINE
  5
1E1
330
38
100
AcDbEntity
  8
1
  6
Continuous
 62
     3
100
AcDbLine
 10
1780.342160938555
 20
-345.6356172206779
 30
0.0
 11
1789.342160938555
 21
-345.6356172206779
 31
0.0
  0
LINE
  5
1E2
330
38
100
AcDbEntity
  8
1
  6
Continuous
 62
     3
100
AcDbLine
 10
1780.342160938555
 20
-340.6356172206779
 30
0.0
 11
1780.342160938555
 21
-345.6356172206779
 31
0.0
  0
LINE
  5
1E3
330
38
100
AcDbEntity
  8
1
  6
Continuous
 62
     3
100
AcDbLine
 10
1789.342160938555
 20
-340.6356172206779
 30
0.0
 11
1784.842160938555
 21
-340.6356172206779
 31
0.0
  0
LINE
  5
1E4
330
38
100
AcDbEntity
  8
1
  6
Continuous
 62
     3
100
AcDbLine
 10
2059.342160938555
 20
-340.6356172206779
 30
0.0
 11
2054.842160938555
 21
-340.6356172206779
 31
0.0
  0
LINE
  5
1E5
330
38
100
AcDbEntity
  8
1
  6
Continuous
 62
     3
100
AcDbLine
 10
2050.342160938555
 20
-340.6356172206779
 30
0.0
 11
2050.342160938555
 21
-345.6356172206779
 31
0.0
  0
LINE
  5
1E6
330
38
100
AcDbEntity
  8
1
  6
Continuous
 62
     3
100
AcDbLine
 10
2050.342160938555
 20
-345.6356172206779
 30
0.0
 11
2059.342160938555
 21
-345.6356172206779
 31
0.0
  0
LINE
  5
1E7
330
38
100
AcDbEntity
  8
1
  6
Continuous
 62
     3
100
AcDbLine
 10
2059.342160938555
 20
-345.6356172206779
 30
0.0
 11
2059.342160938555
 21
-340.6356172206779
 31
0.0
  0
LINE
  5
1E8
330
38
100
AcDbEntity
  8
1
  6
Continuous
 62
     3
100
AcDbLine
 10
2059.342160938555
 20
-340.6356172206779
 30
0.0
 11
2059.342160938555
 21
-339.6356172206779
 31
0.0
  0
LINE
  5
1E9
330
38
100
AcDbEntity
  8
1
  6
Continuous
 62
     3
100
AcDbLine
 10
2050.342160938555
 20
-340.6356172206779
 30
0.0
 11
2050.342160938555
 21
-339.6356172206779
 31
0.0
  0
LINE
  5
1EA
330
38
100
AcDbEntity
  8
1
  6
Continuous
 62
     3
100
AcDbLine
 10
2049.842160938555
 20
-338.6356172206779
 30
0.0
 11
2049.842160938555
 21
-339.6356172206779
 31
0.0
  0
LINE
  5
1EB
330
38
100
AcDbEntity
  8
1
  6
Continuous
 62
     3
100
AcDbLine
 10
2049.842160938555
 20
-339.6356172206779
 30
0.0
 11
2054.842160938555
 21
-339.6356172206779
 31
0.0
  0
LINE
  5
1EC
330
38
100
AcDbEntity
  8
1
  6
Continuous
 62
     3
100
AcDbLine
 10
2059.842160938555
 20
-339.6356172206779
 30
0.0
 11
2059.842160938555
 21
-338.6356172206779
 31
0.0
  0
LINE
  5
1ED
330
38
100
AcDbEntity
  8
1
  6
Continuous
 62
     3
100
AcDbLine
 10
2054.842160938555
 20
-339.6356172206779
 30
0.0
 11
2053.842160938555
 21
-340.6356172206779
 31
0.0
  0
LINE
  5
1EE
330
38
100
AcDbEntity
  8
1
  6
DASH_CENTER
 62
     3
100
AcDbLine
 10
2054.842160938555
 20
-339.6356172206779
 30
0.0
 11
2054.842160938555
 21
-340.6356172206779
 31
0.0
  0
LINE
  5
1EF
330
38
100
AcDbEntity
  8
1
  6
Continuous
 62
     3
100
AcDbLine
 10
2054.842160938555
 20
-339.6356172206779
 30
0.0
 11
2055.842160938555
 21
-339.6356172206779
 31
0.0
  0
LINE
  5
1F0
330
38
100
AcDbEntity
  8
1
  6
Continuous
 62
     3
100
AcDbLine
 10
2053.842160938555
 20
-340.6356172206779
 30
0.0
 11
2050.342160938555
 21
-340.6356172206779
 31
0.0
  0
LINE
  5
1F1
330
38
100
AcDbEntity
  8
1
  6
Continuous
 62
     3
100
AcDbLine
 10
2054.842160938555
 20
-340.6356172206779
 30
0.0
 11
2055.842160938555
 21
-339.6356172206779
 31
0.0
  0
LINE
  5
1F2
330
38
100
AcDbEntity
  8
1
  6
Continuous
 62
     3
100
AcDbLine
 10
2054.842160938555
 20
-340.6356172206779
 30
0.0
 11
2053.842160938555
 21
-340.6356172206779
 31
0.0
  0
LINE
  5
1F3
330
38
100
AcDbEntity
  8
1
  6
Continuous
 62
     3
100
AcDbLine
 10
2055.842160938555
 20
-339.6356172206779
 30
0.0
 11
2059.842160938555
 21
-339.6356172206779
 31
0.0
  0
LINE
  5
1F4
330
38
100
AcDbEntity
  8
1
  6
DOT_CENTER
 62
     1
100
AcDbLine
 10
2054.842160938555
 20
-334.2211218609961
 30
0.0
 11
2054.842160938555
 21
-347.2277403101691
 31
0.0
  0
LINE
  5
1F5
330
38
100
AcDbEntity
  8
1
  6
Continuous
 62
     3
100
AcDbLine
 10
2049.842160938555
 20
-338.6356172206779
 30
0.0
 11
2059.842160938555
 21
-338.6356172206779
 31
0.0
  0
ENDBLK
  5
3A
330
38
100
AcDbEntity
  8
0
100
AcDbBlockEnd
  0
BLOCK
  5
3C
330
3B
100
AcDbEntity
  8
0
100
AcDbBlockBegin
  2
2-2
 70
     0
 71
     0
 10
1599.947773299545
 20
-337.6696805778882
 30
0.0
  3
2-2
  1

  0
LINE
  5
1F6
330
3B
100
AcDbEntity
  8
1
  6
DOT_CENTER
 62
     1
100
AcDbLine
 10
1652.826044580403
 20
-312.7356070182146
 30
0.0
 11
1666.062379313117
 21
-312.7356070182146
 31
0.0
  0
LINE
  5
1F7
330
3B
100
AcDbEntity
  8
1
  6
DOT_CENTER
 62
     1
100
AcDbLine
 10
1644.947773299545
 20
-315.995256840369
 30
0.0
 11
1644.947773299545
 21
-324.7927216705297
 31
0.0
  0
LINE
  5
1F8
330
3B
100
AcDbEntity
  8
1
  6
Continuous
 62
     3
100
AcDbLine
 10
1705.842160938555
 20
-315.7356070182148
 30
0.0
 11
1705.842160938555
 21
-311.8356070182147
 31
0.0
  0
LINE
  5
1F9
330
3B
100
AcDbEntity
  8
1
  6
Continuous
 62
     3
100
AcDbLine
 10
1706.842160938555
 20
-311.8356070182147
 30
0.0
 11
1706.842160938555
 21
-315.7356070182148
 31
0.0
  0
LINE
  5
1FA
330
3B
100
AcDbEntity
  8
1
  6
Continuous
 62
     2
100
AcDbLine
 10
1664.647773299545
 20
-312.7356070182146
 30
0.0
 11
1664.947773299545
 21
-312.7356070182146
 31
0.0
  0
LINE
  5
1FB
330
3B
100
AcDbEntity
  8
1
  6
Continuous
 62
     2
100
AcDbLine
 10
1654.247773299545
 20
-312.7356070182146
 30
0.0
 11
1653.947773299545
 21
-312.7356070182146
 31
0.0
  0
LINE
  5
1FC
330
3B
100
AcDbEntity
  8
1
  6
Continuous
 62
     4
100
AcDbLine
 10
1644.447773299545
 20
-330.7356070182146
 30
0.0
 11
1645.447773299545
 21
-330.7356070182146
 31
0.0
  0
LINE
  5
1FD
330
3B
100
AcDbEntity
  8
1
  6
Continuous
 62
     4
100
AcDbLine
 10
1645.947773299545
 20
-329.7356070182146
 30
0.0
 11
1643.947773299545
 21
-329.7356070182146
 31
0.0
  0
LINE
  5
1FE
330
3B
100
AcDbEntity
  8
1
  6
Continuous
 62
     4
100
AcDbLine
 10
1642.947773299545
 20
-328.7356070182146
 30
0.0
 11
1646.947773299545
 21
-328.7356070182146
 31
0.0
  0
LINE
  5
1FF
330
3B
100
AcDbEntity
  8
1
  6
Continuous
 62
     4
100
AcDbLine
 10
1644.947773299545
 20
-325.5356070182146
 30
0.0
 11
1644.947773299545
 21
-328.7356070182146
 31
0.0
  0
LINE
  5
200
330
3B
100
AcDbEntity
  8
1
  6
DASH_CENTER
 62
     1
100
AcDbLine
 10
1659.447773299545
 20
-318.2356070182146
 30
0.0
 11
1659.447773299545
 21
-317.9356070182145
 31
0.0
  0
LINE
  5
201
330
3B
100
AcDbEntity
  8
1
  6
DOT_CENTER
 62
     1
100
AcDbLine
 10
1640.8908331535
 20
-320.5356070182146
 30
0.0
 11
1649.295009344913
 21
-320.5356070182146
 31
0.0
  0
LINE
  5
202
330
3B
100
AcDbEntity
  8
1
  6
Continuous
 62
     3
100
AcDbLine
 10
1599.947773299545
 20
-315.5356070182146
 30
0.0
 11
1601.947773299545
 21
-315.5356070182146
 31
0.0
  0
LINE
  5
203
330
3B
100
AcDbEntity
  8
1
  6
Continuous
 62
     3
100
AcDbLine
 10
1601.947773299545
 20
-315.5356070182146
 30
0.0
 11
1602.725067567179
 21
-328.8718801412321
 31
0.0
  0
LINE
  5
204
330
3B
100
AcDbEntity
  8
1
  6
Continuous
 62
     3
100
AcDbLine
 10
1671.17047903191
 20
-328.8718801412321
 30
0.0
 11
1671.947773299545
 21
-315.5356070182146
 31
0.0
  0
LINE
  5
205
330
3B
100
AcDbEntity
  8
1
  6
Continuous
 62
     3
100
AcDbLine
 10
1671.947773299545
 20
-315.5356070182146
 30
0.0
 11
1673.947773299545
 21
-315.5356070182146
 31
0.0
  0
LINE
  5
206
330
3B
100
AcDbEntity
  8
1
  6
Continuous
 62
     3
100
AcDbLine
 10
1673.947773299545
 20
-315.5356070182146
 30
0.0
 11
1673.947773299545
 21
-311.2356070182146
 31
0.0
  0
LINE
  5
207
330
3B
100
AcDbEntity
  8
1
  6
Continuous
 62
     3
100
AcDbLine
 10
1599.947773299545
 20
-315.5356070182146
 30
0.0
 11
1599.947773299545
 21
-311.2356070182146
 31
0.0
  0
LINE
  5
208
330
3B
100
AcDbEntity
  8
1
  6
Continuous
 62
     3
100
AcDbLine
 10
1671.947773299545
 20
-315.5356070182146
 30
0.0
 11
1668.064617269352
 21
-315.5356070182144
 31
0.0
  0
LINE
  5
209
330
3B
100
AcDbEntity
  8
1
  6
Continuous
 62
     3
100
AcDbLine
 10
1613.947773299545
 20
-332.6356070182147
 30
0.0
 11
1606.718083346178
 21
-332.6356070182147
 31
0.0
  0
LINE
  5
20A
330
3B
100
AcDbEntity
  8
1
  6
Continuous
 62
     3
100
AcDbLine
 10
1667.177463252911
 20
-332.6356070182147
 30
0.0
 11
1649.947773299545
 21
-332.6356070182147
 31
0.0
  0
LINE
  5
20B
330
3B
100
AcDbEntity
  8
1
  6
DASH_CENTER
 62
     1
100
AcDbLine
 10
1636.947773299545
 20
-307.7356070182146
 30
0.0
 11
1636.947773299545
 21
-335.9506252209354
 31
0.0
  0
LINE
  5
20C
330
3B
100
AcDbEntity
  8
1
  6
Continuous
 62
     3
100
AcDbLine
 10
1613.947773299545
 20
-333.6356070182147
 30
0.0
 11
1613.947773299545
 21
-332.6356070182147
 31
0.0
  0
LINE
  5
20D
330
3B
100
AcDbEntity
  8
1
  6
Continuous
 62
     3
100
AcDbLine
 10
1623.947773299545
 20
-333.6356070182147
 30
0.0
 11
1613.947773299545
 21
-333.6356070182147
 31
0.0
  0
LINE
  5
20E
330
3B
100
AcDbEntity
  8
1
  6
Continuous
 62
     3
100
AcDbLine
 10
1623.947773299545
 20
-332.6356070182147
 30
0.0
 11
1623.947773299545
 21
-333.6356070182147
 31
0.0
  0
LINE
  5
20F
330
3B
100
AcDbEntity
  8
1
  6
Continuous
 62
     3
100
AcDbLine
 10
1623.947773299545
 20
-332.6356070182147
 30
0.0
 11
1613.947773299545
 21
-332.6356070182147
 31
0.0
  0
LINE
  5
210
330
3B
100
AcDbEntity
  8
1
  6
DASH_CENTER
 62
     1
100
AcDbLine
 10
1618.947773299545
 20
-335.3951147887534
 30
0.0
 11
1618.947773299545
 21
-330.7635356978855
 31
0.0
  0
LINE
  5
211
330
3B
100
AcDbEntity
  8
1
  6
Continuous
 62
     3
100
AcDbLine
 10
1626.947773299545
 20
-333.6356070182147
 30
0.0
 11
1626.947773299545
 21
-332.6356070182147
 31
0.0
  0
LINE
  5
212
330
3B
100
AcDbEntity
  8
1
  6
Continuous
 62
     3
100
AcDbLine
 10
1623.947773299545
 20
-332.6356070182147
 30
0.0
 11
1626.947773299545
 21
-332.6356070182147
 31
0.0
  0
LINE
  5
213
330
3B
100
AcDbEntity
  8
1
  6
Continuous
 62
     3
100
AcDbLine
 10
1646.947773299545
 20
-333.6356070182147
 30
0.0
 11
1626.947773299545
 21
-333.6356070182147
 31
0.0
  0
LINE
  5
214
330
3B
100
AcDbEntity
  8
1
  6
Continuous
 62
     3
100
AcDbLine
 10
1646.947773299545
 20
-332.6356070182147
 30
0.0
 11
1646.947773299545
 21
-333.6356070182147
 31
0.0
  0
LINE
  5
215
330
3B
100
AcDbEntity
  8
1
  6
Continuous
 62
     3
100
AcDbLine
 10
1626.947773299545
 20
-332.6356070182147
 30
0.0
 11
1639.947773299545
 21
-332.6356070182147
 31
0.0
  0
LINE
  5
216
330
3B
100
AcDbEntity
  8
1
  6
Continuous
 62
     3
100
AcDbLine
 10
1649.947773299545
 20
-333.6356070182147
 30
0.0
 11
1649.947773299545
 21
-332.6356070182147
 31
0.0
  0
LINE
  5
217
330
3B
100
AcDbEntity
  8
1
  6
Continuous
 62
     3
100
AcDbLine
 10
1646.947773299545
 20
-332.6356070182147
 30
0.0
 11
1649.947773299545
 21
-332.6356070182147
 31
0.0
  0
LINE
  5
218
330
3B
100
AcDbEntity
  8
1
  6
Continuous
 62
     3
100
AcDbLine
 10
1659.947773299545
 20
-333.6356070182147
 30
0.0
 11
1649.947773299545
 21
-333.6356070182147
 31
0.0
  0
LINE
  5
219
330
3B
100
AcDbEntity
  8
1
  6
Continuous
 62
     3
100
AcDbLine
 10
1659.947773299545
 20
-332.6264631267069
 30
0.0
 11
1659.947773299545
 21
-333.6356070182147
 31
0.0
  0
LINE
  5
21A
330
3B
100
AcDbEntity
  8
1
  6
DASH_CENTER
 62
     1
100
AcDbLine
 10
1654.947773299545
 20
-335.6107683659815
 30
0.0
 11
1654.947773299545
 21
-331.2727400625628
 31
0.0
  0
LINE
  5
21B
330
3B
100
AcDbEntity
  8
1
  6
Continuous
 62
     3
100
AcDbLine
 10
1650.830929329738
 20
-315.5356070182146
 30
0.0
 11
1649.947773299545
 21
-315.5356070182146
 31
0.0
  0
LINE
  5
21C
330
3B
100
AcDbEntity
  8
1
  6
DASH_CENTER
 62
     1
100
AcDbLine
 10
1659.447773299545
 20
-323.7111055068887
 30
0.0
 11
1659.447773299545
 21
-318.2356070182146
 31
0.0
  0
LINE
  5
21D
330
3B
100
AcDbEntity
  8
1
  6
Continuous
 62
     3
100
AcDbLine
 10
1639.947773299545
 20
-315.5356070182146
 30
0.0
 11
1639.947773299545
 21
-332.6356070182147
 31
0.0
  0
LINE
  5
21E
330
3B
100
AcDbEntity
  8
1
  6
Continuous
 62
     3
100
AcDbLine
 10
1639.947773299545
 20
-315.5356070182146
 30
0.0
 11
1601.947773299545
 21
-315.5356070182146
 31
0.0
  0
LINE
  5
21F
330
3B
100
AcDbEntity
  8
1
  6
Continuous
 62
     3
100
AcDbLine
 10
1639.947773299545
 20
-332.6356070182147
 30
0.0
 11
1646.947773299545
 21
-332.6356070182147
 31
0.0
  0
LINE
  5
220
330
3B
100
AcDbEntity
  8
1
  6
Continuous
 62
     3
100
AcDbLine
 10
1649.947773299545
 20
-332.6356070182147
 30
0.0
 11
1649.947773299545
 21
-315.5356070182146
 31
0.0
  0
LINE
  5
221
330
3B
100
AcDbEntity
  8
1
  6
Continuous
 62
     3
100
AcDbLine
 10
1649.947773299545
 20
-315.5356070182146
 30
0.0
 11
1639.947773299545
 21
-315.5356070182146
 31
0.0
  0
LINE
  5
222
330
3B
100
AcDbEntity
  8
1
  6
DASH_CENTER
 62
     1
100
AcDbLine
 10
1659.447773299545
 20
-317.9356070182145
 30
0.0
 11
1659.447773299545
 21
-306.7356070182146
 31
0.0
  0
LINE
  5
223
330
3B
100
AcDbEntity
  8
1
  6
Continuous
 62
     3
100
AcDbLine
 10
1955.842160938555
 20
-312.7356070182151
 30
0.0
 11
1944.342160938555
 21
-312.7356070182151
 31
0.0
  0
LINE
  5
224
330
3B
100
AcDbEntity
  8
1
  6
Continuous
 62
     3
100
AcDbLine
 10
1895.342160938555
 20
-312.7356070182151
 30
0.0
 11
1882.842160938555
 21
-312.7356070182151
 31
0.0
  0
LINE
  5
225
330
3B
100
AcDbEntity
  8
1
  6
Continuous
 62
     3
100
AcDbLine
 10
1882.842160938555
 20
-315.7356070182151
 30
0.0
 11
1882.842160938555
 21
-312.7356070182151
 31
0.0
  0
LINE
  5
226
330
3B
100
AcDbEntity
  8
1
  6
Continuous
 62
     3
100
AcDbLine
 10
1883.842160938555
 20
-315.7356070182151
 30
0.0
 11
1882.842160938555
 21
-315.7356070182151
 31
0.0
  0
LINE
  5
227
330
3B
100
AcDbEntity
  8
1
  6
Continuous
 62
     3
100
AcDbLine
 10
1956.842160938555
 20
-315.7356070182151
 30
0.0
 11
1956.842160938555
 21
-312.7356070182153
 31
0.0
  0
LINE
  5
228
330
3B
100
AcDbEntity
  8
1
  6
Continuous
 62
     3
100
AcDbLine
 10
1955.842160938555
 20
-315.7356070182151
 30
0.0
 11
1956.842160938555
 21
-315.7356070182151
 31
0.0
  0
LINE
  5
229
330
3B
100
AcDbEntity
  8
1
  6
Continuous
 62
     3
100
AcDbLine
 10
1954.842160938555
 20
-315.7356070182151
 30
0.0
 11
1945.842160938555
 21
-315.7356070182151
 31
0.0
  0
LINE
  5
22A
330
3B
100
AcDbEntity
  8
1
  6
Continuous
 62
     3
100
AcDbLine
 10
1954.842160938555
 20
-315.7356070182151
 30
0.0
 11
1955.842160938555
 21
-315.7356070182151
 31
0.0
  0
LINE
  5
22B
330
3B
100
AcDbEntity
  8
1
  6
Continuous
 62
     3
100
AcDbLine
 10
1954.064866670921
 20
-328.8718801412325
 30
0.0
 11
1954.842160938555
 21
-315.7356070182151
 31
0.0
  0
LINE
  5
22C
330
3B
100
AcDbEntity
  8
1
  6
Continuous
 62
     3
100
AcDbLine
 10
1884.842160938555
 20
-315.7356070182151
 30
0.0
 11
1885.61945520619
 21
-328.8718801412325
 31
0.0
  0
LINE
  5
22D
330
3B
100
AcDbEntity
  8
1
  6
Continuous
 62
     3
100
AcDbLine
 10
1883.842160938555
 20
-315.7356070182151
 30
0.0
 11
1884.842160938555
 21
-315.7356070182151
 31
0.0
  0
LINE
  5
22E
330
3B
100
AcDbEntity
  8
1
  6
Continuous
 62
     3
100
AcDbLine
 10
1945.842160938555
 20
-315.7356070182151
 30
0.0
 11
1893.842160938555
 21
-315.7356070182146
 31
0.0
  0
LINE
  5
22F
330
3B
100
AcDbEntity
  8
1
  6
Continuous
 62
     3
100
AcDbLine
 10
1893.842160938555
 20
-315.7356070182146
 30
0.0
 11
1884.842160938555
 21
-315.7356070182151
 31
0.0
  0
LINE
  5
230
330
3B
100
AcDbEntity
  8
1
  6
Continuous
 62
     3
100
AcDbLine
 10
1945.842160938555
 20
-315.7356070182151
 30
0.0
 11
1945.564866670921
 21
-328.8718801412325
 31
0.0
  0
LINE
  5
231
330
3B
100
AcDbEntity
  8
1
  6
Continuous
 62
     3
100
AcDbLine
 10
1893.842160938555
 20
-315.7356070182146
 30
0.0
 11
1894.11945520619
 21
-328.8718801412325
 31
0.0
  0
LINE
  5
232
330
3B
100
AcDbEntity
  8
1
  6
Continuous
 62
     3
100
AcDbLine
 10
1897.112470985189
 20
-332.6356070182147
 30
0.0
 11
1906.842160938555
 21
-332.6356070182147
 31
0.0
  0
LINE
  5
233
330
3B
100
AcDbEntity
  8
1
  6
Continuous
 62
     3
100
AcDbLine
 10
1950.071850891921
 20
-332.6356070182147
 30
0.0
 11
1942.842160938555
 21
-332.6356070182147
 31
0.0
  0
LINE
  5
234
330
3B
100
AcDbEntity
  8
1
  6
Continuous
 62
     3
100
AcDbLine
 10
1889.612470985189
 20
-332.6356070182147
 30
0.0
 11
1897.112470985189
 21
-332.6356070182147
 31
0.0
  0
LINE
  5
235
330
3B
100
AcDbEntity
  8
1
  6
DASH_CENTER
 62
     1
100
AcDbLine
 10
1919.842160938555
 20
-335.9506252209359
 30
0.0
 11
1919.842160938555
 21
-309.7356070182151
 31
0.0
  0
LINE
  5
236
330
3B
100
AcDbEntity
  8
1
  6
Continuous
 62
     3
100
AcDbLine
 10
1942.842160938555
 20
-332.6356070182147
 30
0.0
 11
1942.842160938555
 21
-333.6356070182147
 31
0.0
  0
LINE
  5
237
330
3B
100
AcDbEntity
  8
1
  6
Continuous
 62
     3
100
AcDbLine
 10
1942.842160938555
 20
-332.6356070182147
 30
0.0
 11
1942.571850891921
 21
-332.6356070182147
 31
0.0
  0
LINE
  5
238
330
3B
100
AcDbEntity
  8
1
  6
Continuous
 62
     3
100
AcDbLine
 10
1942.842160938555
 20
-333.6356070182147
 30
0.0
 11
1932.842160938555
 21
-333.6356070182147
 31
0.0
  0
LINE
  5
239
330
3B
100
AcDbEntity
  8
1
  6
Continuous
 62
     3
100
AcDbLine
 10
1932.842160938555
 20
-333.6356070182147
 30
0.0
 11
1932.842160938555
 21
-332.6356070182147
 31
0.0
  0
LINE
  5
23A
330
3B
100
AcDbEntity
  8
1
  6
Continuous
 62
     3
100
AcDbLine
 10
1932.842160938555
 20
-332.6356070182147
 30
0.0
 11
1942.571850891921
 21
-332.6356070182147
 31
0.0
  0
LINE
  5
23B
330
3B
100
AcDbEntity
  8
1
  6
DASH_CENTER
 62
     1
100
AcDbLine
 10
1937.842160938555
 20
-330.7635356978859
 30
0.0
 11
1937.842160938555
 21
-335.3951147887539
 31
0.0
  0
LINE
  5
23C
330
3B
100
AcDbEntity
  8
1
  6
Continuous
 62
     3
100
AcDbLine
 10
1929.842160938555
 20
-332.6356070182147
 30
0.0
 11
1929.842160938555
 21
-333.6356070182147
 31
0.0
  0
LINE
  5
23D
330
3B
100
AcDbEntity
  8
1
  6
Continuous
 62
     3
100
AcDbLine
 10
1929.842160938555
 20
-332.6356070182147
 30
0.0
 11
1932.842160938555
 21
-332.6356070182147
 31
0.0
  0
LINE
  5
23E
330
3B
100
AcDbEntity
  8
1
  6
Continuous
 62
     3
100
AcDbLine
 10
1929.842160938555
 20
-333.6356070182147
 30
0.0
 11
1909.842160938555
 21
-333.6356070182147
 31
0.0
  0
LINE
  5
23F
330
3B
100
AcDbEntity
  8
1
  6
Continuous
 62
     3
100
AcDbLine
 10
1909.842160938555
 20
-333.6356070182147
 30
0.0
 11
1909.842160938555
 21
-332.6356070182147
 31
0.0
  0
LINE
  5
240
330
3B
100
AcDbEntity
  8
1
  6
Continuous
 62
     3
100
AcDbLine
 10
1909.842160938555
 20
-332.6356070182147
 30
0.0
 11
1929.842160938555
 21
-332.6356070182147
 31
0.0
  0
LINE
  5
241
330
3B
100
AcDbEntity
  8
1
  6
Continuous
 62
     3
100
AcDbLine
 10
1906.842160938555
 20
-332.6356070182147
 30
0.0
 11
1906.842160938555
 21
-333.6356070182147
 31
0.0
  0
LINE
  5
242
330
3B
100
AcDbEntity
  8
1
  6
Continuous
 62
     3
100
AcDbLine
 10
1906.842160938555
 20
-332.6356070182147
 30
0.0
 11
1909.842160938555
 21
-332.6356070182147
 31
0.0
  0
LINE
  5
243
330
3B
100
AcDbEntity
  8
1
  6
Continuous
 62
     3
100
AcDbLine
 10
1906.842160938555
 20
-333.6356070182147
 30
0.0
 11
1896.842160938555
 21
-333.6356070182147
 31
0.0
  0
LINE
  5
244
330
3B
100
AcDbEntity
  8
1
  6
Continuous
 62
     3
100
AcDbLine
 10
1896.842160938555
 20
-333.6356070182147
 30
0.0
 11
1896.842160938555
 21
-332.6264631267069
 31
0.0
  0
LINE
  5
245
330
3B
100
AcDbEntity
  8
1
  6
DASH_CENTER
 62
     1
100
AcDbLine
 10
1901.842160938555
 20
-331.2727400625628
 30
0.0
 11
1901.842160938555
 21
-335.6107683659817
 31
0.0
  0
LINE
  5
246
330
3B
100
AcDbEntity
  8
1
  6
Continuous
 62
     3
100
AcDbLine
 10
1807.342160938555
 20
-306.9356070181689
 30
0.0
 11
1807.342160938555
 21
-301.7356070182148
 31
0.0
  0
LINE
  5
247
330
3B
100
AcDbEntity
  8
1
  6
Continuous
 62
     3
100
AcDbLine
 10
1815.342160938555
 20
-312.7356070182146
 30
0.0
 11
1815.342160938555
 21
-315.7356070182148
 31
0.0
  0
LINE
  5
248
330
3B
100
AcDbEntity
  8
1
  6
Continuous
 62
     3
100
AcDbLine
 10
1815.342160938555
 20
-315.7356070182148
 30
0.0
 11
1814.342160938555
 21
-315.7356070182148
 31
0.0
  0
LINE
  5
249
330
3B
100
AcDbEntity
  8
1
  6
Continuous
 62
     3
100
AcDbLine
 10
1714.345119518436
 20
-324.2356070182148
 30
0.0
 11
1714.619455206188
 21
-328.8718801412324
 31
0.0
  0
LINE
  5
24A
330
3B
100
AcDbEntity
  8
1
  6
Continuous
 62
     3
100
AcDbLine
 10
1712.842160938555
 20
-324.2356070182148
 30
0.0
 11
1714.345119518436
 21
-324.2356070182148
 31
0.0
  0
LINE
  5
24B
330
3B
100
AcDbEntity
  8
1
  6
DASH_CENTER
 62
     1
100
AcDbLine
 10
1784.842160938555
 20
-307.7356070182146
 30
0.0
 11
1784.842160938555
 21
-337.6696805778882
 31
0.0
  0
LINE
  5
24C
330
3B
100
AcDbEntity
  8
1
  6
Continuous
 62
     3
100
AcDbLine
 10
1813.342160938555
 20
-315.7356070182148
 30
0.0
 11
1806.342160938555
 21
-315.7356070182148
 31
0.0
  0
LINE
  5
24D
330
3B
100
AcDbEntity
  8
1
  6
Continuous
 62
     3
100
AcDbLine
 10
1779.842160938555
 20
-332.6356070182147
 30
0.0
 11
1789.842160938555
 21
-332.6356070182147
 31
0.0
  0
LINE
  5
24E
330
3B
100
AcDbEntity
  8
1
  6
Continuous
 62
     3
100
AcDbLine
 10
1779.842160938555
 20
-333.6356070182147
 30
0.0
 11
1774.842160938555
 21
-333.6356070182147
 31
0.0
  0
LINE
  5
24F
330
3B
100
AcDbEntity
  8
1
  6
Continuous
 62
     3
100
AcDbLine
 10
1779.842160938555
 20
-333.6356070182147
 30
0.0
 11
1779.842160938555
 21
-332.6356070182147
 31
0.0
  0
LINE
  5
250
330
3B
100
AcDbEntity
  8
1
  6
Continuous
 62
     3
100
AcDbLine
 10
1789.842160938555
 20
-333.6356070182147
 30
0.0
 11
1779.842160938555
 21
-333.6356070182147
 31
0.0
  0
LINE
  5
251
330
3B
100
AcDbEntity
  8
1
  6
Continuous
 62
     3
100
AcDbLine
 10
1789.842160938555
 20
-332.6356070182147
 30
0.0
 11
1794.842160938555
 21
-332.6356070182147
 31
0.0
  0
LINE
  5
252
330
3B
100
AcDbEntity
  8
1
  6
Continuous
 62
     3
100
AcDbLine
 10
1789.842160938555
 20
-332.6356070182147
 30
0.0
 11
1789.842160938555
 21
-333.6356070182147
 31
0.0
  0
LINE
  5
253
330
3B
100
AcDbEntity
  8
1
  6
Continuous
 62
     3
100
AcDbLine
 10
1806.342160938555
 20
-315.7356070182148
 30
0.0
 11
1804.842160938555
 21
-315.7356070182148
 31
0.0
  0
LINE
  5
254
330
3B
100
AcDbEntity
  8
1
  6
Continuous
 62
     3
100
AcDbLine
 10
1808.842160938555
 20
-305.0356070182147
 30
0.0
 11
1808.842160938555
 21
-306.9356070181689
 31
0.0
  0
LINE
  5
255
330
3B
100
AcDbEntity
  8
1
  6
Continuous
 62
     3
100
AcDbLine
 10
1807.342160938555
 20
-301.7356070182148
 30
0.0
 11
1808.342160938555
 21
-301.7356070182146
 31
0.0
  0
LINE
  5
256
330
3B
100
AcDbEntity
  8
1
  6
Continuous
 62
     3
100
AcDbLine
 10
1800.07185089192
 20
-332.6356070182147
 30
0.0
 11
1808.57185089192
 21
-332.6356070182147
 31
0.0
  0
LINE
  5
257
330
3B
100
AcDbEntity
  8
1
  6
Continuous
 62
     3
100
AcDbLine
 10
1804.842160938555
 20
-315.7356070182148
 30
0.0
 11
1714.842160938555
 21
-315.7356070182148
 31
0.0
  0
LINE
  5
258
330
3B
100
AcDbEntity
  8
1
  6
Continuous
 62
     3
100
AcDbLine
 10
1804.842160938555
 20
-315.7356070182148
 30
0.0
 11
1804.06486667092
 21
-328.8718801412324
 31
0.0
  0
LINE
  5
259
330
3B
100
AcDbEntity
  8
1
  6
Continuous
 62
     3
100
AcDbLine
 10
1774.842160938555
 20
-332.6356070182147
 30
0.0
 11
1779.842160938555
 21
-332.6356070182147
 31
0.0
  0
LINE
  5
25A
330
3B
100
AcDbEntity
  8
1
  6
Continuous
 62
     3
100
AcDbLine
 10
1794.842160938555
 20
-333.6356070182147
 30
0.0
 11
1789.842160938555
 21
-333.6356070182147
 31
0.0
  0
LINE
  5
25B
330
3B
100
AcDbEntity
  8
1
  6
Continuous
 62
     3
100
AcDbLine
 10
1794.842160938555
 20
-332.6356070182147
 30
0.0
 11
1800.07185089192
 21
-332.6356070182147
 31
0.0
  0
LINE
  5
25C
330
3B
100
AcDbEntity
  8
1
  6
Continuous
 62
     3
100
AcDbLine
 10
1794.842160938555
 20
-333.6356070182147
 30
0.0
 11
1794.842160938555
 21
-332.6356070182147
 31
0.0
  0
LINE
  5
25D
330
3B
100
AcDbEntity
  8
1
  6
Continuous
 62
     3
100
AcDbLine
 10
1774.842160938555
 20
-332.6356070182147
 30
0.0
 11
1774.842160938555
 21
-333.6356070182147
 31
0.0
  0
LINE
  5
25E
330
3B
100
AcDbEntity
  8
1
  6
Continuous
 62
     3
100
AcDbLine
 10
1713.842160938555
 20
-315.7356070182148
 30
0.0
 11
1714.842160938555
 21
-315.7356070182148
 31
0.0
  0
LINE
  5
25F
330
3B
100
AcDbEntity
  8
1
  6
Continuous
 62
     3
100
AcDbLine
 10
1711.842160938555
 20
-315.7356070182148
 30
0.0
 11
1711.842160938555
 21
-311.2356070182148
 31
0.0
  0
LINE
  5
260
330
3B
100
AcDbEntity
  8
1
  6
Continuous
 62
     3
100
AcDbLine
 10
1713.842160938555
 20
-315.7356070182148
 30
0.0
 11
1711.842160938555
 21
-315.7356070182148
 31
0.0
  0
LINE
  5
261
330
3B
100
AcDbEntity
  8
1
  6
Continuous
 62
     3
100
AcDbLine
 10
1813.342160938555
 20
-315.7356070182148
 30
0.0
 11
1814.342160938555
 21
-315.7356070182148
 31
0.0
  0
LINE
  5
262
330
3B
100
AcDbEntity
  8
1
  6
Continuous
 62
     3
100
AcDbLine
 10
1718.612470985188
 20
-332.6356070182147
 30
0.0
 11
1774.842160938555
 21
-332.6356070182147
 31
0.0
  0
LINE
  5
263
330
3B
100
AcDbEntity
  8
1
  6
Continuous
 62
     3
100
AcDbLine
 10
1713.842160938555
 20
-315.7356070182148
 30
0.0
 11
1714.345119518436
 21
-324.2356070182148
 31
0.0
  0
LINE
  5
264
330
3B
100
AcDbEntity
  8
1
  6
Continuous
 62
     3
100
AcDbLine
 10
1813.342160938555
 20
-315.7356070182148
 30
0.0
 11
1812.56486667092
 21
-328.8718801412324
 31
0.0
  0
LINE
  5
265
330
3B
100
AcDbEntity
  8
1
  6
Continuous
 62
     3
100
AcDbLine
 10
1808.342160938555
 20
-301.7356070182146
 30
0.0
 11
1809.842160938555
 21
-304.5356070182147
 31
0.0
  0
LINE
  5
266
330
3B
100
AcDbEntity
  8
1
  6
Continuous
 62
     3
100
AcDbLine
 10
1809.842160938555
 20
-304.5356070182147
 30
0.0
 11
1809.842160938555
 21
-305.0356070182147
 31
0.0
  0
LINE
  5
267
330
3B
100
AcDbEntity
  8
1
  6
Continuous
 62
     3
100
AcDbLine
 10
1809.842160938555
 20
-305.0356070182147
 30
0.0
 11
1808.842160938555
 21
-305.0356070182147
 31
0.0
  0
LINE
  5
268
330
3B
100
AcDbEntity
  8
1
  6
Continuous
 62
     3
100
AcDbLine
 10
1706.842160938555
 20
-315.7356070182148
 30
0.0
 11
1706.842160938555
 21
-324.2356070182148
 31
0.0
  0
LINE
  5
269
330
3B
100
AcDbEntity
  8
1
  6
Continuous
 62
     3
100
AcDbLine
 10
1706.842160938555
 20
-324.2356070182148
 30
0.0
 11
1712.842160938555
 21
-324.2356070182148
 31
0.0
  0
LINE
  5
26A
330
3B
100
AcDbEntity
  8
1
  6
Continuous
 62
     3
100
AcDbLine
 10
1706.842160938555
 20
-315.7356070182148
 30
0.0
 11
1705.842160938555
 21
-315.7356070182148
 31
0.0
  0
LINE
  5
26B
330
3B
100
AcDbEntity
  8
1
  6
Continuous
 62
     3
100
AcDbLine
 10
2133.842160938555
 20
-315.7356070182147
 30
0.0
 11
2133.065711602003
 21
-315.7356070182147
 31
0.0
  0
LINE
  5
26C
330
3B
100
AcDbEntity
  8
1
  6
Continuous
 62
     3
100
AcDbLine
 10
2126.842160938555
 20
-324.2356070182147
 30
0.0
 11
2132.842160938555
 21
-324.2356070182147
 31
0.0
  0
LINE
  5
26D
330
3B
100
AcDbEntity
  8
1
  6
Continuous
 62
     3
100
AcDbLine
 10
2132.842160938555
 20
-324.2356070182147
 30
0.0
 11
2132.842160938555
 21
-315.7356070182147
 31
0.0
  0
LINE
  5
26E
330
3B
100
AcDbEntity
  8
1
  6
Continuous
 62
     3
100
AcDbLine
 10
2030.842160938555
 20
-305.0356070182146
 30
0.0
 11
2029.842160938555
 21
-305.0356070182146
 31
0.0
  0
LINE
  5
26F
330
3B
100
AcDbEntity
  8
1
  6
Continuous
 62
     3
100
AcDbLine
 10
2029.842160938555
 20
-305.0356070182146
 30
0.0
 11
2029.842160938555
 21
-304.5356070182146
 31
0.0
  0
LINE
  5
270
330
3B
100
AcDbEntity
  8
1
  6
Continuous
 62
     3
100
AcDbLine
 10
2029.842160938555
 20
-304.5356070182146
 30
0.0
 11
2031.342160938555
 21
-301.7356070182145
 31
0.0
  0
LINE
  5
271
330
3B
100
AcDbEntity
  8
1
  6
Continuous
 62
     3
100
AcDbLine
 10
2027.119455206189
 20
-328.8718801412323
 30
0.0
 11
2026.342160938555
 21
-315.7356070182147
 31
0.0
  0
LINE
  5
272
330
3B
100
AcDbEntity
  8
1
  6
Continuous
 62
     3
100
AcDbLine
 10
2125.339202358673
 20
-324.2356070182147
 30
0.0
 11
2125.842160938555
 21
-315.7356070182147
 31
0.0
  0
LINE
  5
273
330
3B
100
AcDbEntity
  8
1
  6
Continuous
 62
     3
100
AcDbLine
 10
2064.842160938555
 20
-332.6356070182147
 30
0.0
 11
2121.071850891922
 21
-332.6356070182147
 31
0.0
  0
LINE
  5
274
330
3B
100
AcDbEntity
  8
1
  6
Continuous
 62
     3
100
AcDbLine
 10
2025.342160938555
 20
-315.7356070182147
 30
0.0
 11
2026.342160938555
 21
-315.7356070182147
 31
0.0
  0
LINE
  5
275
330
3B
100
AcDbEntity
  8
1
  6
Continuous
 62
     3
100
AcDbLine
 10
2127.842160938555
 20
-315.7356070182147
 30
0.0
 11
2125.842160938555
 21
-315.7356070182147
 31
0.0
  0
LINE
  5
276
330
3B
100
AcDbEntity
  8
1
  6
Continuous
 62
     3
100
AcDbLine
 10
2127.842160938555
 20
-311.2356070182147
 30
0.0
 11
2127.842160938555
 21
-315.7356070182147
 31
0.0
  0
LINE
  5
277
330
3B
100
AcDbEntity
  8
1
  6
Continuous
 62
     3
100
AcDbLine
 10
2124.842160938555
 20
-315.7356070182147
 30
0.0
 11
2125.842160938555
 21
-315.7356070182147
 31
0.0
  0
LINE
  5
278
330
3B
100
AcDbEntity
  8
1
  6
Continuous
 62
     3
100
AcDbLine
 10
2064.842160938555
 20
-333.6356070182147
 30
0.0
 11
2064.842160938555
 21
-332.6356070182147
 31
0.0
  0
LINE
  5
279
330
3B
100
AcDbEntity
  8
1
  6
Continuous
 62
     3
100
AcDbLine
 10
2044.842160938555
 20
-332.6356070182147
 30
0.0
 11
2044.842160938555
 21
-333.6356070182147
 31
0.0
  0
LINE
  5
27A
330
3B
100
AcDbEntity
  8
1
  6
Continuous
 62
     3
100
AcDbLine
 10
2039.612470985189
 20
-332.6356070182147
 30
0.0
 11
2044.842160938555
 21
-332.6356070182147
 31
0.0
  0
LINE
  5
27B
330
3B
100
AcDbEntity
  8
1
  6
Continuous
 62
     3
100
AcDbLine
 10
2049.842160938555
 20
-333.6356070182147
 30
0.0
 11
2044.842160938555
 21
-333.6356070182147
 31
0.0
  0
LINE
  5
27C
330
3B
100
AcDbEntity
  8
1
  6
Continuous
 62
     3
100
AcDbLine
 10
2059.842160938555
 20
-332.6356070182147
 30
0.0
 11
2064.842160938555
 21
-332.6356070182147
 31
0.0
  0
LINE
  5
27D
330
3B
100
AcDbEntity
  8
1
  6
Continuous
 62
     3
100
AcDbLine
 10
2035.619455206189
 20
-328.8718801412323
 30
0.0
 11
2034.842160938555
 21
-315.7356070182147
 31
0.0
  0
LINE
  5
27E
330
3B
100
AcDbEntity
  8
1
  6
Continuous
 62
     3
100
AcDbLine
 10
2124.842160938555
 20
-315.7356070182147
 30
0.0
 11
2034.842160938555
 21
-315.7356070182147
 31
0.0
  0
LINE
  5
27F
330
3B
100
AcDbEntity
  8
1
  6
Continuous
 62
     3
100
AcDbLine
 10
2031.112470985189
 20
-332.6356070182147
 30
0.0
 11
2039.612470985189
 21
-332.6356070182147
 31
0.0
  0
LINE
  5
280
330
3B
100
AcDbEntity
  8
1
  6
Continuous
 62
     3
100
AcDbLine
 10
2031.342160938555
 20
-301.7356070182145
 30
0.0
 11
2032.342160938555
 21
-301.7356070182147
 31
0.0
  0
LINE
  5
281
330
3B
100
AcDbEntity
  8
1
  6
Continuous
 62
     3
100
AcDbLine
 10
2030.842160938555
 20
-306.9356070181689
 30
0.0
 11
2030.842160938555
 21
-305.0356070182146
 31
0.0
  0
LINE
  5
282
330
3B
100
AcDbEntity
  8
1
  6
Continuous
 62
     3
100
AcDbLine
 10
2034.842160938555
 20
-315.7356070182147
 30
0.0
 11
2033.342160938555
 21
-315.7356070182147
 31
0.0
  0
LINE
  5
283
330
3B
100
AcDbEntity
  8
1
  6
Continuous
 62
     3
100
AcDbLine
 10
2049.842160938555
 20
-333.6356070182147
 30
0.0
 11
2049.842160938555
 21
-332.6356070182147
 31
0.0
  0
LINE
  5
284
330
3B
100
AcDbEntity
  8
1
  6
Continuous
 62
     3
100
AcDbLine
 10
2044.842160938555
 20
-332.6356070182147
 30
0.0
 11
2049.842160938555
 21
-332.6356070182147
 31
0.0
  0
LINE
  5
285
330
3B
100
AcDbEntity
  8
1
  6
Continuous
 62
     3
100
AcDbLine
 10
2059.842160938555
 20
-333.6356070182147
 30
0.0
 11
2049.842160938555
 21
-333.6356070182147
 31
0.0
  0
LINE
  5
286
330
3B
100
AcDbEntity
  8
1
  6
Continuous
 62
     3
100
AcDbLine
 10
2059.842160938555
 20
-332.6356070182147
 30
0.0
 11
2059.842160938555
 21
-333.6356070182147
 31
0.0
  0
LINE
  5
287
330
3B
100
AcDbEntity
  8
1
  6
Continuous
 62
     3
100
AcDbLine
 10
2064.842160938555
 20
-333.6356070182147
 30
0.0
 11
2059.842160938555
 21
-333.6356070182147
 31
0.0
  0
LINE
  5
288
330
3B
100
AcDbEntity
  8
1
  6
Continuous
 62
     3
100
AcDbLine
 10
2049.842160938555
 20
-332.6356070182147
 30
0.0
 11
2059.842160938555
 21
-332.6356070182147
 31
0.0
  0
LINE
  5
289
330
3B
100
AcDbEntity
  8
1
  6
Continuous
 62
     3
100
AcDbLine
 10
2033.342160938555
 20
-315.7356070182147
 30
0.0
 11
2026.342160938555
 21
-315.7356070182147
 31
0.0
  0
LINE
  5
28A
330
3B
100
AcDbEntity
  8
1
  6
DASH_CENTER
 62
     1
100
AcDbLine
 10
2054.842160938555
 20
-337.5234765291696
 30
0.0
 11
2054.842160938555
 21
-307.589402969496
 31
0.0
  0
LINE
  5
28B
330
3B
100
AcDbEntity
  8
1
  6
Continuous
 62
     3
100
AcDbLine
 10
2125.339202358673
 20
-324.2356070182147
 30
0.0
 11
2126.842160938555
 21
-324.2356070182147
 31
0.0
  0
LINE
  5
28C
330
3B
100
AcDbEntity
  8
1
  6
Continuous
 62
     3
100
AcDbLine
 10
2125.064866670921
 20
-328.8718801412323
 30
0.0
 11
2125.339202358673
 21
-324.2356070182147
 31
0.0
  0
LINE
  5
28D
330
3B
100
AcDbEntity
  8
1
  6
Continuous
 62
     3
100
AcDbLine
 10
2025.342160938555
 20
-315.7356070182147
 30
0.0
 11
2024.342160938555
 21
-315.7356070182147
 31
0.0
  0
LINE
  5
28E
330
3B
100
AcDbEntity
  8
1
  6
Continuous
 62
     3
100
AcDbLine
 10
2024.342160938555
 20
-315.7356070182147
 30
0.0
 11
2024.342160938555
 21
-312.7356070182145
 31
0.0
  0
LINE
  5
28F
330
3B
100
AcDbEntity
  8
1
  6
Continuous
 62
     3
100
AcDbLine
 10
2032.342160938555
 20
-301.7356070182147
 30
0.0
 11
2032.342160938555
 21
-306.9356070181689
 31
0.0
  0
LINE
  5
290
330
3B
100
AcDbEntity
  8
1
  6
Continuous
 62
     3
100
AcDbLine
 10
2133.842160938555
 20
-312.7356070181854
 30
0.0
 11
2133.842160938555
 21
-315.7356070182147
 31
0.0
  0
LINE
  5
291
330
3B
100
AcDbEntity
  8
1
  6
Continuous
 62
     3
100
AcDbLine
 10
2127.842160938555
 20
-315.7356070182147
 30
0.0
 11
2133.065711602003
 21
-315.7356070182147
 31
0.0
  0
LINE
  5
292
330
3B
100
AcDbEntity
  8
1
  6
Continuous
 62
     3
100
AcDbLine
 10
2133.065711602003
 20
-315.7356070182147
 30
0.0
 11
2132.842160938555
 21
-315.7356070182147
 31
0.0
  0
ARC
  5
293
330
3B
100
AcDbEntity
  8
1
  6
Continuous
 62
     2
100
AcDbCircle
 10
1659.447773299545
 20
-312.7356070182146
 30
0.0
 40
5.199999999999932
100
AcDbArc
 50
-90.0
 51
0.0
  0
ARC
  5
294
330
3B
100
AcDbEntity
  8
1
  6
Continuous
 62
     2
100
AcDbCircle
 10
1659.447773299545
 20
-312.7356070182146
 30
0.0
 40
5.199999999999818
100
AcDbArc
 50
180.0
 51
-90.0
  0
ARC
  5
295
330
3B
100
AcDbEntity
  8
1
  6
Continuous
 62
     3
100
AcDbCircle
 10
1659.447773299545
 20
-312.7356070182146
 30
0.0
 40
5.5
100
AcDbArc
 50
-90.0
 51
0.0
  0
ARC
  5
296
330
3B
100
AcDbEntity
  8
1
  6
Continuous
 62
     3
100
AcDbCircle
 10
1659.447773299545
 20
-312.7356070182146
 30
0.0
 40
5.5
100
AcDbArc
 50
180.0
 51
-90.0
  0
ARC
  5
297
330
3B
100
AcDbEntity
  8
1
  6
Continuous
 62
     3
100
AcDbCircle
 10
1659.447773299545
 20
-312.7356070182146
 30
0.0
 40
8.500000000000009
100
AcDbArc
 50
-155.0989376296328
 51
-90.0
  0
ARC
  5
298
330
3B
100
AcDbEntity
  8
1
  6
Continuous
 62
     3
100
AcDbCircle
 10
1659.447773299545
 20
-312.7356070182146
 30
0.0
 40
8.5
100
AcDbArc
 50
-90.0
 51
-24.90106237036985
  0
ARC
  5
299
330
3B
100
AcDbEntity
  8
1
  6
Continuous
 62
     2
100
AcDbCircle
 10
1659.447773299545
 20
-312.7356070182146
 30
0.0
 40
8.5
100
AcDbArc
 50
180.0
 51
0.0
  0
CIRCLE
  5
29A
330
3B
100
AcDbEntity
  8
1
  6
Continuous
 62
     3
100
AcDbCircle
 10
1644.947773299545
 20
-320.5356070182146
 30
0.0
 40
3.800000000000011
  0
CIRCLE
  5
29B
330
3B
100
AcDbEntity
  8
1
  6
Continuous
 62
     3
100
AcDbCircle
 10
1644.947773299545
 20
-320.5356070182146
 30
0.0
 40
2.350000000000136
  0
ARC
  5
29C
330
3B
100
AcDbEntity
  8
1
  6
Continuous
 62
     3
100
AcDbCircle
 10
1667.177463252911
 20
-328.6356070182147
 30
0.0
 40
4.0
100
AcDbArc
 50
-90.0
 51
-3.38633432877924
  0
ARC
  5
29D
330
3B
100
AcDbEntity
  8
1
  6
Continuous
 62
     3
100
AcDbCircle
 10
1606.718083346178
 20
-328.6356070182147
 30
0.0
 40
3.999999999999474
100
AcDbArc
 50
-176.6136656712208
 51
-90.0
  0
ARC
  5
29E
330
3B
100
AcDbEntity
  8
1
  6
Continuous
 62
     3
100
AcDbCircle
 10
1650.674259439378
 20
-316.6356070182145
 30
0.0
 40
1.111101010054893
100
AcDbArc
 50
16.79510421405726
 51
81.89404184369791
  0
ARC
  5
29F
330
3B
100
AcDbEntity
  8
1
  6
Continuous
 62
     3
100
AcDbCircle
 10
1668.221287159712
 20
-316.6356070182145
 30
0.0
 40
1.11110101005513
100
AcDbArc
 50
98.10595815628923
 51
163.2048957859563
  0
ARC
  5
2A0
330
3B
100
AcDbEntity
  8
1
  6
Continuous
 62
     3
100
AcDbCircle
 10
1889.612470985189
 20
-328.6356070182147
 30
0.0
 40
3.999999999999497
100
AcDbArc
 50
-176.6136656712151
 51
-90.0
  0
ARC
  5
2A1
330
3B
100
AcDbEntity
  8
1
  6
Continuous
 62
     3
100
AcDbCircle
 10
1950.071850891921
 20
-328.6356070182147
 30
0.0
 40
4.0
100
AcDbArc
 50
-90.0
 51
-3.38633432878416
  0
ARC
  5
2A2
330
3B
100
AcDbEntity
  8
1
  6
Continuous
 62
     3
100
AcDbCircle
 10
1941.571850891921
 20
-328.6356070182147
 30
0.0
 40
4.0
100
AcDbArc
 50
-90.0
 51
-3.38633432878416
  0
ARC
  5
2A3
330
3B
100
AcDbEntity
  8
1
  6
Continuous
 62
     3
100
AcDbCircle
 10
1897.112470985189
 20
-328.6356070182147
 30
0.0
 40
4.000000000000051
100
AcDbArc
 50
-93.87485926597324
 51
-90.0
  0
ARC
  5
2A4
330
3B
100
AcDbEntity
  8
1
  6
Continuous
 62
     3
100
AcDbCircle
 10
1898.112470985189
 20
-328.6356070182147
 30
0.0
 40
3.999999999999497
100
AcDbArc
 50
-176.6136656712151
 51
-93.87485926597324
  0
ARC
  5
2A5
330
3B
100
AcDbEntity
  8
1
  6
Continuous
 62
     3
100
AcDbCircle
 10
1800.07185089192
 20
-328.6356070182147
 30
0.0
 40
4.0
100
AcDbArc
 50
-90.0
 51
-3.38633432878234
  0
ARC
  5
2A6
330
3B
100
AcDbEntity
  8
1
  6
Continuous
 62
     3
100
AcDbCircle
 10
1808.57185089192
 20
-328.6356070182147
 30
0.0
 40
4.0
100
AcDbArc
 50
-90.0
 51
-3.38633432878234
  0
ARC
  5
2A7
330
3B
100
AcDbEntity
  8
1
  6
Continuous
 62
     3
100
AcDbCircle
 10
1718.612470985188
 20
-328.6356070182147
 30
0.0
 40
4.000000000000625
100
AcDbArc
 50
-176.6136656712177
 51
-90.0
  0
ARC
  5
2A8
330
3B
100
AcDbEntity
  8
1
  6
Continuous
 62
     3
100
AcDbCircle
 10
2121.071850891922
 20
-328.6356070182147
 30
0.0
 40
4.0
100
AcDbArc
 50
-90.0
 51
-3.38633432878168
  0
ARC
  5
2A9
330
3B
100
AcDbEntity
  8
1
  6
Continuous
 62
     3
100
AcDbCircle
 10
2031.112470985189
 20
-328.6356070182147
 30
0.0
 40
4.000000000000392
100
AcDbArc
 50
-176.6136656712191
 51
-90.0
  0
ARC
  5
2AA
330
3B
100
AcDbEntity
  8
1
  6
Continuous
 62
     3
100
AcDbCircle
 10
2039.612470985189
 20
-328.6356070182147
 30
0.0
 40
4.000000000000392
100
AcDbArc
 50
-176.6136656712191
 51
-90.0
  0
ENDBLK
  5
3D
330
3B
100
AcDbEntity
  8
0
100
AcDbBlockEnd
  0
BLOCK
  5
3F
330
3E
100
AcDbEntity
  8
0
100
AcDbBlockBegin
  2
2-8
 70
     0
 71
     0
 10
1707.342160938554
 20
-198.1055995188729
 30
0.0
  3
2-8
  1

  0
LINE
  5
2AB
330
3E
100
AcDbEntity
  8
1
  6
Continuous
 62
     2
100
AcDbLine
 10
1711.827085179046
 20
-173.1553082136476
 30
0.0
 11
1708.857236698063
 21
-176.1251566946312
 31
0.0
  0
LINE
  5
2AC
330
3E
100
AcDbEntity
  8
1
  6
Continuous
 62
     2
100
AcDbLine
 10
1708.857236698063
 20
-173.1553082136476
 30
0.0
 11
1711.827085179046
 21
-176.1251566946311
 31
0.0
  0
CIRCLE
  5
2AD
330
3E
100
AcDbEntity
  8
1
  6
Continuous
 62
     3
100
AcDbCircle
 10
1710.342160938555
 20
-174.6402324541395
 30
0.0
 40
3.000000000000366
  0
ENDBLK
  5
40
330
3E
100
AcDbEntity
  8
0
100
AcDbBlockEnd
  0
BLOCK
  5
42
330
41
100
AcDbEntity
  8
0
100
AcDbBlockBegin
  2
2-7
 70
     0
 71
     0
 10
2195.721322552743
 20
19.43342576393476
 30
0.0
  3
2-7
  1

  0
LINE
  5
2AE
330
41
100
AcDbEntity
  8
1
  6
Continuous
 62
     2
100
AcDbLine
 10
1785.592160938198
 20
-312.2356070182148
 30
0.0
 11
1785.592160938198
 21
-313.7356070182148
 31
0.0
  0
LINE
  5
2AF
330
41
100
AcDbEntity
  8
1
  6
Continuous
 62
     2
100
AcDbLine
 10
1770.592160938198
 20
-312.2356070182148
 30
0.0
 11
1785.592160938198
 21
-312.2356070182148
 31
0.0
  0
LINE
  5
2B0
330
41
100
AcDbEntity
  8
1
  6
Continuous
 62
     2
100
AcDbLine
 10
1770.592160938198
 20
-310.2356070182148
 30
0.0
 11
1770.592160938198
 21
-312.2356070182148
 31
0.0
  0
LINE
  5
2B1
330
41
100
AcDbEntity
  8
1
  6
Continuous
 62
     2
100
AcDbLine
 10
1785.592160938198
 20
-310.2356070182148
 30
0.0
 11
1770.592160938198
 21
-310.2356070182148
 31
0.0
  0
LINE
  5
2B2
330
41
100
AcDbEntity
  8
1
  6
Continuous
 62
     2
100
AcDbLine
 10
1785.592160938198
 20
-308.7356070182148
 30
0.0
 11
1785.592160938198
 21
-310.2356070182148
 31
0.0
  0
LINE
  5
2B3
330
41
100
AcDbEntity
  8
1
  6
Continuous
 62
     2
100
AcDbLine
 10
1790.592160938198
 20
-311.2356070182148
 30
0.0
 11
1785.592160938198
 21
-313.7356070182148
 31
0.0
  0
LINE
  5
2B4
330
41
100
AcDbEntity
  8
1
  6
Continuous
 62
     2
100
AcDbLine
 10
1785.592160938198
 20
-308.7356070182148
 30
0.0
 11
1790.592160938198
 21
-311.2356070182148
 31
0.0
  0
LINE
  5
2B5
330
41
100
AcDbEntity
  8
1
  6
Continuous
 62
     3
100
AcDbLine
 10
1800.592160938198
 20
-305.7356070182148
 30
0.0
 11
1800.592160938198
 21
-266.7356070182148
 31
0.0
  0
LINE
  5
2B6
330
41
100
AcDbEntity
  8
1
  6
Continuous
 62
     3
100
AcDbLine
 10
1720.592160938198
 20
-305.7356070182148
 30
0.0
 11
1720.592160938198
 21
-314.7356070182148
 31
0.0
  0
LINE
  5
2B7
330
41
100
AcDbEntity
  8
1
  6
LONG_DASHED
 62
     2
100
AcDbLine
 10
1720.592160938198
 20
-305.7356070182148
 30
0.0
 11
1800.592160938198
 21
-305.7356070182148
 31
0.0
  0
LINE
  5
2B8
330
41
100
AcDbEntity
  8
1
  6
Continuous
 62
     3
100
AcDbLine
 10
1726.592160938198
 20
-315.7356070182148
 30
0.0
 11
1799.592160938198
 21
-315.7356070182148
 31
0.0
  0
LINE
  5
2B9
330
41
100
AcDbEntity
  8
1
  6
Continuous
 62
     3
100
AcDbLine
 10
1726.592160938198
 20
-265.7356070182148
 30
0.0
 11
1721.592160938198
 21
-265.7356070182148
 31
0.0
  0
LINE
  5
2BA
330
41
100
AcDbEntity
  8
1
  6
Continuous
 62
     3
100
AcDbLine
 10
1726.592160938198
 20
-265.7356070182148
 30
0.0
 11
1726.592160938198
 21
-315.7356070182148
 31
0.0
  0
LINE
  5
2BB
330
41
100
AcDbEntity
  8
1
  6
Continuous
 62
     3
100
AcDbLine
 10
1800.592160938198
 20
-314.7356070182148
 30
0.0
 11
1800.592160938198
 21
-305.7356070182148
 31
0.0
  0
LINE
  5
2BC
330
41
100
AcDbEntity
  8
1
  6
Continuous
 62
     3
100
AcDbLine
 10
1721.592160938198
 20
-315.7356070182148
 30
0.0
 11
1726.592160938198
 21
-315.7356070182148
 31
0.0
  0
LINE
  5
2BD
330
41
100
AcDbEntity
  8
1
  6
Continuous
 62
     3
100
AcDbLine
 10
1720.592160938198
 20
-266.7356070182148
 30
0.0
 11
1720.592160938198
 21
-305.7356070182148
 31
0.0
  0
LINE
  5
2BE
330
41
100
AcDbEntity
  8
1
  6
Continuous
 62
     3
100
AcDbLine
 10
1799.592160938198
 20
-265.7356070182148
 30
0.0
 11
1726.592160938198
 21
-265.7356070182148
 31
0.0
  0
ARC
  5
2BF
330
41
100
AcDbEntity
  8
1
  6
Continuous
 62
     3
100
AcDbCircle
 10
1799.592160938198
 20
-314.7356070182148
 30
0.0
 40
1.0
100
AcDbArc
 50
-90.0
 51
0.0
  0
ARC
  5
2C0
330
41
100
AcDbEntity
  8
1
  6
Continuous
 62
     3
100
AcDbCircle
 10
1799.592160938198
 20
-266.7356070182148
 30
0.0
 40
1.0
100
AcDbArc
 50
0.0
 51
90.0
  0
ARC
  5
2C1
330
41
100
AcDbEntity
  8
1
  6
Continuous
 62
     3
100
AcDbCircle
 10
1721.592160938198
 20
-314.7356070182148
 30
0.0
 40
1.0
100
AcDbArc
 50
180.0
 51
-90.0
  0
ARC
  5
2C2
330
41
100
AcDbEntity
  8
1
  6
Continuous
 62
     3
100
AcDbCircle
 10
1721.592160938198
 20
-266.7356070182148
 30
0.0
 40
1.0
100
AcDbArc
 50
90.0
 51
180.0
  0
TEXT
  5
2C4
330
41
100
AcDbEntity
  8
1
 62
     3
100
AcDbText
 10
1745.592369475225
 20
-313.7356070182148
 30
0.0
 40
5.0
  1
%%d~‚õ•«Œ*
 41
0.9
  7
CONVERTER_2
100
AcDbText
  0
ENDBLK
  5
43
330
41
100
AcDbEntity
  8
0
100
AcDbBlockEnd
  0
BLOCK
  5
45
330
44
100
AcDbEntity
  8
0
100
AcDbBlockBegin
  2
2-5
 70
     0
 71
     0
 10
1780.342160938555
 20
-261.6356070177696
 30
0.0
  3
2-5
  1

  0
LINE
  5
2C5
330
44
100
AcDbEntity
  8
1
  6
Continuous
 62
     3
100
AcDbLine
 10
1924.442160939098
 20
-261.6356070177696
 30
0.0
 11
1924.442160939098
 21
-252.6356070177696
 31
0.0
  0
LINE
  5
2C6
330
44
100
AcDbEntity
  8
1
  6
Continuous
 62
     3
100
AcDbLine
 10
1924.442160939098
 20
-252.6356070177696
 30
0.0
 11
1924.742160939098
 21
-252.6356070177696
 31
0.0
  0
LINE
  5
2C7
330
44
100
AcDbEntity
  8
1
  6
Continuous
 62
     3
100
AcDbLine
 10
1924.742160939098
 20
-252.6356070177696
 30
0.0
 11
1924.742160939098
 21
-261.6356070177696
 31
0.0
  0
LINE
  5
2C8
330
44
100
AcDbEntity
  8
1
  6
Continuous
 62
     3
100
AcDbLine
 10
1924.742160939098
 20
-261.6356070177696
 30
0.0
 11
1924.442160939098
 21
-261.6356070177696
 31
0.0
  0
LINE
  5
2C9
330
44
100
AcDbEntity
  8
1
  6
Continuous
 62
     7
100
AcDbLine
 10
1923.086667601278
 20
-257.1356070181856
 30
0.0
 11
1926.264745368435
 21
-257.1356070181856
 31
0.0
  0
LINE
  5
2CA
330
44
100
AcDbEntity
  8
1
  6
Continuous
 62
     3
100
AcDbLine
 10
1780.342160938555
 20
-170.0402324541397
 30
0.0
 11
1780.342160938555
 21
-169.7402324541394
 31
0.0
  0
LINE
  5
2CB
330
44
100
AcDbEntity
  8
1
  6
Continuous
 62
     3
100
AcDbLine
 10
1789.342160938555
 20
-170.0402324541397
 30
0.0
 11
1780.342160938555
 21
-170.0402324541397
 31
0.0
  0
LINE
  5
2CC
330
44
100
AcDbEntity
  8
1
  6
Continuous
 62
     3
100
AcDbLine
 10
1789.342160938555
 20
-169.7402324541394
 30
0.0
 11
1789.342160938555
 21
-170.0402324541397
 31
0.0
  0
LINE
  5
2CD
330
44
100
AcDbEntity
  8
1
  6
Continuous
 62
     3
100
AcDbLine
 10
1780.342160938555
 20
-169.7402324541394
 30
0.0
 11
1789.342160938555
 21
-169.7402324541394
 31
0.0
  0
ENDBLK
  5
46
330
44
100
AcDbEntity
  8
0
100
AcDbBlockEnd
  0
BLOCK
  5
48
330
47
100
AcDbEntity
  8
0
100
AcDbBlockBegin
  2
2-1
 70
     0
 71
     0
 10
1632.447773299545
 20
-318.095970410166
 30
0.0
  3
2-1
  1

  0
LINE
  5
2CE
330
47
100
AcDbEntity
  8
1
  6
Continuous
 62
     3
100
AcDbLine
 10
1632.447773299545
 20
-253.7356070182146
 30
0.0
 11
1632.447773299545
 21
-253.6356070181856
 31
0.0
  0
LINE
  5
2CF
330
47
100
AcDbEntity
  8
1
  6
Continuous
 62
     3
100
AcDbLine
 10
1641.447773299545
 20
-253.7356070182146
 30
0.0
 11
1641.447773299545
 21
-253.6356070181856
 31
0.0
  0
LINE
  5
2D0
330
47
100
AcDbEntity
  8
1
  6
Continuous
 62
     3
100
AcDbLine
 10
1636.47289956539
 20
-253.6356070181856
 30
0.0
 11
1637.422647033697
 21
-253.6356070181856
 31
0.0
  0
LINE
  5
2D1
330
47
100
AcDbEntity
  8
1
  6
Continuous
 62
     2
100
AcDbLine
 10
1641.447773299545
 20
-248.6356070181856
 30
0.0
 11
1637.422647033697
 21
-253.6356070181856
 31
0.0
  0
LINE
  5
2D2
330
47
100
AcDbEntity
  8
1
  6
Continuous
 62
     2
100
AcDbLine
 10
1637.422647033697
 20
-248.6356070181856
 30
0.0
 11
1641.447773299545
 21
-253.6356070181856
 31
0.0
  0
LINE
  5
2D3
330
47
100
AcDbEntity
  8
1
  6
Continuous
 62
     3
100
AcDbLine
 10
1637.422647033697
 20
-253.6356070181856
 30
0.0
 11
1641.447773299545
 21
-253.6356070181856
 31
0.0
  0
LINE
  5
2D4
330
47
100
AcDbEntity
  8
1
  6
Continuous
 62
     3
100
AcDbLine
 10
1637.422647033697
 20
-253.6356070181856
 30
0.0
 11
1637.422647033697
 21
-248.6356070181856
 31
0.0
  0
LINE
  5
2D5
330
47
100
AcDbEntity
  8
1
  6
Continuous
 62
     3
100
AcDbLine
 10
1636.47289956539
 20
-248.6356070181856
 30
0.0
 11
1636.47289956539
 21
-253.6356070181856
 31
0.0
  0
LINE
  5
2D6
330
47
100
AcDbEntity
  8
1
  6
Continuous
 62
     3
100
AcDbLine
 10
1641.447773299545
 20
-253.6356070181856
 30
0.0
 11
1641.447773299545
 21
-248.6356070181856
 31
0.0
  0
LINE
  5
2D7
330
47
100
AcDbEntity
  8
1
  6
Continuous
 62
     3
100
AcDbLine
 10
1632.447773299545
 20
-253.6356070181856
 30
0.0
 11
1632.447773299545
 21
-248.6356070181856
 31
0.0
  0
LINE
  5
2D8
330
47
100
AcDbEntity
  8
1
  6
Continuous
 62
     3
100
AcDbLine
 10
1632.447773299545
 20
-253.6356070181856
 30
0.0
 11
1636.47289956539
 21
-253.6356070181856
 31
0.0
  0
LINE
  5
2D9
330
47
100
AcDbEntity
  8
1
  6
Continuous
 62
     3
100
AcDbLine
 10
1641.447773299545
 20
-248.6356070181856
 30
0.0
 11
1632.447773299545
 21
-248.6356070181856
 31
0.0
  0
LINE
  5
2DA
330
47
100
AcDbEntity
  8
1
  6
Continuous
 62
     2
100
AcDbLine
 10
1636.47289956539
 20
-253.6356070181856
 30
0.0
 11
1632.447773299545
 21
-248.6356070181856
 31
0.0
  0
LINE
  5
2DB
330
47
100
AcDbEntity
  8
1
  6
Continuous
 62
     2
100
AcDbLine
 10
1636.47289956539
 20
-248.6356070181856
 30
0.0
 11
1632.447773299545
 21
-253.6356070181856
 31
0.0
  0
LINE
  5
2DC
330
47
100
AcDbEntity
  8
1
  6
Continuous
 62
     2
100
AcDbLine
 10
1919.367287204401
 20
-248.6356070181856
 30
0.0
 11
1915.342160938555
 21
-253.6356070181856
 31
0.0
  0
LINE
  5
2DD
330
47
100
AcDbEntity
  8
1
  6
Continuous
 62
     2
100
AcDbLine
 10
1919.367287204401
 20
-253.6356070181856
 30
0.0
 11
1915.342160938555
 21
-248.6356070181856
 31
0.0
  0
LINE
  5
2DE
330
47
100
AcDbEntity
  8
1
  6
Continuous
 62
     3
100
AcDbLine
 10
1924.342160938555
 20
-248.6356070181856
 30
0.0
 11
1915.342160938555
 21
-248.6356070181856
 31
0.0
  0
LINE
  5
2DF
330
47
100
AcDbEntity
  8
1
  6
Continuous
 62
     3
100
AcDbLine
 10
1915.342160938555
 20
-253.6356070181856
 30
0.0
 11
1919.367287204401
 21
-253.6356070181856
 31
0.0
  0
LINE
  5
2E0
330
47
100
AcDbEntity
  8
1
  6
Continuous
 62
     3
100
AcDbLine
 10
1915.342160938555
 20
-253.6356070181856
 30
0.0
 11
1915.342160938555
 21
-248.6356070181856
 31
0.0
  0
LINE
  5
2E1
330
47
100
AcDbEntity
  8
1
  6
Continuous
 62
     3
100
AcDbLine
 10
1924.342160938555
 20
-253.6356070181856
 30
0.0
 11
1924.342160938555
 21
-248.6356070181856
 31
0.0
  0
LINE
  5
2E2
330
47
100
AcDbEntity
  8
1
  6
Continuous
 62
     3
100
AcDbLine
 10
1919.367287204401
 20
-248.6356070181856
 30
0.0
 11
1919.367287204401
 21
-253.6356070181856
 31
0.0
  0
LINE
  5
2E3
330
47
100
AcDbEntity
  8
1
  6
Continuous
 62
     3
100
AcDbLine
 10
1920.317034672707
 20
-253.6356070181856
 30
0.0
 11
1920.317034672707
 21
-248.6356070181856
 31
0.0
  0
LINE
  5
2E4
330
47
100
AcDbEntity
  8
1
  6
Continuous
 62
     3
100
AcDbLine
 10
1920.317034672707
 20
-253.6356070181856
 30
0.0
 11
1924.342160938555
 21
-253.6356070181856
 31
0.0
  0
LINE
  5
2E5
330
47
100
AcDbEntity
  8
1
  6
Continuous
 62
     2
100
AcDbLine
 10
1920.317034672707
 20
-248.6356070181856
 30
0.0
 11
1924.342160938555
 21
-253.6356070181856
 31
0.0
  0
LINE
  5
2E6
330
47
100
AcDbEntity
  8
1
  6
Continuous
 62
     2
100
AcDbLine
 10
1924.342160938555
 20
-248.6356070181856
 30
0.0
 11
1920.317034672707
 21
-253.6356070181856
 31
0.0
  0
LINE
  5
2E7
330
47
100
AcDbEntity
  8
1
  6
Continuous
 62
     3
100
AcDbLine
 10
1919.367287204401
 20
-253.6356070181856
 30
0.0
 11
1920.317034672707
 21
-253.6356070181856
 31
0.0
  0
LINE
  5
2E8
330
47
100
AcDbEntity
  8
1
  6
Continuous
 62
     3
100
AcDbLine
 10
1924.342160938555
 20
-261.7356070181857
 30
0.0
 11
1924.342160938555
 21
-253.6356070181856
 31
0.0
  0
LINE
  5
2E9
330
47
100
AcDbEntity
  8
1
  6
Continuous
 62
     3
100
AcDbLine
 10
1915.342160938555
 20
-261.7356070181857
 30
0.0
 11
1915.342160938555
 21
-253.6356070181856
 31
0.0
  0
LINE
  5
2EA
330
47
100
AcDbEntity
  8
1
  6
Continuous
 62
     3
100
AcDbLine
 10
1701.191584602156
 20
-202.1138495259791
 30
0.0
 11
1706.842160938555
 21
-202.1138495259793
 31
0.0
  0
LINE
  5
2EB
330
47
100
AcDbEntity
  8
1
  6
Continuous
 62
     3
100
AcDbLine
 10
1706.842160938555
 20
-192.1155858545813
 30
0.0
 11
1700.960303702131
 21
-192.1155858545813
 31
0.0
  0
LINE
  5
2EC
330
47
100
AcDbEntity
  8
1
  6
Continuous
 62
     3
100
AcDbLine
 10
1783.471471787517
 20
-170.354067355683
 30
0.0
 11
1780.555995840097
 21
-173.2695433031027
 31
0.0
  0
LINE
  5
2ED
330
47
100
AcDbEntity
  8
1
  6
Continuous
 62
     3
100
AcDbLine
 10
1780.555995840097
 20
-176.0109216051758
 30
0.0
 11
1783.471471787517
 21
-178.9263975525965
 31
0.0
  0
LINE
  5
2EE
330
47
100
AcDbEntity
  8
1
  6
Continuous
 62
     3
100
AcDbLine
 10
1786.212850089586
 20
-178.9263975525979
 30
0.0
 11
1789.128326037013
 21
-176.0109216051713
 31
0.0
  0
LINE
  5
2EF
330
47
100
AcDbEntity
  8
1
  6
Continuous
 62
     3
100
AcDbLine
 10
1789.128326037012
 20
-173.2695433031062
 30
0.0
 11
1786.212850089587
 21
-170.3540673556814
 31
0.0
  0
LINE
  5
2F0
330
47
100
AcDbEntity
  8
1
  6
Continuous
 62
     3
100
AcDbLine
 10
1786.692160938555
 20
-257.8955412258644
 30
0.0
 11
1786.692160938555
 21
-259.7856070181858
 31
0.0
  0
LINE
  5
2F1
330
47
100
AcDbEntity
  8
1
  6
Continuous
 62
     3
100
AcDbLine
 10
1782.992160938554
 20
-259.7856070181858
 30
0.0
 11
1782.992160938554
 21
-257.8955412258644
 31
0.0
  0
LINE
  5
2F2
330
47
100
AcDbEntity
  8
1
  6
Continuous
 62
     3
100
AcDbLine
 10
1780.342160938555
 20
-261.7356070181857
 30
0.0
 11
1780.342160938555
 21
-253.6356070181856
 31
0.0
  0
LINE
  5
2F3
330
47
100
AcDbEntity
  8
1
  6
Continuous
 62
     3
100
AcDbLine
 10
1789.342160938555
 20
-261.7356070181857
 30
0.0
 11
1789.342160938555
 21
-253.6356070181856
 31
0.0
  0
LINE
  5
2F4
330
47
100
AcDbEntity
  8
1
  6
Continuous
 62
     3
100
AcDbLine
 10
1784.3672872044
 20
-253.6356070181856
 30
0.0
 11
1785.317034672707
 21
-253.6356070181856
 31
0.0
  0
LINE
  5
2F5
330
47
100
AcDbEntity
  8
1
  6
Continuous
 62
     2
100
AcDbLine
 10
1784.3672872044
 20
-248.6356070181856
 30
0.0
 11
1780.342160938555
 21
-253.6356070181856
 31
0.0
  0
LINE
  5
2F6
330
47
100
AcDbEntity
  8
1
  6
Continuous
 62
     2
100
AcDbLine
 10
1784.3672872044
 20
-253.6356070181856
 30
0.0
 11
1780.342160938555
 21
-248.6356070181856
 31
0.0
  0
LINE
  5
2F7
330
47
100
AcDbEntity
  8
1
  6
Continuous
 62
     2
100
AcDbLine
 10
1789.342160938555
 20
-248.6356070181856
 30
0.0
 11
1785.317034672707
 21
-253.6356070181856
 31
0.0
  0
LINE
  5
2F8
330
47
100
AcDbEntity
  8
1
  6
Continuous
 62
     2
100
AcDbLine
 10
1785.317034672707
 20
-248.6356070181856
 30
0.0
 11
1789.342160938555
 21
-253.6356070181856
 31
0.0
  0
LINE
  5
2F9
330
47
100
AcDbEntity
  8
1
  6
Continuous
 62
     3
100
AcDbLine
 10
1785.317034672707
 20
-253.6356070181856
 30
0.0
 11
1789.342160938555
 21
-253.6356070181856
 31
0.0
  0
LINE
  5
2FA
330
47
100
AcDbEntity
  8
1
  6
Continuous
 62
     3
100
AcDbLine
 10
1785.317034672707
 20
-253.6356070181856
 30
0.0
 11
1785.317034672707
 21
-248.6356070181856
 31
0.0
  0
LINE
  5
2FB
330
47
100
AcDbEntity
  8
1
  6
Continuous
 62
     3
100
AcDbLine
 10
1784.3672872044
 20
-248.6356070181856
 30
0.0
 11
1784.3672872044
 21
-253.6356070181856
 31
0.0
  0
LINE
  5
2FC
330
47
100
AcDbEntity
  8
1
  6
Continuous
 62
     3
100
AcDbLine
 10
1789.342160938555
 20
-253.6356070181856
 30
0.0
 11
1789.342160938555
 21
-248.6356070181856
 31
0.0
  0
LINE
  5
2FD
330
47
100
AcDbEntity
  8
1
  6
Continuous
 62
     3
100
AcDbLine
 10
1780.342160938555
 20
-253.6356070181856
 30
0.0
 11
1780.342160938555
 21
-248.6356070181856
 31
0.0
  0
LINE
  5
2FE
330
47
100
AcDbEntity
  8
1
  6
Continuous
 62
     3
100
AcDbLine
 10
1780.342160938555
 20
-253.6356070181856
 30
0.0
 11
1784.3672872044
 21
-253.6356070181856
 31
0.0
  0
LINE
  5
2FF
330
47
100
AcDbEntity
  8
1
  6
Continuous
 62
     3
100
AcDbLine
 10
1789.342160938555
 20
-248.6356070181856
 30
0.0
 11
1780.342160938555
 21
-248.6356070181856
 31
0.0
  0
LINE
  5
300
330
47
100
AcDbEntity
  8
1
  6
Continuous
 62
     3
100
AcDbLine
 10
2140.893618495288
 20
-306.4366891969934
 30
0.0
 11
2132.842160938555
 21
-306.4366891969935
 31
0.0
  0
LINE
  5
301
330
47
100
AcDbEntity
  8
1
  6
Continuous
 62
     3
100
AcDbLine
 10
2132.403650368204
 20
-318.0345248393771
 30
0.0
 11
2140.893618495288
 21
-318.0345248393769
 31
0.0
  0
LINE
  5
302
330
47
100
AcDbEntity
  8
1
  6
Continuous
 62
     3
100
AcDbLine
 10
2059.342160938555
 20
-248.6356070181855
 30
0.0
 11
2050.342160938555
 21
-248.6356070181855
 31
0.0
  0
LINE
  5
303
330
47
100
AcDbEntity
  8
1
  6
Continuous
 62
     3
100
AcDbLine
 10
2050.342160938555
 20
-253.6356070181855
 30
0.0
 11
2054.367287204401
 21
-253.6356070181855
 31
0.0
  0
LINE
  5
304
330
47
100
AcDbEntity
  8
1
  6
Continuous
 62
     3
100
AcDbLine
 10
2050.342160938555
 20
-253.6356070181855
 30
0.0
 11
2050.342160938555
 21
-248.6356070181855
 31
0.0
  0
LINE
  5
305
330
47
100
AcDbEntity
  8
1
  6
Continuous
 62
     3
100
AcDbLine
 10
2059.342160938555
 20
-253.6356070181855
 30
0.0
 11
2059.342160938555
 21
-248.6356070181855
 31
0.0
  0
LINE
  5
306
330
47
100
AcDbEntity
  8
1
  6
Continuous
 62
     3
100
AcDbLine
 10
2054.367287204401
 20
-248.6356070181855
 30
0.0
 11
2054.367287204401
 21
-253.6356070181855
 31
0.0
  0
LINE
  5
307
330
47
100
AcDbEntity
  8
1
  6
Continuous
 62
     3
100
AcDbLine
 10
2055.317034672707
 20
-253.6356070181855
 30
0.0
 11
2055.317034672707
 21
-248.6356070181855
 31
0.0
  0
LINE
  5
308
330
47
100
AcDbEntity
  8
1
  6
Continuous
 62
     3
100
AcDbLine
 10
2055.317034672707
 20
-253.6356070181855
 30
0.0
 11
2059.342160938555
 21
-253.6356070181855
 31
0.0
  0
LINE
  5
309
330
47
100
AcDbEntity
  8
1
  6
Continuous
 62
     2
100
AcDbLine
 10
2055.317034672707
 20
-248.6356070181855
 30
0.0
 11
2059.342160938555
 21
-253.6356070181855
 31
0.0
  0
LINE
  5
30A
330
47
100
AcDbEntity
  8
1
  6
Continuous
 62
     2
100
AcDbLine
 10
2059.342160938555
 20
-248.6356070181855
 30
0.0
 11
2055.317034672707
 21
-253.6356070181855
 31
0.0
  0
LINE
  5
30B
330
47
100
AcDbEntity
  8
1
  6
Continuous
 62
     2
100
AcDbLine
 10
2054.367287204401
 20
-253.6356070181855
 30
0.0
 11
2050.342160938555
 21
-248.6356070181855
 31
0.0
  0
LINE
  5
30C
330
47
100
AcDbEntity
  8
1
  6
Continuous
 62
     2
100
AcDbLine
 10
2054.367287204401
 20
-248.6356070181855
 30
0.0
 11
2050.342160938555
 21
-253.6356070181855
 31
0.0
  0
LINE
  5
30D
330
47
100
AcDbEntity
  8
1
  6
Continuous
 62
     3
100
AcDbLine
 10
2054.367287204401
 20
-253.6356070181855
 30
0.0
 11
2055.317034672707
 21
-253.6356070181855
 31
0.0
  0
LINE
  5
30E
330
47
100
AcDbEntity
  8
1
  6
Continuous
 62
     3
100
AcDbLine
 10
2059.342160938555
 20
-261.7356070181856
 30
0.0
 11
2059.342160938555
 21
-253.6356070181855
 31
0.0
  0
LINE
  5
30F
330
47
100
AcDbEntity
  8
1
  6
Continuous
 62
     3
100
AcDbLine
 10
2050.342160938555
 20
-261.7356070181856
 30
0.0
 11
2050.342160938555
 21
-253.6356070181855
 31
0.0
  0
LINE
  5
310
330
47
100
AcDbEntity
  8
1
  6
Continuous
 62
     3
100
AcDbLine
 10
2052.992160938555
 20
-259.7856070181857
 30
0.0
 11
2052.992160938555
 21
-257.8955412258643
 31
0.0
  0
LINE
  5
311
330
47
100
AcDbEntity
  8
1
  6
Continuous
 62
     3
100
AcDbLine
 10
2056.692160938555
 20
-257.8955412258643
 30
0.0
 11
2056.692160938555
 21
-259.7856070181857
 31
0.0
  0
LINE
  5
312
330
47
100
AcDbEntity
  8
1
  6
Continuous
 62
     3
100
AcDbLine
 10
1698.790703381822
 20
-318.034524839377
 30
0.0
 11
1707.280671508906
 21
-318.0345248393772
 31
0.0
  0
LINE
  5
313
330
47
100
AcDbEntity
  8
1
  6
Continuous
 62
     3
100
AcDbLine
 10
1706.842160938554
 20
-306.4366891969936
 30
0.0
 11
1698.790703381822
 21
-306.4366891969934
 31
0.0
  0
CIRCLE
  5
314
330
47
100
AcDbEntity
  8
1
  6
Continuous
 62
     3
100
AcDbCircle
 10
1784.842160938555
 20
-174.6402324541395
 30
0.0
 40
4.5
  0
SPLINE
  5
315
330
47
100
AcDbEntity
  8
1
  6
Continuous
 62
     2
100
AcDbSpline
210
0.0
220
0.0
230
1.0
 70
     8
 71
     3
 72
     9
 73
     5
 74
     3
 42
0.0000000001
 43
0.0000000001
 44
0.00000001
 40
0.0
 40
0.0
 40
0.0
 40
0.0
 40
4.082808494760478
 40
10.00251244564519
 40
10.00251244564519
 40
10.00251244564519
 40
10.00251244564519
 10
1700.960303702131
 20
-192.1155858545813
 30
0.0
 10
1700.952682207896
 20
-193.4767185213661
 30
0.0
 10
1700.934010234661
 20
-196.8113707484206
 30
0.0
 10
1701.095821301185
 20
-200.1424465637737
 30
0.0
 10
1701.191584602156
 20
-202.1138495259791
 30
0.0
 11
1700.960303702131
 21
-192.1155858545813
 31
0.0
 11
1700.96750941242
 21
-196.1983879906917
 31
0.0
 11
1701.191584602156
 21
-202.1138495259791
 31
0.0
  0
SPLINE
  5
316
330
47
100
AcDbEntity
  8
1
  6
Continuous
 62
     2
100
AcDbSpline
210
0.0
220
0.0
230
1.0
 70
     8
 71
     3
 72
    16
 73
    12
 74
    10
 42
0.0000000001
 43
0.0000000001
 44
0.00000001
 40
0.0
 40
0.0
 40
0.0
 40
0.0
 40
1.765994883252525
 40
3.573213142785347
 40
5.253023387343074
 40
6.456488512557791
 40
7.769378029897984
 40
9.102675150622867
 40
10.45401548845622
 40
11.92862000393208
 40
13.1842422457903
 40
13.1842422457903
 40
13.1842422457903
 40
13.1842422457903
 10
2140.893618495288
 20
-306.4366891969934
 30
0.0
 10
2140.969071971478
 20
-307.0609065176593
 30
0.0
 10
2141.121740224
 20
-308.3239121782701
 30
0.0
 10
2139.700144311444
 20
-309.5349682008651
 30
0.0
 10
2138.677225438518
 20
-310.8506626296194
 30
0.0
 10
2138.955976950914
 20
-312.3191646150136
 30
0.0
 10
2139.589262112904
 20
-313.4325671960198
 30
0.0
 10
2140.477456871264
 20
-314.4501316297458
 30
0.0
 10
2141.244032569605
 20
-315.546759141945
 30
0.0
 10
2141.884456660264
 20
-316.9886586670823
 30
0.0
 10
2141.205752356425
 20
-317.7050560541304
 30
0.0
 10
2140.893618495288
 20
-318.0345248393769
 30
0.0
 11
2140.893618495288
 21
-306.4366891969934
 31
0.0
 11
2140.846483679432
 21
-308.2020549485612
 31
0.0
 11
2139.714875729477
 21
-309.6111331171473
 31
0.0
 11
2138.851786029431
 21
-311.0522572018101
 31
0.0
 11
2139.005156214263
 21
-312.2459095356212
 31
0.0
 11
2139.623477688795
 21
-313.4040794017781
 31
0.0
 11
2140.44836534493
 21
-314.4515723931102
 31
0.0
 11
2141.203608229398
 21
-315.572165492373
 31
0.0
 11
2141.59586411486
 21
-316.9936414145686
 31
0.0
 11
2140.893618495288
 21
-318.0345248393769
 31
0.0
  0
SPLINE
  5
317
330
47
100
AcDbEntity
  8
1
  6
Continuous
 62
     2
100
AcDbSpline
210
0.0
220
0.0
230
1.0
 70
     8
 71
     3
 72
    16
 73
    12
 74
    10
 42
0.0000000001
 43
0.0000000001
 44
0.00000001
 40
0.0
 40
0.0
 40
0.0
 40
0.0
 40
1.765994883252581
 40
3.573213142785448
 40
5.253023387343125
 40
6.4564885125579
 40
7.76937802989793
 40
9.10267515062319
 40
10.45401548845667
 40
11.92862000393265
 40
13.18424224579168
 40
13.18424224579168
 40
13.18424224579168
 40
13.18424224579168
 10
1698.790703381822
 20
-306.4366891969934
 30
0.0
 10
1698.715249905632
 20
-307.0609065176593
 30
0.0
 10
1698.562581653111
 20
-308.3239121782702
 30
0.0
 10
1699.984177565666
 20
-309.5349682008653
 30
0.0
 10
1701.007096438593
 20
-310.8506626296195
 30
0.0
 10
1700.728344926195
 20
-312.3191646150135
 30
0.0
 10
1700.095059764206
 20
-313.4325671960203
 30
0.0
 10
1699.206865005845
 20
-314.4501316297457
 30
0.0
 10
1698.440289307505
 20
-315.546759141945
 30
0.0
 10
1697.799865216845
 20
-316.9886586670827
 30
0.0
 10
1698.478569520685
 20
-317.7050560541304
 30
0.0
 10
1698.790703381822
 20
-318.034524839377
 30
0.0
 11
1698.790703381822
 21
-306.4366891969934
 31
0.0
 11
1698.837838197678
 21
-308.2020549485612
 31
0.0
 11
1699.969446147633
 21
-309.6111331171474
 31
0.0
 11
1700.83253584768
 21
-311.0522572018102
 31
0.0
 11
1700.679165662847
 21
-312.2459095356213
 31
0.0
 11
1700.060844188315
 21
-313.4040794017782
 31
0.0
 11
1699.23595653218
 21
-314.4515723931102
 31
0.0
 11
1698.480713647711
 21
-315.5721654923731
 31
0.0
 11
1698.088457762248
 21
-316.9936414145687
 31
0.0
 11
1698.790703381822
 21
-318.034524839377
 31
0.0
  0
ARC
  5
318
330
47
100
AcDbEntity
  8
1
  6
Continuous
 62
     3
100
AcDbCircle
 10
1784.842160938555
 20
-259.7856070181858
 30
0.0
 40
1.849999999999852
100
AcDbArc
 50
-90.0
 51
0.0
  0
ARC
  5
319
330
47
100
AcDbEntity
  8
1
  6
Continuous
 62
     3
100
AcDbCircle
 10
1784.842160938555
 20
-259.7856070181858
 30
0.0
 40
1.850000000001046
100
AcDbArc
 50
180.0
 51
-90.0
  0
ARC
  5
31A
330
47
100
AcDbEntity
  8
1
  6
Continuous
 62
     3
100
AcDbCircle
 10
1784.842160938555
 20
-256.4856070181857
 30
0.0
 40
1.850000000000108
100
AcDbArc
 50
90.0
 51
180.0
  0
ARC
  5
31B
330
47
100
AcDbEntity
  8
1
  6
Continuous
 62
     3
100
AcDbCircle
 10
1784.842160938555
 20
-256.4856070181857
 30
0.0
 40
1.849999999999909
100
AcDbArc
 50
0.0
 51
90.0
  0
ARC
  5
31C
330
47
100
AcDbEntity
  8
1
  6
Continuous
 62
     3
100
AcDbCircle
 10
2132.342160938556
 20
-307.4366891969935
 30
0.0
 40
2.00000000000174
100
AcDbArc
 50
29.99999999997123
 51
75.5224878140848
  0
ARC
  5
31D
330
47
100
AcDbEntity
  8
1
  6
Continuous
 62
     3
100
AcDbCircle
 10
2054.842160938555
 20
-256.4856070181856
 30
0.0
 40
1.849999999999909
100
AcDbArc
 50
0.0
 51
90.0
  0
ARC
  5
31E
330
47
100
AcDbEntity
  8
1
  6
Continuous
 62
     3
100
AcDbCircle
 10
2054.842160938555
 20
-256.4856070181856
 30
0.0
 40
1.85000000000008
100
AcDbArc
 50
90.0
 51
180.0
  0
ARC
  5
31F
330
47
100
AcDbEntity
  8
1
  6
Continuous
 62
     3
100
AcDbCircle
 10
2054.842160938555
 20
-259.7856070181857
 30
0.0
 40
1.849999999999909
100
AcDbArc
 50
180.0
 51
-90.0
  0
ARC
  5
320
330
47
100
AcDbEntity
  8
1
  6
Continuous
 62
     3
100
AcDbCircle
 10
2054.842160938555
 20
-259.7856070181857
 30
0.0
 40
1.849999999999909
100
AcDbArc
 50
-90.0
 51
0.0
  0
ARC
  5
321
330
47
100
AcDbEntity
  8
1
  6
Continuous
 62
     3
100
AcDbCircle
 10
1707.342160938554
 20
-307.4366891969936
 30
0.0
 40
2.000000000002045
100
AcDbArc
 50
104.4775121859148
 51
150.0000000000288
  0
ENDBLK
  5
49
330
47
100
AcDbEntity
  8
0
100
AcDbBlockEnd
  0
BLOCK
  5
4B
330
4A
100
AcDbEntity
  8
0
100
AcDbBlockBegin
  2
2-6
 70
     0
 71
     0
 10
1777.497469616359
 20
-261.7356070181857
 30
0.0
  3
2-6
  1

  0
LINE
  5
322
330
4A
100
AcDbEntity
  8
1
  6
Continuous
 62
     2
100
AcDbLine
 10
1926.842160938555
 20
-259.4307075085866
 30
0.0
 11
1912.842160938555
 21
-259.119401128107
 31
0.0
  0
LINE
  5
323
330
4A
100
AcDbEntity
  8
1
  6
Continuous
 62
     2
100
AcDbLine
 10
1926.842160938555
 20
-261.7356070181857
 30
0.0
 11
1912.842160938555
 21
-261.424300637706
 31
0.0
  0
LINE
  5
324
330
4A
100
AcDbEntity
  8
1
  6
Continuous
 62
     2
100
AcDbLine
 10
1926.842160938555
 20
-260.0069323859865
 30
0.0
 11
1912.842160938555
 21
-259.6956260055068
 31
0.0
  0
LINE
  5
325
330
4A
100
AcDbEntity
  8
1
  6
Continuous
 62
     2
100
AcDbLine
 10
1926.842160938555
 20
-260.5831572633862
 30
0.0
 11
1912.842160938555
 21
-260.2718508829067
 31
0.0
  0
LINE
  5
326
330
4A
100
AcDbEntity
  8
1
  6
Continuous
 62
     2
100
AcDbLine
 10
1926.842160938555
 20
-261.1593821407859
 30
0.0
 11
1912.842160938555
 21
-260.8480757603062
 31
0.0
  0
LINE
  5
327
330
4A
100
AcDbEntity
  8
1
  6
Continuous
 62
     2
100
AcDbLine
 10
1791.842160938555
 20
-261.1593821407859
 30
0.0
 11
1777.842160938555
 21
-260.8480757603062
 31
0.0
  0
LINE
  5
328
330
4A
100
AcDbEntity
  8
1
  6
Continuous
 62
     2
100
AcDbLine
 10
1791.842160938555
 20
-260.5831572633862
 30
0.0
 11
1777.842160938555
 21
-260.2718508829067
 31
0.0
  0
LINE
  5
329
330
4A
100
AcDbEntity
  8
1
  6
Continuous
 62
     2
100
AcDbLine
 10
1791.842160938555
 20
-260.0069323859865
 30
0.0
 11
1777.842160938555
 21
-259.6956260055068
 31
0.0
  0
LINE
  5
32A
330
4A
100
AcDbEntity
  8
1
  6
Continuous
 62
     2
100
AcDbLine
 10
1791.842160938555
 20
-261.7356070181857
 30
0.0
 11
1777.842160938555
 21
-261.424300637706
 31
0.0
  0
LINE
  5
32B
330
4A
100
AcDbEntity
  8
1
  6
Continuous
 62
     2
100
AcDbLine
 10
1791.842160938555
 20
-259.4307075085866
 30
0.0
 11
1777.842160938555
 21
-259.119401128107
 31
0.0
  0
LINE
  5
32C
330
4A
100
AcDbEntity
  8
1
  6
Continuous
 62
     2
100
AcDbLine
 10
2061.842160938555
 20
-259.1194011281069
 30
0.0
 11
2047.842160938555
 21
-259.4307075085865
 31
0.0
  0
LINE
  5
32D
330
4A
100
AcDbEntity
  8
1
  6
Continuous
 62
     2
100
AcDbLine
 10
2061.842160938555
 20
-261.4243006377059
 30
0.0
 11
2047.842160938555
 21
-261.7356070181856
 31
0.0
  0
LINE
  5
32E
330
4A
100
AcDbEntity
  8
1
  6
Continuous
 62
     2
100
AcDbLine
 10
2061.842160938555
 20
-259.6956260055068
 30
0.0
 11
2047.842160938555
 21
-260.0069323859864
 31
0.0
  0
LINE
  5
32F
330
4A
100
AcDbEntity
  8
1
  6
Continuous
 62
     2
100
AcDbLine
 10
2061.842160938555
 20
-260.2718508829066
 30
0.0
 11
2047.842160938555
 21
-260.5831572633862
 31
0.0
  0
LINE
  5
330
330
4A
100
AcDbEntity
  8
1
  6
Continuous
 62
     2
100
AcDbLine
 10
2061.842160938555
 20
-260.8480757603061
 30
0.0
 11
2047.842160938555
 21
-261.1593821407858
 31
0.0
  0
ARC
  5
331
330
4A
100
AcDbEntity
  8
1
  6
Continuous
 62
     2
100
AcDbCircle
 10
1784.842160938555
 20
-174.6402324541395
 30
0.0
 40
7.344691322195946
100
AcDbArc
 50
-74.19849501940496
 51
0.0
  0
ARC
  5
332
330
4A
100
AcDbEntity
  8
1
  6
Continuous
 62
     2
100
AcDbCircle
 10
1784.842160938555
 20
-174.6402324541395
 30
0.0
 40
7.344691322196053
100
AcDbArc
 50
103.7842993864628
 51
-105.8015049805948
  0
ARC
  5
333
330
4A
100
AcDbEntity
  8
1
  6
Continuous
 62
     2
100
AcDbCircle
 10
1784.842160938555
 20
-174.6402324541395
 30
0.0
 40
7.344691322196013
100
AcDbArc
 50
0.0
 51
76.21570061353721
  0
ENDBLK
  5
4C
330
4A
100
AcDbEntity
  8
0
100
AcDbBlockEnd
  0
BLOCK
  5
4E
330
4D
100
AcDbEntity
  8
0
100
AcDbBlockBegin
  2
2-4
 70
     0
 71
     0
 10
3269.703789953372
 20
-667.0876280151215
 30
0.0
  3
2-4
  1

  0
LINE
  5
334
330
4D
100
AcDbEntity
  8
1
  6
Continuous
 62
     3
100
AcDbLine
 10
1924.342160939098
 20
-258.8856070181856
 30
0.0
 11
1924.342160939098
 21
-255.3856070181856
 31
0.0
  0
LINE
  5
335
330
4D
100
AcDbEntity
  8
1
  6
Continuous
 62
     3
100
AcDbLine
 10
1913.342160939098
 20
-258.8856070181856
 30
0.0
 11
1915.342160938555
 21
-258.8856070181856
 31
0.0
  0
LINE
  5
336
330
4D
100
AcDbEntity
  8
1
  6
Continuous
 62
     3
100
AcDbLine
 10
1913.342160939098
 20
-255.3856070181856
 30
0.0
 11
1913.342160939098
 21
-258.8856070181856
 31
0.0
  0
LINE
  5
337
330
4D
100
AcDbEntity
  8
1
  6
Continuous
 62
     3
100
AcDbLine
 10
1928.842160939098
 20
-258.8856070181856
 30
0.0
 11
1928.842160939098
 21
-255.3856070181856
 31
0.0
  0
LINE
  5
338
330
4D
100
AcDbEntity
  8
1
  6
Continuous
 62
     3
100
AcDbLine
 10
1894.842160939098
 20
-259.1356070181856
 30
0.0
 11
1894.842160939098
 21
-255.1356070181856
 31
0.0
  0
LINE
  5
339
330
4D
100
AcDbEntity
  8
1
  6
Continuous
 62
     3
100
AcDbLine
 10
1929.342160939098
 20
-255.8856070181856
 30
0.0
 11
1928.842160939098
 21
-255.3856070181856
 31
0.0
  0
LINE
  5
33A
330
4D
100
AcDbEntity
  8
1
  6
Continuous
 62
     3
100
AcDbLine
 10
1929.342160939098
 20
-258.3856070181856
 30
0.0
 11
1928.842160939098
 21
-258.8856070181856
 31
0.0
  0
LINE
  5
33B
330
4D
100
AcDbEntity
  8
1
  6
Continuous
 62
     3
100
AcDbLine
 10
1894.342160939098
 20
-255.6356070181856
 30
0.0
 11
1894.842160939098
 21
-255.1356070181856
 31
0.0
  0
LINE
  5
33C
330
4D
100
AcDbEntity
  8
1
  6
Continuous
 62
     3
100
AcDbLine
 10
1894.342160939098
 20
-258.6356070181856
 30
0.0
 11
1894.842160939098
 21
-259.1356070181856
 31
0.0
  0
LINE
  5
33D
330
4D
100
AcDbEntity
  8
1
  6
Continuous
 62
     3
100
AcDbLine
 10
1894.342160939098
 20
-258.6356070181856
 30
0.0
 11
1894.342160939098
 21
-255.9743328737462
 31
0.0
  0
LINE
  5
33E
330
4D
100
AcDbEntity
  8
1
  6
Continuous
 62
     3
100
AcDbLine
 10
1913.342160939098
 20
-259.1356070181856
 30
0.0
 11
1913.342160939098
 21
-255.1356070181856
 31
0.0
  0
LINE
  5
33F
330
4D
100
AcDbEntity
  8
1
  6
Continuous
 62
     3
100
AcDbLine
 10
1924.842160939098
 20
-258.8856070181856
 30
0.0
 11
1924.842160939098
 21
-255.3856070181856
 31
0.0
  0
LINE
  5
340
330
4D
100
AcDbEntity
  8
1
  6
Continuous
 62
     3
100
AcDbLine
 10
1929.342160939098
 20
-258.3856070181856
 30
0.0
 11
1929.342160939098
 21
-255.8856070181856
 31
0.0
  0
LINE
  5
341
330
4D
100
AcDbEntity
  8
1
  6
Continuous
 62
     3
100
AcDbLine
 10
1894.842160939098
 20
-255.1356070181856
 30
0.0
 11
1913.342160939098
 21
-255.1356070181856
 31
0.0
  0
LINE
  5
342
330
4D
100
AcDbEntity
  8
1
  6
Continuous
 62
     3
100
AcDbLine
 10
1928.842160939098
 20
-255.3856070181856
 30
0.0
 11
1924.842160939098
 21
-255.3856070181856
 31
0.0
  0
LINE
  5
343
330
4D
100
AcDbEntity
  8
1
  6
Continuous
 62
     3
100
AcDbLine
 10
1924.842160939098
 20
-255.8856070181856
 30
0.0
 11
1924.742160939098
 21
-255.8856070181856
 31
0.0
  0
LINE
  5
344
330
4D
100
AcDbEntity
  8
1
  6
Continuous
 62
     3
100
AcDbLine
 10
1913.342160939098
 20
-259.1356070181856
 30
0.0
 11
1894.842160939098
 21
-259.1356070181856
 31
0.0
  0
LINE
  5
345
330
4D
100
AcDbEntity
  8
1
  6
Continuous
 62
     3
100
AcDbLine
 10
1924.842160939098
 20
-258.8856070181856
 30
0.0
 11
1928.842160939098
 21
-258.8856070181856
 31
0.0
  0
LINE
  5
346
330
4D
100
AcDbEntity
  8
1
  6
Continuous
 62
     3
100
AcDbLine
 10
1924.342160939098
 20
-258.3856070181856
 30
0.0
 11
1924.442160939098
 21
-258.3856070181856
 31
0.0
  0
LINE
  5
347
330
4D
100
AcDbEntity
  8
1
  6
DASH_CENTER
 62
     2
100
AcDbLine
 10
1929.950128070498
 20
-257.1356070181856
 30
0.0
 11
1893.064237803801
 21
-257.1356070181856
 31
0.0
  0
LINE
  5
348
330
4D
100
AcDbEntity
  8
1
  6
Continuous
 62
     3
100
AcDbLine
 10
1924.742160939098
 20
-258.3856070181856
 30
0.0
 11
1924.842160939098
 21
-258.3856070181856
 31
0.0
  0
LINE
  5
349
330
4D
100
AcDbEntity
  8
1
  6
Continuous
 62
     3
100
AcDbLine
 10
1924.442160939098
 20
-255.8856070181856
 30
0.0
 11
1924.342160939098
 21
-255.8856070181856
 31
0.0
  0
LINE
  5
34A
330
4D
100
AcDbEntity
  8
1
  6
Continuous
 62
     3
100
AcDbLine
 10
1915.342160938555
 20
-255.3856070181856
 30
0.0
 11
1913.342160939098
 21
-255.3856070181856
 31
0.0
  0
LINE
  5
34B
330
4D
100
AcDbEntity
  8
1
  6
Continuous
 62
     3
100
AcDbLine
 10
1894.342160939098
 20
-255.9743328737462
 30
0.0
 11
1894.342160939098
 21
-255.6356070181856
 31
0.0
  0
LINE
  5
34C
330
4D
100
AcDbEntity
  8
1
  6
Continuous
 62
     3
100
AcDbLine
 10
1783.680886794115
 20
-200.1402324541395
 30
0.0
 11
1783.342160938555
 21
-200.1402324541395
 31
0.0
  0
LINE
  5
34D
330
4D
100
AcDbEntity
  8
1
  6
Continuous
 62
     3
100
AcDbLine
 10
1783.092160938555
 20
-178.7860134420837
 30
0.0
 11
1783.092160938555
 21
-181.1402324541395
 31
0.0
  0
LINE
  5
34E
330
4D
100
AcDbEntity
  8
1
  6
Continuous
 62
     3
100
AcDbLine
 10
1786.592160938555
 20
-170.4944514661952
 30
0.0
 11
1786.592160938555
 21
-170.1402324541395
 31
0.0
  0
LINE
  5
34F
330
4D
100
AcDbEntity
  8
1
  6
Continuous
 62
     3
100
AcDbLine
 10
1783.592160938555
 20
-170.0402324541397
 30
0.0
 11
1783.592160938555
 21
-170.1402324541395
 31
0.0
  0
LINE
  5
350
330
4D
100
AcDbEntity
  8
1
  6
Continuous
 62
     3
100
AcDbLine
 10
1786.092160938555
 20
-169.7402324541394
 30
0.0
 11
1786.092160938555
 21
-169.6402324541395
 31
0.0
  0
LINE
  5
351
330
4D
100
AcDbEntity
  8
1
  6
DASH_CENTER
 62
     1
100
AcDbLine
 10
1784.842160938555
 20
-164.5322653227395
 30
0.0
 11
1784.842160938555
 21
-201.4181555894373
 31
0.0
  0
LINE
  5
352
330
4D
100
AcDbEntity
  8
1
  6
Continuous
 62
     3
100
AcDbLine
 10
1786.092160938555
 20
-170.1402324541395
 30
0.0
 11
1786.092160938555
 21
-170.0402324541397
 31
0.0
  0
LINE
  5
353
330
4D
100
AcDbEntity
  8
1
  6
Continuous
 62
     3
100
AcDbLine
 10
1786.592160938555
 20
-169.6402324541395
 30
0.0
 11
1786.592160938555
 21
-165.6402324541395
 31
0.0
  0
LINE
  5
354
330
4D
100
AcDbEntity
  8
1
  6
Continuous
 62
     3
100
AcDbLine
 10
1786.842160938555
 20
-181.1402324541395
 30
0.0
 11
1786.842160938555
 21
-199.6402324541395
 31
0.0
  0
LINE
  5
355
330
4D
100
AcDbEntity
  8
1
  6
Continuous
 62
     3
100
AcDbLine
 10
1783.592160938555
 20
-169.6402324541395
 30
0.0
 11
1783.592160938555
 21
-169.7402324541394
 31
0.0
  0
LINE
  5
356
330
4D
100
AcDbEntity
  8
1
  6
Continuous
 62
     3
100
AcDbLine
 10
1783.092160938555
 20
-165.6402324541395
 30
0.0
 11
1783.092160938555
 21
-169.6402324541395
 31
0.0
  0
LINE
  5
357
330
4D
100
AcDbEntity
  8
1
  6
Continuous
 62
     3
100
AcDbLine
 10
1782.842160938555
 20
-199.6402324541395
 30
0.0
 11
1782.842160938555
 21
-181.1402324541395
 31
0.0
  0
LINE
  5
358
330
4D
100
AcDbEntity
  8
1
  6
Continuous
 62
     3
100
AcDbLine
 10
1786.092160938555
 20
-165.1402324541395
 30
0.0
 11
1783.592160938555
 21
-165.1402324541395
 31
0.0
  0
LINE
  5
359
330
4D
100
AcDbEntity
  8
1
  6
Continuous
 62
     3
100
AcDbLine
 10
1786.592160938555
 20
-169.6402324541395
 30
0.0
 11
1783.092160938555
 21
-169.6402324541395
 31
0.0
  0
LINE
  5
35A
330
4D
100
AcDbEntity
  8
1
  6
Continuous
 62
     3
100
AcDbLine
 10
1786.842160938555
 20
-181.1402324541395
 30
0.0
 11
1782.842160938555
 21
-181.1402324541395
 31
0.0
  0
LINE
  5
35B
330
4D
100
AcDbEntity
  8
1
  6
Continuous
 62
     3
100
AcDbLine
 10
1786.342160938555
 20
-200.1402324541395
 30
0.0
 11
1783.680886794115
 21
-200.1402324541395
 31
0.0
  0
LINE
  5
35C
330
4D
100
AcDbEntity
  8
1
  6
Continuous
 62
     3
100
AcDbLine
 10
1786.342160938555
 20
-200.1402324541395
 30
0.0
 11
1786.842160938555
 21
-199.6402324541395
 31
0.0
  0
LINE
  5
35D
330
4D
100
AcDbEntity
  8
1
  6
Continuous
 62
     3
100
AcDbLine
 10
1783.342160938555
 20
-200.1402324541395
 30
0.0
 11
1782.842160938555
 21
-199.6402324541395
 31
0.0
  0
LINE
  5
35E
330
4D
100
AcDbEntity
  8
1
  6
Continuous
 62
     3
100
AcDbLine
 10
1786.092160938555
 20
-165.1402324541395
 30
0.0
 11
1786.592160938555
 21
-165.6402324541395
 31
0.0
  0
LINE
  5
35F
330
4D
100
AcDbEntity
  8
1
  6
Continuous
 62
     3
100
AcDbLine
 10
1783.592160938555
 20
-165.1402324541395
 30
0.0
 11
1783.092160938555
 21
-165.6402324541395
 31
0.0
  0
LINE
  5
360
330
4D
100
AcDbEntity
  8
1
  6
Continuous
 62
     3
100
AcDbLine
 10
1786.842160938555
 20
-199.6402324541395
 30
0.0
 11
1782.842160938555
 21
-199.6402324541395
 31
0.0
  0
LINE
  5
361
330
4D
100
AcDbEntity
  8
1
  6
Continuous
 62
     3
100
AcDbLine
 10
1786.592160938555
 20
-165.6402324541395
 30
0.0
 11
1783.092160938555
 21
-165.6402324541395
 31
0.0
  0
LINE
  5
362
330
4D
100
AcDbEntity
  8
1
  6
Continuous
 62
     3
100
AcDbLine
 10
1783.092160938555
 20
-181.1402324541395
 30
0.0
 11
1786.592160938555
 21
-181.1402324541395
 31
0.0
  0
LINE
  5
363
330
4D
100
AcDbEntity
  8
1
  6
Continuous
 62
     3
100
AcDbLine
 10
1786.592160938555
 20
-181.1402324541395
 30
0.0
 11
1786.592160938555
 21
-178.9333056873739
 31
0.0
  0
LINE
  5
364
330
4D
100
AcDbEntity
  8
1
  6
Continuous
 62
     3
100
AcDbLine
 10
1786.592160938555
 20
-170.1402324541395
 30
0.0
 11
1783.092160938555
 21
-170.1402324541395
 31
0.0
  0
LINE
  5
365
330
4D
100
AcDbEntity
  8
1
  6
Continuous
 62
     3
100
AcDbLine
 10
1783.092160938555
 20
-170.1402324541395
 30
0.0
 11
1783.092160938555
 21
-170.4944514661952
 31
0.0
  0
CIRCLE
  5
366
330
4D
100
AcDbEntity
  8
1
  6
Continuous
 62
     3
100
AcDbCircle
 10
1784.842160938555
 20
-257.1356070181856
 30
0.0
 40
2.0
  0
CIRCLE
  5
367
330
4D
100
AcDbEntity
  8
1
  6
Continuous
 62
     3
100
AcDbCircle
 10
1784.842160938555
 20
-257.1356070181856
 30
0.0
 40
1.5
  0
CIRCLE
  5
368
330
4D
100
AcDbEntity
  8
1
  6
Continuous
 62
     3
100
AcDbCircle
 10
2054.842160938555
 20
-257.1356070181856
 30
0.0
 40
1.5
  0
CIRCLE
  5
369
330
4D
100
AcDbEntity
  8
1
  6
Continuous
 62
     3
100
AcDbCircle
 10
2054.842160938555
 20
-257.1356070181856
 30
0.0
 40
2.0
  0
ENDBLK
  5
4F
330
4D
100
AcDbEntity
  8
0
100
AcDbBlockEnd
  0
BLOCK
  5
58
330
50
100
AcDbEntity
  8
0
100
AcDbBlockBegin
  2
2
 70
     0
 71
     0
 10
1599.947773299545
 20
-337.6696805778882
 30
0.0
  3
2
  1

  0
INSERT
  5
51
330
50
100
AcDbEntity
  8
1
100
AcDbBlockReference
  2
2-2
 10
1599.947773299545
 20
-337.6696805778882
 30
0.0
  0
INSERT
  5
52
330
50
100
AcDbEntity
  8
1
100
AcDbBlockReference
  2
2-8
 10
1707.342160938554
 20
-198.1055995188729
 30
0.0
  0
INSERT
  5
53
330
50
100
AcDbEntity
  8
0
100
AcDbBlockReference
  2
2-7
 10
2195.721322552743
 20
19.43342576393476
 30
0.0
  0
INSERT
  5
54
330
50
100
AcDbEntity
  8
1
100
AcDbBlockReference
  2
2-5
 10
1780.342160938555
 20
-261.6356070177696
 30
0.0
  0
INSERT
  5
55
330
50
100
AcDbEntity
  8
1
100
AcDbBlockReference
  2
2-1
 10
1632.447773299545
 20
-318.095970410166
 30
0.0
  0
INSERT
  5
56
330
50
100
AcDbEntity
  8
1
100
AcDbBlockReference
  2
2-6
 10
1777.497469616359
 20
-261.7356070181857
 30
0.0
  0
INSERT
  5
57
330
50
100
AcDbEntity
  8
0
100
AcDbBlockReference
  2
2-4
 10
3269.703789953372
 20
-667.0876280151215
 30
0.0
  0
LINE
  5
36A
330
50
100
AcDbEntity
  8
1
  6
PHANTOM
 62
     4
100
AcDbLine
 10
1784.842160938139
 20
-133.616905327916
 30
0.0
 11
1784.842160938139
 21
-215.353191656468
 31
0.0
  0
LINE
  5
36B
330
50
100
AcDbEntity
  8
0
  6
Continuous
 62
     3
100
AcDbLine
 10
1924.742160939098
 20
-253.735607018068
 30
0.0
 11
1934.461416513517
 21
-253.7356070179868
 31
0.0
  0
LINE
  5
36C
330
50
100
AcDbEntity
  8
0
  6
Continuous
 62
     3
100
AcDbLine
 10
1904.909164754259
 20
-259.1356070181856
 30
0.0
 11
1904.813182131555
 21
-259.9836764872147
 31
0.0
  0
LINE
  5
36D
330
50
100
AcDbEntity
  8
1
  6
Continuous
 62
     3
100
AcDbLine
 10
1784.565048647202
 20
-202.6213806410295
 30
0.0
 11
1786.084528342557
 21
-202.6213806410295
 31
0.0
  0
LINE
  5
36E
330
50
100
AcDbEntity
  8
1
  6
Continuous
 62
     3
100
AcDbLine
 10
1783.565048647202
 20
-200.1402324541395
 30
0.0
 11
1783.565048647202
 21
-201.6213806410295
 31
0.0
  0
LINE
  5
36F
330
50
100
AcDbEntity
  8
0
  6
Continuous
 62
     3
100
AcDbLine
 10
1892.175326821555
 20
-253.7356070182153
 30
0.0
 11
1900.222408115555
 21
-253.7356070182153
 31
0.0
  0
LINE
  5
370
330
50
100
AcDbEntity
  8
1
  6
DOT_CENTER
 62
     1
100
AcDbLine
 10
1784.842160938139
 20
-167.4902324546819
 30
0.0
 11
1784.842160938139
 21
-181.7902324546819
 31
0.0
  0
LINE
  5
371
330
50
100
AcDbEntity
  8
1
  6
DOT_CENTER
 62
     1
100
AcDbLine
 10
1791.992160938139
 20
-174.640232454682
 30
0.0
 11
1777.692160938138
 21
-174.640232454682
 31
0.0
  0
LINE
  5
372
330
50
100
AcDbEntity
  8
1
  6
DOT_CENTER
 62
     1
100
AcDbLine
 10
1757.842160938139
 20
-172.440232454682
 30
0.0
 11
1757.842160938139
 21
-176.8402324546821
 31
0.0
  0
LINE
  5
373
330
50
100
AcDbEntity
  8
1
  6
DOT_CENTER
 62
     1
100
AcDbLine
 10
1760.042160938139
 20
-174.640232454682
 30
0.0
 11
1755.642160938139
 21
-174.640232454682
 31
0.0
  0
LINE
  5
374
330
50
100
AcDbEntity
  8
1
  6
Continuous
 62
     3
100
AcDbLine
 10
1758.342160938139
 20
-202.140232454682
 30
0.0
 11
1757.342160938139
 21
-202.140232454682
 31
0.0
  0
LINE
  5
375
330
50
100
AcDbEntity
  8
0
  6
Continuous
 62
     3
100
AcDbLine
 10
1722.13297199498
 20
-207.2923493744681
 30
0.0
 11
1769.191623525825
 21
-207.2923493744681
 31
0.0
  0
LINE
  5
376
330
50
100
AcDbEntity
  8
0
  6
Continuous
 62
     3
100
AcDbLine
 10
1717.143142448651
 20
-146.9790541606821
 30
0.0
 11
1717.143142448651
 21
-202.3014107486819
 31
0.0
  0
LINE
  5
377
330
50
100
AcDbEntity
  8
0
  6
Continuous
 62
     3
100
AcDbLine
 10
1769.191623525825
 20
-141.9881155348957
 30
0.0
 11
1722.132971995139
 21
-141.988115534682
 31
0.0
  0
LINE
  5
378
330
50
100
AcDbEntity
  8
0
  6
Continuous
 62
     3
100
AcDbLine
 10
1716.842160938139
 20
-211.640232454682
 30
0.0
 11
1810.342160938139
 21
-211.640232454682
 31
0.0
  0
LINE
  5
379
330
50
100
AcDbEntity
  8
0
  6
Continuous
 62
     3
100
AcDbLine
 10
1774.623169622138
 20
-146.7794604626819
 30
0.0
 11
1774.618215448139
 21
-146.5445770126821
 31
0.0
  0
LINE
  5
37A
330
50
100
AcDbEntity
  8
0
  6
Continuous
 62
     3
100
AcDbLine
 10
1774.623169622138
 20
-159.6112536476819
 30
0.0
 11
1774.623169622138
 21
-146.7794604626819
 31
0.0
  0
LINE
  5
37B
330
50
100
AcDbEntity
  8
0
  6
Continuous
 62
     3
100
AcDbLine
 10
1774.170647912637
 20
-160.0209768796082
 30
0.0
 11
1774.170647913139
 21
-146.973398337682
 31
0.0
  0
LINE
  5
37C
330
50
100
AcDbEntity
  8
0
  6
Continuous
 62
     3
100
AcDbLine
 10
1806.342160938139
 20
-139.1909380946819
 30
0.0
 11
1806.342160938139
 21
-139.4777324546821
 31
0.0
  0
LINE
  5
37D
330
50
100
AcDbEntity
  8
0
  6
Continuous
 62
     3
100
AcDbLine
 10
1806.342160938139
 20
-139.4777324546821
 30
0.0
 11
1803.342160938139
 21
-139.4777324546821
 31
0.0
  0
LINE
  5
37E
330
50
100
AcDbEntity
  8
0
  6
Continuous
 62
     3
100
AcDbLine
 10
1794.328993919139
 20
-170.640232454682
 30
0.0
 11
1798.243630722139
 21
-170.640232454682
 31
0.0
  0
LINE
  5
37F
330
50
100
AcDbEntity
  8
0
  6
Continuous
 62
     3
100
AcDbLine
 10
1798.243630722139
 20
-170.640232454682
 30
0.0
 11
1798.243630722139
 21
-178.640232454682
 31
0.0
  0
LINE
  5
380
330
50
100
AcDbEntity
  8
0
  6
Continuous
 62
     3
100
AcDbLine
 10
1805.342160938257
 20
-144.2149055066552
 30
0.0
 11
1805.342160938139
 21
-146.140232454682
 31
0.0
  0
LINE
  5
381
330
50
100
AcDbEntity
  8
0
  6
Continuous
 62
     3
100
AcDbLine
 10
1804.207077669174
 20
-181.6402324546907
 30
0.0
 11
1799.842160938139
 21
-181.6402324546822
 31
0.0
  0
LINE
  5
382
330
50
100
AcDbEntity
  8
0
  6
Continuous
 62
     3
100
AcDbLine
 10
1803.342160938139
 20
-141.4581328265746
 30
0.0
 11
1770.428249845139
 21
-141.458132826682
 31
0.0
  0
LINE
  5
383
330
50
100
AcDbEntity
  8
0
  6
Continuous
 62
     3
100
AcDbLine
 10
1812.213974194139
 20
-169.6392767366819
 30
0.0
 11
1812.213974194139
 21
-150.640232454682
 31
0.0
  0
LINE
  5
384
330
50
100
AcDbEntity
  8
0
  6
Continuous
 62
     3
100
AcDbLine
 10
1811.214611340139
 20
-178.641825318682
 30
0.0
 11
1798.243630722139
 21
-178.640232454682
 31
0.0
  0
LINE
  5
385
330
50
100
AcDbEntity
  8
0
  6
Continuous
 62
     3
100
AcDbLine
 10
1798.243630722139
 20
-178.640232454682
 30
0.0
 11
1794.328993919139
 21
-178.640232454682
 31
0.0
  0
LINE
  5
386
330
50
100
AcDbEntity
  8
0
  6
Continuous
 62
     3
100
AcDbLine
 10
1811.546167428139
 20
-178.640232454682
 30
0.0
 11
1811.214611340139
 21
-178.641825318682
 31
0.0
  0
LINE
  5
387
330
50
100
AcDbEntity
  8
0
  6
Continuous
 62
     3
100
AcDbLine
 10
1798.243630722139
 20
-170.640232454682
 30
0.0
 11
1811.216523386139
 21
-170.640232454682
 31
0.0
  0
LINE
  5
388
330
50
100
AcDbEntity
  8
0
  6
Continuous
 62
     3
100
AcDbLine
 10
1811.216523386139
 20
-170.640232454682
 30
0.0
 11
1811.546167428139
 21
-170.640232454682
 31
0.0
  0
LINE
  5
389
330
50
100
AcDbEntity
  8
0
  6
Continuous
 62
     3
100
AcDbLine
 10
1806.842160938139
 20
-147.6402324545308
 30
0.0
 11
1809.733424201184
 21
-147.6402324546065
 31
0.0
  0
LINE
  5
38A
330
50
100
AcDbEntity
  8
0
  6
Continuous
 62
     3
100
AcDbLine
 10
1812.213974194139
 20
-179.6411881726819
 30
0.0
 11
1812.734392110139
 21
-179.640232454682
 31
0.0
  0
LINE
  5
38B
330
50
100
AcDbEntity
  8
0
  6
Continuous
 62
     3
100
AcDbLine
 10
1812.734392110139
 20
-179.640232454682
 30
0.0
 11
1812.734392110139
 21
-169.640232454682
 31
0.0
  0
LINE
  5
38C
330
50
100
AcDbEntity
  8
0
  6
Continuous
 62
     3
100
AcDbLine
 10
1812.734392110139
 20
-169.640232454682
 30
0.0
 11
1812.213974194139
 21
-169.6392767366819
 31
0.0
  0
LINE
  5
38D
330
50
100
AcDbEntity
  8
0
  6
Continuous
 62
     3
100
AcDbLine
 10
1757.623494731139
 20
-159.7762494316821
 30
0.0
 11
1755.697095931139
 21
-159.402938260682
 31
0.0
  0
LINE
  5
38E
330
50
100
AcDbEntity
  8
0
  6
Continuous
 62
     3
100
AcDbLine
 10
1757.024532580139
 20
-159.3883608036819
 30
0.0
 11
1757.777912362139
 21
-159.8012725856819
 31
0.0
  0
LINE
  5
38F
330
50
100
AcDbEntity
  8
0
  6
Continuous
 62
     3
100
AcDbLine
 10
1757.777912362139
 20
-159.8012725856819
 30
0.0
 11
1757.777912361605
 21
-159.8111874237733
 31
0.0
  0
LINE
  5
390
330
50
100
AcDbEntity
  8
0
  6
Continuous
 62
     3
100
AcDbLine
 10
1754.342160938139
 20
-198.640232454682
 30
0.0
 11
1754.342160938139
 21
-150.640232454682
 31
0.0
  0
LINE
  5
391
330
50
100
AcDbEntity
  8
0
  6
Continuous
 62
     3
100
AcDbLine
 10
1755.697095931139
 20
-154.7500489756821
 30
0.0
 11
1755.697095931139
 21
-155.6644857486819
 31
0.0
  0
LINE
  5
392
330
50
100
AcDbEntity
  8
0
  6
Continuous
 62
     3
100
AcDbLine
 10
1759.082598081139
 20
-163.591379624682
 30
0.0
 11
1759.669579765139
 21
-163.6948509066819
 31
0.0
  0
LINE
  5
393
330
50
100
AcDbEntity
  8
0
  6
Continuous
 62
     3
100
AcDbLine
 10
1758.409977249027
 20
-162.9249114986123
 30
0.0
 11
1759.082598081139
 21
-163.591379624682
 31
0.0
  0
LINE
  5
394
330
50
100
AcDbEntity
  8
0
  6
Continuous
 62
     3
100
AcDbLine
 10
1758.912983656139
 20
-162.3964061996821
 30
0.0
 11
1758.902183595139
 21
-162.391183256682
 31
0.0
  0
LINE
  5
395
330
50
100
AcDbEntity
  8
0
  6
Continuous
 62
     3
100
AcDbLine
 10
1759.669579765139
 20
-163.6948509066819
 30
0.0
 11
1759.669579765139
 21
-161.4091427006819
 31
0.0
  0
LINE
  5
396
330
50
100
AcDbEntity
  8
0
  6
Continuous
 62
     3
100
AcDbLine
 10
1757.777971376139
 20
-163.339554682682
 30
0.0
 11
1757.777971376139
 21
-162.2667756646819
 31
0.0
  0
LINE
  5
397
330
50
100
AcDbEntity
  8
0
  6
Continuous
 62
     3
100
AcDbLine
 10
1757.777971376139
 20
-162.2667756646819
 30
0.0
 11
1757.788711224647
 21
-162.277397221703
 31
0.0
  0
LINE
  5
398
330
50
100
AcDbEntity
  8
0
  6
Continuous
 62
     3
100
AcDbLine
 10
1757.021257237139
 20
-160.9834835566821
 30
0.0
 11
1757.021257237139
 21
-163.2062060406819
 31
0.0
  0
LINE
  5
399
330
50
100
AcDbEntity
  8
0
  6
Continuous
 62
     3
100
AcDbLine
 10
1758.280791988153
 20
-161.7528096802225
 30
0.0
 11
1757.588674855139
 21
-161.0935204756819
 31
0.0
  0
LINE
  5
39A
330
50
100
AcDbEntity
  8
0
  6
Continuous
 62
     3
100
AcDbLine
 10
1758.912983656139
 20
-161.2757645936819
 30
0.0
 11
1758.912983656139
 21
-162.3964061996821
 31
0.0
  0
LINE
  5
39B
330
50
100
AcDbEntity
  8
0
  6
Continuous
 62
     3
100
AcDbLine
 10
1758.161698983139
 20
-163.8436766546819
 30
0.0
 11
1758.152315350267
 21
-163.8417291104631
 31
0.0
  0
LINE
  5
39C
330
50
100
AcDbEntity
  8
0
  6
Continuous
 62
     3
100
AcDbLine
 10
1759.669579765139
 20
-161.4091427006819
 30
0.0
 11
1758.912983656139
 21
-161.2757645936819
 31
0.0
  0
LINE
  5
39D
330
50
100
AcDbEntity
  8
0
  6
Continuous
 62
     3
100
AcDbLine
 10
1757.588674855139
 20
-161.0935204756819
 30
0.0
 11
1757.021257237139
 21
-160.9834835566821
 31
0.0
  0
LINE
  5
39E
330
50
100
AcDbEntity
  8
0
  6
Continuous
 62
     3
100
AcDbLine
 10
1759.666333862139
 20
-165.3216211916819
 30
0.0
 11
1758.912924641139
 21
-164.908547371682
 31
0.0
  0
LINE
  5
39F
330
50
100
AcDbEntity
  8
0
  6
Continuous
 62
     3
100
AcDbLine
 10
1758.912924641139
 20
-164.908547371682
 30
0.0
 11
1758.912924640645
 21
-164.8993407975794
 31
0.0
  0
LINE
  5
3A0
330
50
100
AcDbEntity
  8
0
  6
Continuous
 62
     3
100
AcDbLine
 10
1757.021257237139
 20
-163.2062060406819
 30
0.0
 11
1757.777971376139
 21
-163.339554682682
 31
0.0
  0
LINE
  5
3A1
330
50
100
AcDbEntity
  8
0
  6
Continuous
 62
     3
100
AcDbLine
 10
1759.669579765139
 20
-165.0032104506819
 30
0.0
 11
1759.669579765139
 21
-164.073045748682
 31
0.0
  0
LINE
  5
3A2
330
50
100
AcDbEntity
  8
0
  6
Continuous
 62
     3
100
AcDbLine
 10
1805.34216093829
 20
-203.140232454682
 30
0.0
 11
1805.34216093843
 21
-205.0655593951782
 31
0.0
  0
LINE
  5
3A3
330
50
100
AcDbEntity
  8
0
  6
Continuous
 62
     3
100
AcDbLine
 10
1805.34216093843
 20
-205.0655593951782
 30
0.0
 11
1805.342160937792
 21
-205.8251958178386
 31
0.0
  0
LINE
  5
3A4
330
50
100
AcDbEntity
  8
0
  6
Continuous
 62
     3
100
AcDbLine
 10
1811.342160938139
 20
-201.639954413682
 30
0.0
 11
1811.342160937974
 21
-204.795562849682
 31
0.0
  0
LINE
  5
3A5
330
50
100
AcDbEntity
  8
0
  6
Continuous
 62
     3
100
AcDbLine
 10
1811.342160938139
 20
-201.6299554556819
 30
0.0
 11
1811.342160938139
 21
-201.639954413682
 31
0.0
  0
LINE
  5
3A6
330
50
100
AcDbEntity
  8
0
  6
Continuous
 62
     3
100
AcDbLine
 10
1809.733424201228
 20
-201.640232454446
 30
0.0
 11
1806.842160938139
 21
-201.640232454682
 31
0.0
  0
LINE
  5
3A7
330
50
100
AcDbEntity
  8
0
  6
Continuous
 62
     3
100
AcDbLine
 10
1811.115567058355
 20
-201.640232454446
 30
0.0
 11
1809.733424201228
 21
-201.640232454446
 31
0.0
  0
LINE
  5
3A8
330
50
100
AcDbEntity
  8
0
  6
Continuous
 62
     3
100
AcDbLine
 10
1810.342160938139
 20
-137.640232454682
 30
0.0
 11
1716.842160938139
 21
-137.640232454682
 31
0.0
  0
LINE
  5
3A9
330
50
100
AcDbEntity
  8
0
  6
Continuous
 62
     3
100
AcDbLine
 10
1757.614996420657
 20
-157.4529028831193
 30
0.0
 11
1759.669579765139
 21
-157.815119147682
 31
0.0
  0
LINE
  5
3AA
330
50
100
AcDbEntity
  8
0
  6
Continuous
 62
     3
100
AcDbLine
 10
1759.669579765139
 20
-156.9007709406819
 30
0.0
 11
1757.374561688139
 21
-156.4961513196819
 31
0.0
  0
LINE
  5
3AB
330
50
100
AcDbEntity
  8
0
  6
Continuous
 62
     3
100
AcDbLine
 10
1755.697095931139
 20
-155.6644857486819
 30
0.0
 11
1759.669579765139
 21
-156.364838818682
 31
0.0
  0
LINE
  5
3AC
330
50
100
AcDbEntity
  8
0
  6
Continuous
 62
     3
100
AcDbLine
 10
1759.669579765139
 20
-155.450549626682
 30
0.0
 11
1755.697095931139
 21
-154.7500489756821
 31
0.0
  0
LINE
  5
3AD
330
50
100
AcDbEntity
  8
0
  6
Continuous
 62
     3
100
AcDbLine
 10
1806.342160938139
 20
-139.1909380946819
 30
0.0
 11
1718.403402074139
 21
-139.1909380946819
 31
0.0
  0
LINE
  5
3AE
330
50
100
AcDbEntity
  8
0
  6
Continuous
 62
     3
100
AcDbLine
 10
1805.342160937813
 20
-141.4806002969808
 30
0.0
 11
1805.342160937813
 21
-143.4552690914802
 31
0.0
  0
LINE
  5
3AF
330
50
100
AcDbEntity
  8
0
  6
Continuous
 62
     3
100
AcDbLine
 10
1805.342160937813
 20
-143.4552690914802
 30
0.0
 11
1805.342160938257
 21
-144.2149055066552
 31
0.0
  0
LINE
  5
3B0
330
50
100
AcDbEntity
  8
0
  6
Continuous
 62
     3
100
AcDbLine
 10
1811.342160938139
 20
-147.640510495682
 30
0.0
 11
1811.3421609379
 21
-144.4849020596818
 31
0.0
  0
LINE
  5
3B1
330
50
100
AcDbEntity
  8
0
  6
Continuous
 62
     3
100
AcDbLine
 10
1761.342160938139
 20
-150.640232454682
 30
0.0
 11
1761.342160938139
 21
-198.640232454682
 31
0.0
  0
LINE
  5
3B2
330
50
100
AcDbEntity
  8
0
  6
Continuous
 62
     3
100
AcDbLine
 10
1813.842160938139
 20
-150.140232454682
 30
0.0
 11
1813.842160938139
 21
-199.140232454682
 31
0.0
  0
LINE
  5
3B3
330
50
100
AcDbEntity
  8
0
  6
Continuous
 62
     3
100
AcDbLine
 10
1812.213974194317
 20
-198.640232454682
 30
0.0
 11
1812.213974194139
 21
-179.6411881726819
 31
0.0
  0
LINE
  5
3B4
330
50
100
AcDbEntity
  8
0
  6
Continuous
 62
     3
100
AcDbLine
 10
1815.342160938139
 20
-206.640232454682
 30
0.0
 11
1815.342160938139
 21
-142.640232454682
 31
0.0
  0
LINE
  5
3B5
330
50
100
AcDbEntity
  8
0
  6
Continuous
 62
     3
100
AcDbLine
 10
1774.170647912637
 20
-202.3070665716581
 30
0.0
 11
1774.170647912402
 21
-189.2594880297458
 31
0.0
  0
LINE
  5
3B6
330
50
100
AcDbEntity
  8
0
  6
Continuous
 62
     3
100
AcDbLine
 10
1774.623169622138
 20
-202.5010044466819
 30
0.0
 11
1774.623169622138
 21
-189.6692112616819
 31
0.0
  0
LINE
  5
3B7
330
50
100
AcDbEntity
  8
0
  6
Continuous
 62
     3
100
AcDbLine
 10
1774.618215448139
 20
-202.735887896682
 30
0.0
 11
1774.623169622138
 21
-202.5010044466819
 31
0.0
  0
LINE
  5
3B8
330
50
100
AcDbEntity
  8
0
  6
Continuous
 62
     3
100
AcDbLine
 10
1805.342160937792
 20
-205.8251958178386
 30
0.0
 11
1805.342160937792
 21
-207.7998646123767
 31
0.0
  0
LINE
  5
3B9
330
50
100
AcDbEntity
  8
0
  6
Continuous
 62
     3
100
AcDbLine
 10
1806.342160938139
 20
-209.8027324546819
 30
0.0
 11
1806.342160938139
 21
-210.0895268146819
 31
0.0
  0
LINE
  5
3BA
330
50
100
AcDbEntity
  8
0
  6
Continuous
 62
     3
100
AcDbLine
 10
1770.428249845139
 20
-207.8223320826818
 30
0.0
 11
1803.342160938285
 21
-207.8223320828928
 31
0.0
  0
LINE
  5
3BB
330
50
100
AcDbEntity
  8
0
  6
Continuous
 62
     3
100
AcDbLine
 10
1718.403402074139
 20
-210.0895268146819
 30
0.0
 11
1806.342160938139
 21
-210.0895268146819
 31
0.0
  0
LINE
  5
3BC
330
50
100
AcDbEntity
  8
0
  6
Continuous
 62
     3
100
AcDbLine
 10
1803.342160938139
 20
-209.8027324546819
 30
0.0
 11
1806.342160938139
 21
-209.8027324546819
 31
0.0
  0
LINE
  5
3BD
330
50
100
AcDbEntity
  8
0
  6
Continuous
 62
     3
100
AcDbLine
 10
1759.669579765139
 20
-157.815119147682
 30
0.0
 11
1759.669579765139
 21
-156.9007709406819
 31
0.0
  0
LINE
  5
3BE
330
50
100
AcDbEntity
  8
0
  6
Continuous
 62
     3
100
AcDbLine
 10
1759.669579765139
 20
-156.364838818682
 30
0.0
 11
1759.669579765139
 21
-155.450549626682
 31
0.0
  0
LINE
  5
3BF
330
50
100
AcDbEntity
  8
0
  6
Continuous
 62
     3
100
AcDbLine
 10
1773.612941280716
 20
-187.4036421051623
 30
0.0
 11
1773.241066281006
 21
-187.0665996933066
 31
0.0
  0
LINE
  5
3C0
330
50
100
AcDbEntity
  8
0
  6
Continuous
 62
     3
100
AcDbLine
 10
1773.241066281038
 20
-162.2138652160281
 30
0.0
 11
1773.612941280716
 21
-161.8768228042015
 31
0.0
  0
LINE
  5
3C1
330
50
100
AcDbEntity
  8
0
  6
Continuous
 62
     3
100
AcDbLine
 10
1811.342160938139
 20
-147.6505094536819
 30
0.0
 11
1811.342160938139
 21
-147.640510495682
 31
0.0
  0
LINE
  5
3C2
330
50
100
AcDbEntity
  8
0
  6
Continuous
 62
     3
100
AcDbLine
 10
1809.733424201184
 20
-147.6402324546065
 30
0.0
 11
1811.115567058349
 21
-147.6402324546065
 31
0.0
  0
LINE
  5
3C3
330
50
100
AcDbEntity
  8
0
  6
Continuous
 62
     3
100
AcDbLine
 10
1713.408500434139
 20
-144.1780726506819
 30
0.0
 11
1713.40850043404
 21
-188.773632189682
 31
0.0
  0
LINE
  5
3C4
330
50
100
AcDbEntity
  8
0
  6
Continuous
 62
     3
100
AcDbLine
 10
1712.411041735139
 20
-188.773632189682
 30
0.0
 11
1713.40850043404
 21
-188.773632189682
 31
0.0
  0
LINE
  5
3C5
330
50
100
AcDbEntity
  8
0
  6
Continuous
 62
     3
100
AcDbLine
 10
1711.842160938139
 20
-161.9123103936819
 30
0.0
 11
1711.842160938139
 21
-142.640232454682
 31
0.0
  0
LINE
  5
3C6
330
50
100
AcDbEntity
  8
0
  6
Continuous
 62
     3
100
AcDbLine
 10
1711.842160938139
 20
-188.6992609466819
 30
0.0
 11
1711.842160938139
 21
-187.3681545156819
 31
0.0
  0
LINE
  5
3C7
330
50
100
AcDbEntity
  8
0
  6
Continuous
 62
     3
100
AcDbLine
 10
1711.84216093848
 20
-188.7736321896506
 30
0.0
 11
1711.842160938139
 21
-188.6992609466819
 31
0.0
  0
LINE
  5
3C8
330
50
100
AcDbEntity
  8
0
  6
Continuous
 62
     3
100
AcDbLine
 10
1711.84216093848
 20
-188.7736321896506
 30
0.0
 11
1712.411041735139
 21
-188.773632189682
 31
0.0
  0
LINE
  5
3C9
330
50
100
AcDbEntity
  8
0
  6
Continuous
 62
     3
100
AcDbLine
 10
1755.697095931139
 20
-160.3172864676821
 30
0.0
 11
1758.520521522736
 21
-160.864387557613
 31
0.0
  0
LINE
  5
3CA
330
50
100
AcDbEntity
  8
0
  6
Continuous
 62
     3
100
AcDbLine
 10
1755.697095931139
 20
-159.402938260682
 30
0.0
 11
1755.697095931139
 21
-160.3172864676821
 31
0.0
  0
LINE
  5
3CB
330
50
100
AcDbEntity
  8
0
  6
Continuous
 62
     3
100
AcDbLine
 10
1712.424687540459
 20
-205.5068327203668
 30
0.0
 11
1713.419627556753
 21
-205.4396092628378
 31
0.0
  0
LINE
  5
3CC
330
50
100
AcDbEntity
  8
0
  6
Continuous
 62
     3
100
AcDbLine
 10
1712.424687540459
 20
-205.5068327203668
 30
0.0
 11
1711.842160937797
 21
-205.5068327200226
 31
0.0
  0
LINE
  5
3CD
330
50
100
AcDbEntity
  8
0
  6
Continuous
 62
     3
100
AcDbLine
 10
1711.842160938139
 20
-205.5812039626819
 30
0.0
 11
1711.842160937797
 21
-205.5068327200226
 31
0.0
  0
LINE
  5
3CE
330
50
100
AcDbEntity
  8
0
  6
Continuous
 62
     3
100
AcDbLine
 10
1711.842160938139
 20
-206.640232454682
 30
0.0
 11
1711.842160938139
 21
-205.5812039626819
 31
0.0
  0
LINE
  5
3CF
330
50
100
AcDbEntity
  8
0
  6
Continuous
 62
     3
100
AcDbLine
 10
1711.842160938139
 20
-188.6992609466819
 30
0.0
 11
1706.842160938139
 21
-188.6992609466819
 31
0.0
  0
LINE
  5
3D0
330
50
100
AcDbEntity
  8
0
  6
Continuous
 62
     3
100
AcDbLine
 10
1706.842160938139
 20
-188.6992609466819
 30
0.0
 11
1706.842160938139
 21
-205.5812039626819
 31
0.0
  0
LINE
  5
3D1
330
50
100
AcDbEntity
  8
0
  6
Continuous
 62
     3
100
AcDbLine
 10
1711.842160938139
 20
-205.5812039626819
 30
0.0
 11
1706.842160938139
 21
-205.5812039626819
 31
0.0
  0
LINE
  5
3D2
330
50
100
AcDbEntity
  8
1
  6
PHANTOM
 62
     4
100
AcDbLine
 10
1702.842160938123
 20
-174.6402324546827
 30
0.0
 11
1822.090219815568
 21
-174.6402324546827
 31
0.0
  0
LINE
  5
3D3
330
50
100
AcDbEntity
  8
0
  6
Continuous
 62
     3
100
AcDbLine
 10
1720.592160938198
 20
-312.7356070181854
 30
0.0
 11
1716.842160938555
 21
-312.7356070181854
 31
0.0
  0
LINE
  5
3D4
330
50
100
AcDbEntity
  8
0
  6
Continuous
 62
     3
100
AcDbLine
 10
1800.592160938198
 20
-309.7356070181854
 30
0.0
 11
1801.342160938198
 21
-309.7356070181854
 31
0.0
  0
LINE
  5
3D5
330
50
100
AcDbEntity
  8
0
  6
Continuous
 62
     3
100
AcDbLine
 10
1651.006801791545
 20
-312.2356070182146
 30
0.0
 11
1654.039446386349
 21
-312.2356070182146
 31
0.0
  0
LINE
  5
3D6
330
50
100
AcDbEntity
  8
0
  6
Continuous
 62
     3
100
AcDbLine
 10
1604.194450094442
 20
-258.4681132368984
 30
0.0
 11
1601.498478938764
 21
-308.7891017392041
 31
0.0
  0
LINE
  5
3D7
330
50
100
AcDbEntity
  8
0
  6
Continuous
 62
     3
100
AcDbLine
 10
1599.947773299545
 20
-309.7356070182146
 30
0.0
 11
1599.947773299545
 21
-312.2356070182146
 31
0.0
  0
LINE
  5
3D8
330
50
100
AcDbEntity
  8
0
  6
Continuous
 62
     3
100
AcDbLine
 10
1600.499910807545
 20
-309.7356070182146
 30
0.0
 11
1599.947773299545
 21
-309.7356070182146
 31
0.0
  0
LINE
  5
3D9
330
50
100
AcDbEntity
  8
0
  6
Continuous
 62
     3
100
AcDbLine
 10
1604.947773299545
 20
-309.7356070182146
 30
0.0
 11
1600.499910807545
 21
-309.7356070182146
 31
0.0
  0
LINE
  5
3DA
330
50
100
AcDbEntity
  8
0
  6
Continuous
 62
     3
100
AcDbLine
 10
1599.947773299545
 20
-312.2356070182146
 30
0.0
 11
1601.447773299545
 21
-312.2356070182146
 31
0.0
  0
LINE
  5
3DB
330
50
100
AcDbEntity
  8
0
  6
Continuous
 62
     3
100
AcDbLine
 10
1601.447773299545
 20
-312.2356070182146
 30
0.0
 11
1604.947773299545
 21
-312.2356070182146
 31
0.0
  0
LINE
  5
3DC
330
50
100
AcDbEntity
  8
0
  6
Continuous
 62
     3
100
AcDbLine
 10
1601.447773299545
 20
-312.2356070182146
 30
0.0
 11
1601.447773299545
 21
-312.7356070182146
 31
0.0
  0
LINE
  5
3DD
330
50
100
AcDbEntity
  8
0
  6
Continuous
 62
     3
100
AcDbLine
 10
1633.476521828545
 20
-312.7356070182146
 30
0.0
 11
1624.219851237956
 21
-312.7356070178568
 31
0.0
  0
LINE
  5
3DE
330
50
100
AcDbEntity
  8
0
  6
Continuous
 62
     3
100
AcDbLine
 10
1624.219851237956
 20
-312.7356070178568
 30
0.0
 11
1622.947773299545
 21
-312.7356070182146
 31
0.0
  0
LINE
  5
3DF
330
50
100
AcDbEntity
  8
0
  6
Continuous
 62
     3
100
AcDbLine
 10
1633.476521828545
 20
-312.7356070182146
 30
0.0
 11
1640.419024770677
 21
-312.7356070185725
 31
0.0
  0
LINE
  5
3E0
330
50
100
AcDbEntity
  8
0
  6
Continuous
 62
     3
100
AcDbLine
 10
1672.397067659418
 20
-308.7891017392323
 30
0.0
 11
1669.700990429186
 21
-258.4681027976607
 31
0.0
  0
LINE
  5
3E1
330
50
100
AcDbEntity
  8
0
  6
Continuous
 62
     3
100
AcDbLine
 10
1668.947773299545
 20
-312.2356070182146
 30
0.0
 11
1667.888744807545
 21
-312.2356070182146
 31
0.0
  0
LINE
  5
3E2
330
50
100
AcDbEntity
  8
0
  6
Continuous
 62
     3
100
AcDbLine
 10
1673.395635791665
 20
-309.7356070181921
 30
0.0
 11
1668.947773299545
 21
-309.7356070182146
 31
0.0
  0
LINE
  5
3E3
330
50
100
AcDbEntity
  8
0
  6
Continuous
 62
     3
100
AcDbLine
 10
1668.947773299545
 20
-309.7356070182146
 30
0.0
 11
1667.81437356523
 21
-309.7356070185871
 31
0.0
  0
LINE
  5
3E4
330
50
100
AcDbEntity
  8
0
  6
Continuous
 62
     3
100
AcDbLine
 10
1667.888744807545
 20
-312.2356070182146
 30
0.0
 11
1666.433054673545
 21
-312.2356070182146
 31
0.0
  0
LINE
  5
3E5
330
50
100
AcDbEntity
  8
0
  6
Continuous
 62
     3
100
AcDbLine
 10
1673.947773299545
 20
-309.7356070182146
 30
0.0
 11
1673.947773299545
 21
-312.2356070182146
 31
0.0
  0
LINE
  5
3E6
330
50
100
AcDbEntity
  8
0
  6
Continuous
 62
     3
100
AcDbLine
 10
1673.947773299545
 20
-309.7356070182146
 30
0.0
 11
1673.395635791665
 21
-309.7356070181921
 31
0.0
  0
LINE
  5
3E7
330
50
100
AcDbEntity
  8
0
  6
Continuous
 62
     3
100
AcDbLine
 10
1672.447773299545
 20
-312.2356070182146
 30
0.0
 11
1668.947773299545
 21
-312.2356070182146
 31
0.0
  0
LINE
  5
3E8
330
50
100
AcDbEntity
  8
0
  6
Continuous
 62
     3
100
AcDbLine
 10
1673.947773299545
 20
-312.2356070182146
 30
0.0
 11
1672.447773299545
 21
-312.2356070182146
 31
0.0
  0
LINE
  5
3E9
330
50
100
AcDbEntity
  8
0
  6
Continuous
 62
     3
100
AcDbLine
 10
1666.433054673545
 20
-312.7356070182146
 30
0.0
 11
1666.433054673545
 21
-312.2356070182146
 31
0.0
  0
LINE
  5
3EA
330
50
100
AcDbEntity
  8
0
  6
Continuous
 62
     3
100
AcDbLine
 10
1672.447773299545
 20
-312.2356070182146
 30
0.0
 11
1672.447773299545
 21
-312.7356070182146
 31
0.0
  0
LINE
  5
3EB
330
50
100
AcDbEntity
  8
0
  6
Continuous
 62
     3
100
AcDbLine
 10
1668.947773299545
 20
-312.7356070182146
 30
0.0
 11
1666.433054673545
 21
-312.7356070182146
 31
0.0
  0
LINE
  5
3EC
330
50
100
AcDbEntity
  8
0
  6
Continuous
 62
     3
100
AcDbLine
 10
1668.947773299545
 20
-312.7356070182146
 30
0.0
 11
1672.447773299545
 21
-312.7356070182146
 31
0.0
  0
LINE
  5
3ED
330
50
100
AcDbEntity
  8
0
  6
Continuous
 62
     3
100
AcDbLine
 10
1666.433054673545
 20
-312.7356070182146
 30
0.0
 11
1664.924998874596
 21
-312.7356070182146
 31
0.0
  0
LINE
  5
3EE
330
50
100
AcDbEntity
  8
0
  6
Continuous
 62
     3
100
AcDbLine
 10
1664.623679017388
 20
-312.7356070182196
 30
0.0
 11
1664.924998874596
 21
-312.7356070182146
 31
0.0
  0
LINE
  5
3EF
330
50
100
AcDbEntity
  8
0
  6
Continuous
 62
     3
100
AcDbLine
 10
1640.419024770545
 20
-309.7356070182146
 30
0.0
 11
1649.675695360545
 21
-309.7356070182146
 31
0.0
  0
LINE
  5
3F0
330
50
100
AcDbEntity
  8
0
  6
Continuous
 62
     3
100
AcDbLine
 10
1651.081173034545
 20
-309.7356070182146
 30
0.0
 11
1649.675695360545
 21
-309.7356070182146
 31
0.0
  0
LINE
  5
3F1
330
50
100
AcDbEntity
  8
0
  6
Continuous
 62
     3
100
AcDbLine
 10
1640.419024770545
 20
-309.7356070182146
 30
0.0
 11
1633.476521828545
 21
-309.7356070182146
 31
0.0
  0
LINE
  5
3F2
330
50
100
AcDbEntity
  8
0
  6
Continuous
 62
     3
100
AcDbLine
 10
1624.219851238545
 20
-309.7356070182146
 30
0.0
 11
1633.476521828545
 21
-309.7356070182146
 31
0.0
  0
LINE
  5
3F3
330
50
100
AcDbEntity
  8
0
  6
Continuous
 62
     3
100
AcDbLine
 10
1624.219851238545
 20
-309.7356070182146
 30
0.0
 11
1604.947773299545
 21
-309.7356070182146
 31
0.0
  0
LINE
  5
3F4
330
50
100
AcDbEntity
  8
0
  6
Continuous
 62
     3
100
AcDbLine
 10
1622.947773299545
 20
-312.2356070182146
 30
0.0
 11
1604.947773299545
 21
-312.2356070182146
 31
0.0
  0
LINE
  5
3F5
330
50
100
AcDbEntity
  8
0
  6
Continuous
 62
     3
100
AcDbLine
 10
1649.675695360545
 20
-312.7356070182146
 30
0.0
 11
1650.947773299545
 21
-312.7356070182146
 31
0.0
  0
LINE
  5
3F6
330
50
100
AcDbEntity
  8
0
  6
Continuous
 62
     3
100
AcDbLine
 10
1653.970547724493
 20
-312.7356070182146
 30
0.0
 11
1650.947773299545
 21
-312.7356070182146
 31
0.0
  0
LINE
  5
3F7
330
50
100
AcDbEntity
  8
0
  6
Continuous
 62
     3
100
AcDbLine
 10
1654.271867581701
 20
-312.7356070182196
 30
0.0
 11
1653.970547724493
 21
-312.7356070182146
 31
0.0
  0
LINE
  5
3F8
330
50
100
AcDbEntity
  8
0
  6
Continuous
 62
     3
100
AcDbLine
 10
1624.219851237956
 20
-312.7356070178568
 30
0.0
 11
1624.219851238545
 21
-309.7356070182146
 31
0.0
  0
LINE
  5
3F9
330
50
100
AcDbEntity
  8
0
  6
Continuous
 62
     3
100
AcDbLine
 10
1649.675695360545
 20
-312.7356070182146
 30
0.0
 11
1640.419024770677
 21
-312.7356070185725
 31
0.0
  0
LINE
  5
3FA
330
50
100
AcDbEntity
  8
0
  6
Continuous
 62
     3
100
AcDbLine
 10
1650.947773299545
 20
-312.7356070182146
 30
0.0
 11
1650.947773299545
 21
-312.2356070182146
 31
0.0
  0
LINE
  5
3FB
330
50
100
AcDbEntity
  8
0
  6
Continuous
 62
     3
100
AcDbLine
 10
1650.947773299545
 20
-312.2356070182146
 30
0.0
 11
1651.006801791545
 21
-312.2356070182146
 31
0.0
  0
LINE
  5
3FC
330
50
100
AcDbEntity
  8
0
  6
Continuous
 62
     3
100
AcDbLine
 10
1622.947773299545
 20
-312.2356070182146
 30
0.0
 11
1622.947773299545
 21
-312.7356070182146
 31
0.0
  0
LINE
  5
3FD
330
50
100
AcDbEntity
  8
0
  6
Continuous
 62
     3
100
AcDbLine
 10
1601.447773299545
 20
-312.7356070182146
 30
0.0
 11
1604.947773299545
 21
-312.7356070182146
 31
0.0
  0
LINE
  5
3FE
330
50
100
AcDbEntity
  8
0
  6
Continuous
 62
     3
100
AcDbLine
 10
1622.947773299545
 20
-312.7356070182146
 30
0.0
 11
1604.947773299545
 21
-312.7356070182146
 31
0.0
  0
LINE
  5
3FF
330
50
100
AcDbEntity
  8
1
  6
Continuous
 62
     3
100
AcDbLine
 10
1609.187289674977
 20
-253.7356070182146
 30
0.0
 11
1664.708151407949
 21
-253.7356070182146
 31
0.0
  0
LINE
  5
400
330
50
100
AcDbEntity
  8
1
  6
DOT_CENTER
 62
     1
100
AcDbLine
 10
1659.44777329938
 20
-303.7356070189825
 30
0.0
 11
1659.447773300004
 21
-314.2356071776127
 31
0.0
  0
LINE
  5
401
330
50
100
AcDbEntity
  8
1
  6
DOT_CENTER
 62
     1
100
AcDbLine
 10
1636.947773299545
 20
-247.061118653594
 30
0.0
 11
1636.947773299545
 21
-313.7356070183936
 31
0.0
  0
LINE
  5
402
330
50
100
AcDbEntity
  8
0
  6
Continuous
 62
     3
100
AcDbLine
 10
1907.206143961555
 20
-253.7356070182146
 30
0.0
 11
1915.342160938555
 21
-253.7356070181466
 31
0.0
  0
LINE
  5
403
330
50
100
AcDbEntity
  8
0
  6
Continuous
 62
     3
100
AcDbLine
 10
1895.342160938555
 20
-312.7356070182153
 30
0.0
 11
1944.342160938555
 21
-312.7356070182146
 31
0.0
  0
LINE
  5
404
330
50
100
AcDbEntity
  8
0
  6
Continuous
 62
     3
100
AcDbLine
 10
1907.196147994586
 20
-253.7356070179286
 30
0.0
 11
1905.229583713015
 21
-253.7356070184688
 31
0.0
  0
LINE
  5
405
330
50
100
AcDbEntity
  8
0
  6
Continuous
 62
     3
100
AcDbLine
 10
1895.342160938555
 20
-312.7356070182153
 30
0.0
 11
1887.842160938555
 21
-312.7356070182146
 31
0.0
  0
LINE
  5
406
330
50
100
AcDbEntity
  8
0
  6
Continuous
 62
     3
100
AcDbLine
 10
1882.842160938555
 20
-312.7356070182146
 30
0.0
 11
1887.842160938555
 21
-312.7356070182146
 31
0.0
  0
LINE
  5
407
330
50
100
AcDbEntity
  8
0
  6
Continuous
 62
     3
100
AcDbLine
 10
1882.842160938555
 20
-309.7356070182146
 30
0.0
 11
1882.842160938555
 21
-312.7356070182146
 31
0.0
  0
LINE
  5
408
330
50
100
AcDbEntity
  8
0
  6
Continuous
 62
     3
100
AcDbLine
 10
1887.842160938555
 20
-309.7356070182146
 30
0.0
 11
1884.342160939101
 21
-309.7356070182151
 31
0.0
  0
LINE
  5
409
330
50
100
AcDbEntity
  8
0
  6
Continuous
 62
     3
100
AcDbLine
 10
1883.394298446555
 20
-309.7356070182153
 30
0.0
 11
1882.842160938555
 21
-309.7356070182146
 31
0.0
  0
LINE
  5
40A
330
50
100
AcDbEntity
  8
0
  6
Continuous
 62
     3
100
AcDbLine
 10
1893.352437937555
 20
-303.4356070182145
 30
0.0
 11
1893.342438979555
 21
-308.7356070182146
 31
0.0
  0
LINE
  5
40B
330
50
100
AcDbEntity
  8
0
  6
Continuous
 62
     3
100
AcDbLine
 10
1884.679660939376
 20
-303.4356070182593
 30
0.0
 11
1884.392866579087
 21
-308.7891017392432
 31
0.0
  0
LINE
  5
40C
330
50
100
AcDbEntity
  8
0
  6
Continuous
 62
     3
100
AcDbLine
 10
1886.682528780555
 20
-303.4356070182154
 30
0.0
 11
1884.679660939376
 21
-303.4356070182593
 31
0.0
  0
LINE
  5
40D
330
50
100
AcDbEntity
  8
0
  6
Continuous
 62
     3
100
AcDbLine
 10
1893.352437937555
 20
-303.4356070182145
 30
0.0
 11
1893.342160938791
 21
-303.4356070182076
 31
0.0
  0
LINE
  5
40E
330
50
100
AcDbEntity
  8
0
  6
Continuous
 62
     3
100
AcDbLine
 10
1893.342160938791
 20
-303.4356070182076
 30
0.0
 11
1891.842160938555
 21
-303.4356070182154
 31
0.0
  0
LINE
  5
40F
330
50
100
AcDbEntity
  8
0
  6
Continuous
 62
     3
100
AcDbLine
 10
1891.842160938555
 20
-303.4356070182154
 30
0.0
 11
1889.686830543555
 21
-303.4356070182154
 31
0.0
  0
LINE
  5
410
330
50
100
AcDbEntity
  8
0
  6
Continuous
 62
     3
100
AcDbLine
 10
1893.342160938791
 20
-303.4356070182076
 30
0.0
 11
1893.342160938555
 21
-264.7356070182146
 31
0.0
  0
LINE
  5
411
330
50
100
AcDbEntity
  8
0
  6
Continuous
 62
     3
100
AcDbLine
 10
1889.686830543555
 20
-303.4356070182154
 30
0.0
 11
1886.682528780555
 21
-303.4356070182154
 31
0.0
  0
LINE
  5
412
330
50
100
AcDbEntity
  8
0
  6
Continuous
 62
     3
100
AcDbLine
 10
1904.813182131555
 20
-261.2356070182153
 30
0.0
 11
1904.813182131555
 21
-259.9836764872147
 31
0.0
  0
LINE
  5
413
330
50
100
AcDbEntity
  8
0
  6
Continuous
 62
     3
100
AcDbLine
 10
1905.229583712555
 20
-254.0356070182146
 30
0.0
 11
1905.226427993995
 21
-255.1356070181856
 31
0.0
  0
LINE
  5
414
330
50
100
AcDbEntity
  8
0
  6
Continuous
 62
     3
100
AcDbLine
 10
1905.229583712555
 20
-254.0356070182146
 30
0.0
 11
1905.229583713015
 21
-253.7356070184688
 31
0.0
  0
LINE
  5
415
330
50
100
AcDbEntity
  8
0
  6
Continuous
 62
     3
100
AcDbLine
 10
1900.232718759271
 20
-253.7356070177694
 30
0.0
 11
1905.229583713015
 21
-253.7356070184688
 31
0.0
  0
LINE
  5
416
330
50
100
AcDbEntity
  8
0
  6
Continuous
 62
     3
100
AcDbLine
 10
1886.660061311234
 20
-266.468133411223
 30
0.0
 11
1884.679660939376
 21
-303.4356070182593
 31
0.0
  0
LINE
  5
417
330
50
100
AcDbEntity
  8
0
  6
Continuous
 62
     3
100
AcDbLine
 10
1886.660061311234
 20
-266.468133411223
 30
0.0
 11
1887.088632739219
 21
-258.4681334113999
 31
0.0
  0
LINE
  5
418
330
50
100
AcDbEntity
  8
0
  6
Continuous
 62
     3
100
AcDbLine
 10
1951.842160938555
 20
-312.7356070182153
 30
0.0
 11
1944.342160938555
 21
-312.7356070182146
 31
0.0
  0
LINE
  5
419
330
50
100
AcDbEntity
  8
0
  6
Continuous
 62
     3
100
AcDbLine
 10
1951.842160938555
 20
-312.7356070182153
 30
0.0
 11
1956.842160938555
 21
-312.7356070182153
 31
0.0
  0
LINE
  5
41A
330
50
100
AcDbEntity
  8
0
  6
Continuous
 62
     3
100
AcDbLine
 10
1944.342160938555
 20
-312.2356070182146
 30
0.0
 11
1944.342160938555
 21
-312.7356070182146
 31
0.0
  0
LINE
  5
41B
330
50
100
AcDbEntity
  8
0
  6
Continuous
 62
     3
100
AcDbLine
 10
1956.842160938555
 20
-309.7356070182153
 30
0.0
 11
1956.842160938555
 21
-312.7356070182153
 31
0.0
  0
LINE
  5
41C
330
50
100
AcDbEntity
  8
0
  6
Continuous
 62
     3
100
AcDbLine
 10
1956.842160938555
 20
-309.7356070182153
 30
0.0
 11
1956.290023430555
 21
-309.7356070182146
 31
0.0
  0
LINE
  5
41D
330
50
100
AcDbEntity
  8
0
  6
Continuous
 62
     3
100
AcDbLine
 10
1956.290023430555
 20
-309.7356070182146
 30
0.0
 11
1955.342160937911
 21
-309.7356070182149
 31
0.0
  0
LINE
  5
41E
330
50
100
AcDbEntity
  8
0
  6
Continuous
 62
     3
100
AcDbLine
 10
1950.281419905555
 20
-309.7356070182146
 30
0.0
 11
1951.842160938555
 21
-309.7356070182153
 31
0.0
  0
LINE
  5
41F
330
50
100
AcDbEntity
  8
0
  6
Continuous
 62
     3
100
AcDbLine
 10
1946.133031438555
 20
-309.7356070182146
 30
0.0
 11
1950.281419905555
 21
-309.7356070182146
 31
0.0
  0
LINE
  5
420
330
50
100
AcDbEntity
  8
0
  6
Continuous
 62
     3
100
AcDbLine
 10
1943.842160938555
 20
-309.7356070182146
 30
0.0
 11
1946.133031438555
 21
-309.7356070182146
 31
0.0
  0
LINE
  5
421
330
50
100
AcDbEntity
  8
0
  6
Continuous
 62
     3
100
AcDbLine
 10
1955.291455297943
 20
-308.7891017392475
 30
0.0
 11
1955.004660937761
 21
-303.4356070182579
 31
0.0
  0
LINE
  5
422
330
50
100
AcDbEntity
  8
0
  6
Continuous
 62
     3
100
AcDbLine
 10
1955.004660937761
 20
-303.4356070182579
 30
0.0
 11
1953.001793096555
 21
-303.4356070182154
 31
0.0
  0
LINE
  5
423
330
50
100
AcDbEntity
  8
0
  6
Continuous
 62
     3
100
AcDbLine
 10
1946.341882897555
 20
-308.7356070182146
 30
0.0
 11
1946.331883939555
 21
-303.4356070182154
 31
0.0
  0
LINE
  5
424
330
50
100
AcDbEntity
  8
0
  6
Continuous
 62
     3
100
AcDbLine
 10
1946.342160938555
 20
-264.7356070182146
 30
0.0
 11
1946.342160938631
 21
-303.4356070182072
 31
0.0
  0
LINE
  5
425
330
50
100
AcDbEntity
  8
0
  6
Continuous
 62
     3
100
AcDbLine
 10
1946.331883939555
 20
-303.4356070182154
 30
0.0
 11
1946.342160938631
 21
-303.4356070182072
 31
0.0
  0
LINE
  5
426
330
50
100
AcDbEntity
  8
0
  6
Continuous
 62
     3
100
AcDbLine
 10
1946.342160938631
 20
-303.4356070182072
 30
0.0
 11
1947.842160938555
 21
-303.4356070182145
 31
0.0
  0
LINE
  5
427
330
50
100
AcDbEntity
  8
0
  6
Continuous
 62
     3
100
AcDbLine
 10
1947.842160938555
 20
-303.4356070182145
 30
0.0
 11
1949.997491333555
 21
-303.4356070182154
 31
0.0
  0
LINE
  5
428
330
50
100
AcDbEntity
  8
0
  6
Continuous
 62
     3
100
AcDbLine
 10
1953.001793096555
 20
-303.4356070182154
 30
0.0
 11
1949.997491333555
 21
-303.4356070182154
 31
0.0
  0
LINE
  5
429
330
50
100
AcDbEntity
  8
0
  6
Continuous
 62
     3
100
AcDbLine
 10
1934.871139745555
 20
-259.9836764872144
 30
0.0
 11
1934.871139745555
 21
-261.7356070182153
 31
0.0
  0
LINE
  5
42A
330
50
100
AcDbEntity
  8
0
  6
Continuous
 62
     3
100
AcDbLine
 10
1934.871139745555
 20
-261.7356070182153
 30
0.0
 11
1943.342160938192
 21
-261.7356070180641
 31
0.0
  0
LINE
  5
42B
330
50
100
AcDbEntity
  8
0
  6
Continuous
 62
     3
100
AcDbLine
 10
1947.842160938555
 20
-261.7356070182153
 30
0.0
 11
1947.702932930555
 21
-261.7356070182153
 31
0.0
  0
LINE
  5
42C
330
50
100
AcDbEntity
  8
0
  6
Continuous
 62
     3
100
AcDbLine
 10
1947.702932930555
 20
-261.7356070182153
 30
0.0
 11
1943.342160938192
 21
-261.7356070180641
 31
0.0
  0
LINE
  5
42D
330
50
100
AcDbEntity
  8
0
  6
Continuous
 62
     3
100
AcDbLine
 10
1948.031419905578
 20
-261.7356070182763
 30
0.0
 11
1947.842160938555
 21
-261.7356070182153
 31
0.0
  0
LINE
  5
42E
330
50
100
AcDbEntity
  8
0
  6
Continuous
 62
     3
100
AcDbLine
 10
1952.59568913787
 20
-258.4681334112364
 30
0.0
 11
1953.024260566089
 21
-266.4681334112114
 31
0.0
  0
LINE
  5
42F
330
50
100
AcDbEntity
  8
0
  6
Continuous
 62
     3
100
AcDbLine
 10
1934.461416513517
 20
-253.7356070179868
 30
0.0
 11
1934.461416513629
 21
-256.363502814589
 31
0.0
  0
LINE
  5
430
330
50
100
AcDbEntity
  8
0
  6
Continuous
 62
     3
100
AcDbLine
 10
1934.871139745555
 20
-259.9836764872144
 30
0.0
 11
1934.461416513629
 21
-256.363502814589
 31
0.0
  0
LINE
  5
431
330
50
100
AcDbEntity
  8
0
  6
Continuous
 62
     3
100
AcDbLine
 10
1955.004660937761
 20
-303.4356070182579
 30
0.0
 11
1953.024260566089
 21
-266.4681334112114
 31
0.0
  0
LINE
  5
432
330
50
100
AcDbEntity
  8
0
  6
Continuous
 62
     3
100
AcDbLine
 10
1895.842160938555
 20
-309.7356070182146
 30
0.0
 11
1943.842160938555
 21
-309.7356070182146
 31
0.0
  0
LINE
  5
433
330
50
100
AcDbEntity
  8
0
  6
Continuous
 62
     3
100
AcDbLine
 10
1944.342160938555
 20
-312.2356070182146
 30
0.0
 11
1895.342160938555
 21
-312.2356070182146
 31
0.0
  0
LINE
  5
434
330
50
100
AcDbEntity
  8
0
  6
Continuous
 62
     3
100
AcDbLine
 10
1897.842160938555
 20
-261.2356070182146
 30
0.0
 11
1912.842160938546
 21
-261.2356070182153
 31
0.0
  0
LINE
  5
435
330
50
100
AcDbEntity
  8
0
  6
Continuous
 62
     3
100
AcDbLine
 10
1897.842160938555
 20
-261.7356070182153
 30
0.0
 11
1912.842160938555
 21
-261.7356070182153
 31
0.0
  0
LINE
  5
436
330
50
100
AcDbEntity
  8
0
  6
Continuous
 62
     3
100
AcDbLine
 10
1895.342160938555
 20
-312.7356070182153
 30
0.0
 11
1895.342160938555
 21
-312.2356070182146
 31
0.0
  0
LINE
  5
437
330
50
100
AcDbEntity
  8
0
  6
Continuous
 62
     3
100
AcDbLine
 10
1891.842160938555
 20
-261.7356070180634
 30
0.0
 11
1891.652901971825
 21
-261.7356070187019
 31
0.0
  0
LINE
  5
438
330
50
100
AcDbEntity
  8
0
  6
Continuous
 62
     3
100
AcDbLine
 10
1887.842160938555
 20
-309.7356070182146
 30
0.0
 11
1893.551290438555
 21
-309.7356070182146
 31
0.0
  0
LINE
  5
439
330
50
100
AcDbEntity
  8
0
  6
Continuous
 62
     3
100
AcDbLine
 10
1891.981388946555
 20
-261.7356070182153
 30
0.0
 11
1891.842160938555
 21
-261.7356070180634
 31
0.0
  0
LINE
  5
43A
330
50
100
AcDbEntity
  8
0
  6
Continuous
 62
     3
100
AcDbLine
 10
1896.342160938555
 20
-261.7356070182153
 30
0.0
 11
1891.981388946555
 21
-261.7356070182153
 31
0.0
  0
LINE
  5
43B
330
50
100
AcDbEntity
  8
0
  6
Continuous
 62
     3
100
AcDbLine
 10
1897.842160938555
 20
-261.2356070182146
 30
0.0
 11
1897.842160938555
 21
-261.7356070182153
 31
0.0
  0
LINE
  5
43C
330
50
100
AcDbEntity
  8
0
  6
Continuous
 62
     3
100
AcDbLine
 10
1893.551290438555
 20
-309.7356070182146
 30
0.0
 11
1895.842160938555
 21
-309.7356070182146
 31
0.0
  0
LINE
  5
43D
330
50
100
AcDbEntity
  8
0
  6
Continuous
 62
     3
100
AcDbLine
 10
1896.342160938555
 20
-261.7356070182153
 30
0.0
 11
1897.842160938555
 21
-261.7356070182153
 31
0.0
  0
LINE
  5
43E
330
50
100
AcDbEntity
  8
0
  6
Continuous
 62
     3
100
AcDbLine
 10
1900.232718759271
 20
-253.7356070177694
 30
0.0
 11
1900.222408115555
 21
-253.7356070182153
 31
0.0
  0
LINE
  5
43F
330
50
100
AcDbEntity
  8
0
  6
Continuous
 62
     3
100
AcDbLine
 10
1931.479387384864
 20
-261.7356070182788
 30
0.0
 11
1934.871139745555
 21
-261.7356070182153
 31
0.0
  0
LINE
  5
440
330
50
100
AcDbEntity
  8
0
  6
Continuous
 62
     3
100
AcDbLine
 10
1912.842160938555
 20
-261.7356070182153
 30
0.0
 11
1912.842160938546
 21
-261.2356070182153
 31
0.0
  0
LINE
  5
441
330
50
100
AcDbEntity
  8
0
  6
Continuous
 62
     3
100
AcDbLine
 10
1924.842160938555
 20
-261.7356070182146
 30
0.0
 11
1931.479387384864
 21
-261.7356070182788
 31
0.0
  0
LINE
  5
442
330
50
100
AcDbEntity
  8
0
  6
Continuous
 62
     3
100
AcDbLine
 10
1912.842160938555
 20
-261.7356070182153
 30
0.0
 11
1913.342160938555
 21
-261.7356070182146
 31
0.0
  0
LINE
  5
443
330
50
100
AcDbEntity
  8
0
  6
Continuous
 62
     3
100
AcDbLine
 10
1907.206143961555
 20
-253.7356070182146
 30
0.0
 11
1907.196147994586
 21
-253.7356070179286
 31
0.0
  0
LINE
  5
444
330
50
100
AcDbEntity
  8
1
  6
DOT_CENTER
 62
     1
100
AcDbLine
 10
1919.842160938555
 20
-313.7356070182149
 30
0.0
 11
1919.842160938555
 21
-246.768347352515
 31
0.0
  0
LINE
  5
445
330
50
100
AcDbEntity
  8
0
  6
Continuous
 62
     3
100
AcDbLine
 10
1955.342160937911
 20
-309.7356070182149
 30
0.0
 11
1951.842160938555
 21
-309.7356070182153
 31
0.0
  0
LINE
  5
446
330
50
100
AcDbEntity
  8
0
  6
Continuous
 62
     3
100
AcDbLine
 10
1884.342160939101
 20
-309.7356070182151
 30
0.0
 11
1883.394298446555
 21
-309.7356070182153
 31
0.0
  0
LINE
  5
447
330
50
100
AcDbEntity
  8
0
  6
Continuous
 62
     3
100
AcDbLine
 10
1924.842160938555
 20
-261.7356070182146
 30
0.0
 11
1914.842160938599
 21
-261.7356070182146
 31
0.0
  0
LINE
  5
448
330
50
100
AcDbEntity
  8
0
  6
Continuous
 62
     3
100
AcDbLine
 10
1915.842160938555
 20
-264.7356070182146
 30
0.0
 11
1915.842160938483
 21
-262.7356070190223
 31
0.0
  0
LINE
  5
449
330
50
100
AcDbEntity
  8
0
  6
Continuous
 62
     3
100
AcDbLine
 10
1915.842160938505
 20
-266.5928408961773
 30
0.0
 11
1915.842160938555
 21
-264.7356070182146
 31
0.0
  0
LINE
  5
44A
330
50
100
AcDbEntity
  8
0
  6
Continuous
 62
     3
100
AcDbLine
 10
1923.842160938555
 20
-264.7356070182153
 30
0.0
 11
1923.842160938735
 21
-266.5928408961503
 31
0.0
  0
LINE
  5
44B
330
50
100
AcDbEntity
  8
0
  6
Continuous
 62
     3
100
AcDbLine
 10
1915.842160938529
 20
-273.4656401922015
 30
0.0
 11
1915.842160938505
 21
-266.5928408961773
 31
0.0
  0
LINE
  5
44C
330
50
100
AcDbEntity
  8
0
  6
Continuous
 62
     3
100
AcDbLine
 10
1912.842160938555
 20
-261.7356070182153
 30
0.0
 11
1914.842160938599
 21
-261.7356070182146
 31
0.0
  0
LINE
  5
44D
330
50
100
AcDbEntity
  8
0
  6
Continuous
 62
     3
100
AcDbLine
 10
1923.842160938735
 20
-266.5928408961503
 30
0.0
 11
1923.842160938581
 21
-273.4656401922001
 31
0.0
  0
LINE
  5
44E
330
50
100
AcDbEntity
  8
0
  6
Continuous
 62
     3
100
AcDbLine
 10
1912.842160938555
 20
-261.7356070182153
 30
0.0
 11
1912.842160938546
 21
-261.2356070182153
 31
0.0
  0
LINE
  5
44F
330
50
100
AcDbEntity
  8
0
  6
Continuous
 62
     3
100
AcDbLine
 10
1923.842160938555
 20
-264.7356070182153
 30
0.0
 11
1915.842160938555
 21
-264.7356070182146
 31
0.0
  0
LINE
  5
450
330
50
100
AcDbEntity
  8
0
  6
Continuous
 62
     3
100
AcDbLine
 10
1923.842160938768
 20
-262.7356070184134
 30
0.0
 11
1923.842160938555
 21
-264.7356070182153
 31
0.0
  0
LINE
  5
451
330
50
100
AcDbEntity
  8
0
  6
Continuous
 62
     3
100
AcDbLine
 10
1934.461416513517
 20
-253.7356070179868
 30
0.0
 11
1947.602848476838
 21
-253.7356070179247
 31
0.0
  0
LINE
  5
452
330
50
100
AcDbEntity
  8
0
  6
Continuous
 62
     3
100
AcDbLine
 10
1771.193814282555
 20
-253.7356070181854
 30
0.0
 11
1769.191623526242
 21
-253.7356070181854
 31
0.0
  0
LINE
  5
453
330
50
100
AcDbEntity
  8
0
  6
Continuous
 62
     3
100
AcDbLine
 10
1774.618215448555
 20
-259.9883412121853
 30
0.0
 11
1774.170647912598
 21
-256.3635028146384
 31
0.0
  0
LINE
  5
454
330
50
100
AcDbEntity
  8
0
  6
Continuous
 62
     3
100
AcDbLine
 10
1811.34216093839
 20
-306.9356070181689
 30
0.0
 11
1811.34216093839
 21
-308.7356070182157
 31
0.0
  0
LINE
  5
455
330
50
100
AcDbEntity
  8
0
  6
Continuous
 62
     3
100
AcDbLine
 10
1812.342160938555
 20
-309.7356070181854
 30
0.0
 11
1810.342160938555
 21
-309.7356070181854
 31
0.0
  0
LINE
  5
456
330
50
100
AcDbEntity
  8
0
  6
Continuous
 62
     3
100
AcDbLine
 10
1815.342160938555
 20
-309.7356070181854
 30
0.0
 11
1814.807084204358
 21
-309.73560701819
 31
0.0
  0
LINE
  5
457
330
50
100
AcDbEntity
  8
0
  6
Continuous
 62
     3
100
AcDbLine
 10
1815.342160938555
 20
-309.7356070181854
 30
0.0
 11
1815.342160938555
 21
-312.7356070181854
 31
0.0
  0
LINE
  5
458
330
50
100
AcDbEntity
  8
0
  6
Continuous
 62
     3
100
AcDbLine
 10
1810.342160938555
 20
-312.7356070181854
 30
0.0
 11
1805.842160938555
 21
-312.7356070181854
 31
0.0
  0
LINE
  5
459
330
50
100
AcDbEntity
  8
0
  6
Continuous
 62
     3
100
AcDbLine
 10
1810.342160938555
 20
-312.7356070181854
 30
0.0
 11
1815.342160938555
 21
-312.7356070181854
 31
0.0
  0
LINE
  5
45A
330
50
100
AcDbEntity
  8
0
  6
Continuous
 62
     3
100
AcDbLine
 10
1805.842160938555
 20
-312.7356070181854
 30
0.0
 11
1800.592160938198
 21
-312.7356070181854
 31
0.0
  0
LINE
  5
45B
330
50
100
AcDbEntity
  8
0
  6
Continuous
 62
     3
100
AcDbLine
 10
1805.342160938208
 20
-306.9356070181855
 30
0.0
 11
1806.342160938555
 21
-306.9356070181689
 31
0.0
  0
LINE
  5
45C
330
50
100
AcDbEntity
  8
0
  6
Continuous
 62
     3
100
AcDbLine
 10
1805.34216093844
 20
-266.5751228537349
 30
0.0
 11
1805.342160938208
 21
-306.9356070181855
 31
0.0
  0
LINE
  5
45D
330
50
100
AcDbEntity
  8
0
  6
Continuous
 62
     3
100
AcDbLine
 10
1784.842160938555
 20
-261.7356070181854
 30
0.0
 11
1776.599973205555
 21
-261.7356070181854
 31
0.0
  0
LINE
  5
45E
330
50
100
AcDbEntity
  8
0
  6
Continuous
 62
     3
100
AcDbLine
 10
1802.342160938555
 20
-261.7356070181854
 30
0.0
 11
1801.342160938198
 21
-261.7356070181854
 31
0.0
  0
LINE
  5
45F
330
50
100
AcDbEntity
  8
0
  6
Continuous
 62
     3
100
AcDbLine
 10
1805.342160938846
 20
-264.7356070211611
 30
0.0
 11
1805.34216093844
 21
-266.5751228537349
 31
0.0
  0
LINE
  5
460
330
50
100
AcDbEntity
  8
0
  6
Continuous
 62
     3
100
AcDbLine
 10
1811.34216093839
 20
-306.9356070181689
 30
0.0
 11
1806.342160938555
 21
-306.9356070181689
 31
0.0
  0
LINE
  5
461
330
50
100
AcDbEntity
  8
0
  6
Continuous
 62
     3
100
AcDbLine
 10
1807.029812493203
 20
-261.7356070181854
 30
0.0
 11
1802.342160938555
 21
-261.7356070181854
 31
0.0
  0
LINE
  5
462
330
50
100
AcDbEntity
  8
0
  6
Continuous
 62
     3
100
AcDbLine
 10
1705.842160938555
 20
-309.7356070181854
 30
0.0
 11
1705.842160938555
 21
-312.7356070181854
 31
0.0
  0
LINE
  5
463
330
50
100
AcDbEntity
  8
0
  6
Continuous
 62
     3
100
AcDbLine
 10
1713.765643292555
 20
-303.8068540681854
 30
0.0
 11
1717.010463456512
 21
-258.3793717682809
 31
0.0
  0
LINE
  5
464
330
50
100
AcDbEntity
  8
0
  6
Continuous
 62
     3
100
AcDbLine
 10
1713.461464818989
 20
-308.0641498104642
 30
0.0
 11
1713.765643292555
 21
-303.8068540681854
 31
0.0
  0
LINE
  5
465
330
50
100
AcDbEntity
  8
0
  6
Continuous
 62
     3
100
AcDbLine
 10
1721.997756955668
 20
-253.7356070181854
 30
0.0
 11
1769.191623526242
 21
-253.7356070181854
 31
0.0
  0
LINE
  5
466
330
50
100
AcDbEntity
  8
0
  6
Continuous
 62
     3
100
AcDbLine
 10
1712.424687540875
 20
-309.7356070181854
 30
0.0
 11
1711.842160938555
 21
-309.7356070181854
 31
0.0
  0
LINE
  5
467
330
50
100
AcDbEntity
  8
0
  6
Continuous
 62
     3
100
AcDbLine
 10
1716.842160938555
 20
-309.7356070181854
 30
0.0
 11
1713.342041285166
 21
-309.7356070181854
 31
0.0
  0
LINE
  5
468
330
50
100
AcDbEntity
  8
0
  6
Continuous
 62
     3
100
AcDbLine
 10
1711.842160938555
 20
-309.7356070181854
 30
0.0
 11
1711.842160938555
 21
-312.2356070181854
 31
0.0
  0
LINE
  5
469
330
50
100
AcDbEntity
  8
0
  6
Continuous
 62
     3
100
AcDbLine
 10
1713.342160938555
 20
-312.7356070181854
 30
0.0
 11
1716.842160938555
 21
-312.7356070181854
 31
0.0
  0
LINE
  5
46A
330
50
100
AcDbEntity
  8
0
  6
Continuous
 62
     3
100
AcDbLine
 10
1713.342160938555
 20
-312.7356070181854
 30
0.0
 11
1706.842160938555
 21
-312.7356070181854
 31
0.0
  0
LINE
  5
46B
330
50
100
AcDbEntity
  8
0
  6
Continuous
 62
     3
100
AcDbLine
 10
1706.842160938555
 20
-312.7356070181854
 30
0.0
 11
1706.842160938555
 21
-312.2356070181854
 31
0.0
  0
LINE
  5
46C
330
50
100
AcDbEntity
  8
0
  6
Continuous
 62
     3
100
AcDbLine
 10
1706.842160938555
 20
-304.7356070181854
 30
0.0
 11
1712.768184592555
 21
-304.7356070181854
 31
0.0
  0
LINE
  5
46D
330
50
100
AcDbEntity
  8
0
  6
Continuous
 62
     3
100
AcDbLine
 10
1706.842160938555
 20
-304.7356070181854
 30
0.0
 11
1706.842160938555
 21
-312.2356070181854
 31
0.0
  0
LINE
  5
46E
330
50
100
AcDbEntity
  8
0
  6
Continuous
 62
     3
100
AcDbLine
 10
1705.842160938555
 20
-312.7356070181854
 30
0.0
 11
1706.842160938555
 21
-312.7356070181854
 31
0.0
  0
LINE
  5
46F
330
50
100
AcDbEntity
  8
0
  6
Continuous
 62
     3
100
AcDbLine
 10
1706.842160938555
 20
-309.7356070181854
 30
0.0
 11
1705.842160938555
 21
-309.7356070181854
 31
0.0
  0
LINE
  5
470
330
50
100
AcDbEntity
  8
0
  6
Continuous
 62
     3
100
AcDbLine
 10
1713.342041285166
 20
-309.7356070181854
 30
0.0
 11
1712.424687540875
 21
-309.7356070181854
 31
0.0
  0
LINE
  5
471
330
50
100
AcDbEntity
  8
1
  6
Continuous
 62
     3
100
AcDbLine
 10
1801.342160938198
 20
-309.7356070181854
 30
0.0
 11
1801.342160938198
 21
-261.7356070181854
 31
0.0
  0
LINE
  5
472
330
50
100
AcDbEntity
  8
0
  6
Continuous
 62
     3
100
AcDbLine
 10
1801.342160938198
 20
-261.7356070181854
 30
0.0
 11
1784.842160938555
 21
-261.7356070181854
 31
0.0
  0
LINE
  5
473
330
50
100
AcDbEntity
  8
0
  6
Continuous
 62
     3
100
AcDbLine
 10
1801.342160938198
 20
-309.7356070181854
 30
0.0
 11
1810.342160938555
 21
-309.7356070181854
 31
0.0
  0
LINE
  5
474
330
50
100
AcDbEntity
  8
1
  6
Continuous
 62
     3
100
AcDbLine
 10
1719.842160938198
 20
-309.2356070181857
 30
0.0
 11
1719.842160938198
 21
-254.2241321141805
 31
0.0
  0
LINE
  5
475
330
50
100
AcDbEntity
  8
1
  6
Continuous
 62
     3
100
AcDbLine
 10
1814.807084204358
 20
-309.73560701819
 30
0.0
 11
1813.842160938198
 21
-309.73560701819
 31
0.0
  0
LINE
  5
476
330
50
100
AcDbEntity
  8
1
  6
Continuous
 62
     3
100
AcDbLine
 10
1813.842160938198
 20
-309.73560701819
 30
0.0
 11
1812.342160938555
 21
-309.73560701819
 31
0.0
  0
LINE
  5
477
330
50
100
AcDbEntity
  8
1
  6
Continuous
 62
     3
100
AcDbLine
 10
1716.842160938555
 20
-309.7356070181854
 30
0.0
 11
1720.342160938198
 21
-309.7356070181857
 31
0.0
  0
LINE
  5
478
330
50
100
AcDbEntity
  8
1
  6
DOT_CENTER
 62
     1
100
AcDbLine
 10
1784.842160938554
 20
-246.721553075694
 30
0.0
 11
1784.842160938555
 21
-313.7356070181854
 31
0.0
  0
LINE
  5
479
330
50
100
AcDbEntity
  8
1
  6
Continuous
 62
     3
100
AcDbLine
 10
1812.025368559282
 20
-266.5248474616672
 30
0.0
 11
1813.807721350002
 21
-308.7712985487019
 31
0.0
  0
LINE
  5
47A
330
50
100
AcDbEntity
  8
1
  6
Continuous
 62
     3
100
AcDbLine
 10
2025.876600527108
 20
-308.7712985487018
 30
0.0
 11
2027.658953317828
 21
-266.5248474616671
 31
0.0
  0
LINE
  5
47B
330
50
100
AcDbEntity
  8
1
  6
DOT_CENTER
 62
     1
100
AcDbLine
 10
2054.842160938555
 20
-313.7356070181854
 30
0.0
 11
2054.842160938555
 21
-246.7215530756939
 31
0.0
  0
LINE
  5
47C
330
50
100
AcDbEntity
  8
1
  6
Continuous
 62
     3
100
AcDbLine
 10
2119.342160938912
 20
-309.7356070181856
 30
0.0
 11
2122.842160938555
 21
-309.7356070181854
 31
0.0
  0
LINE
  5
47D
330
50
100
AcDbEntity
  8
1
  6
Continuous
 62
     3
100
AcDbLine
 10
2027.342160938555
 20
-309.73560701819
 30
0.0
 11
2025.842160938912
 21
-309.73560701819
 31
0.0
  0
LINE
  5
47E
330
50
100
AcDbEntity
  8
1
  6
Continuous
 62
     3
100
AcDbLine
 10
2025.842160938912
 20
-309.73560701819
 30
0.0
 11
2024.877237672752
 21
-309.73560701819
 31
0.0
  0
LINE
  5
47F
330
50
100
AcDbEntity
  8
1
  6
Continuous
 62
     3
100
AcDbLine
 10
2119.842160938912
 20
-254.2241321141804
 30
0.0
 11
2119.842160938912
 21
-309.2356070181856
 31
0.0
  0
LINE
  5
480
330
50
100
AcDbEntity
  8
0
  6
Continuous
 62
     3
100
AcDbLine
 10
2029.342160938555
 20
-309.7356070181854
 30
0.0
 11
2038.342160938912
 21
-309.7356070181854
 31
0.0
  0
LINE
  5
481
330
50
100
AcDbEntity
  8
0
  6
Continuous
 62
     3
100
AcDbLine
 10
2054.842160938555
 20
-261.7356070181854
 30
0.0
 11
2038.342160938912
 21
-261.7356070181854
 31
0.0
  0
LINE
  5
482
330
50
100
AcDbEntity
  8
1
  6
Continuous
 62
     3
100
AcDbLine
 10
2038.342160938912
 20
-261.7356070181854
 30
0.0
 11
2038.342160938912
 21
-309.7356070181854
 31
0.0
  0
LINE
  5
483
330
50
100
AcDbEntity
  8
0
  6
Continuous
 62
     3
100
AcDbLine
 10
2127.259634336234
 20
-309.7356070181854
 30
0.0
 11
2126.342280591944
 21
-309.7356070181854
 31
0.0
  0
LINE
  5
484
330
50
100
AcDbEntity
  8
0
  6
Continuous
 62
     3
100
AcDbLine
 10
2133.842160938555
 20
-309.7356070181854
 30
0.0
 11
2132.842160938555
 21
-309.7356070181854
 31
0.0
  0
LINE
  5
485
330
50
100
AcDbEntity
  8
0
  6
Continuous
 62
     3
100
AcDbLine
 10
2132.842160938555
 20
-312.7356070181854
 30
0.0
 11
2133.842160938555
 21
-312.7356070181854
 31
0.0
  0
LINE
  5
486
330
50
100
AcDbEntity
  8
0
  6
Continuous
 62
     3
100
AcDbLine
 10
2126.916137284555
 20
-304.7356070181854
 30
0.0
 11
2132.842160938555
 21
-304.7356070181854
 31
0.0
  0
LINE
  5
487
330
50
100
AcDbEntity
  8
0
  6
Continuous
 62
     3
100
AcDbLine
 10
2132.842160938555
 20
-312.7356070181854
 30
0.0
 11
2126.342160938555
 21
-312.7356070181854
 31
0.0
  0
LINE
  5
488
330
50
100
AcDbEntity
  8
0
  6
Continuous
 62
     3
100
AcDbLine
 10
2122.842160938555
 20
-312.7356070181854
 30
0.0
 11
2126.342160938555
 21
-312.7356070181854
 31
0.0
  0
LINE
  5
489
330
50
100
AcDbEntity
  8
0
  6
Continuous
 62
     3
100
AcDbLine
 10
2127.842160938555
 20
-312.7356070181854
 30
0.0
 11
2127.842160938555
 21
-309.7356070181854
 31
0.0
  0
LINE
  5
48A
330
50
100
AcDbEntity
  8
0
  6
Continuous
 62
     3
100
AcDbLine
 10
2126.342280591944
 20
-309.7356070181854
 30
0.0
 11
2122.842160938555
 21
-309.7356070181854
 31
0.0
  0
LINE
  5
48B
330
50
100
AcDbEntity
  8
0
  6
Continuous
 62
     3
100
AcDbLine
 10
2127.842160938555
 20
-309.7356070181854
 30
0.0
 11
2127.259634336234
 21
-309.7356070181854
 31
0.0
  0
LINE
  5
48C
330
50
100
AcDbEntity
  8
0
  6
Continuous
 62
     3
100
AcDbLine
 10
2070.492698350868
 20
-253.7356070181853
 30
0.0
 11
2117.686564921441
 21
-253.7356070181853
 31
0.0
  0
LINE
  5
48D
330
50
100
AcDbEntity
  8
0
  6
Continuous
 62
     3
100
AcDbLine
 10
2125.918678584555
 20
-303.8068540681853
 30
0.0
 11
2126.22285705812
 21
-308.0641498104641
 31
0.0
  0
LINE
  5
48E
330
50
100
AcDbEntity
  8
0
  6
Continuous
 62
     3
100
AcDbLine
 10
2122.673858420597
 20
-258.3793717682809
 30
0.0
 11
2125.918678584555
 21
-303.8068540681853
 31
0.0
  0
LINE
  5
48F
330
50
100
AcDbEntity
  8
0
  6
Continuous
 62
     3
100
AcDbLine
 10
2133.842160938555
 20
-312.7356070181854
 30
0.0
 11
2133.842160938555
 21
-309.7356070181854
 31
0.0
  0
LINE
  5
490
330
50
100
AcDbEntity
  8
0
  6
Continuous
 62
     3
100
AcDbLine
 10
2037.342160938555
 20
-261.7356070181854
 30
0.0
 11
2032.654509383906
 21
-261.7356070181854
 31
0.0
  0
LINE
  5
491
330
50
100
AcDbEntity
  8
0
  6
Continuous
 62
     3
100
AcDbLine
 10
2033.342160938555
 20
-306.9356070181689
 30
0.0
 11
2028.342160938719
 21
-306.9356070181689
 31
0.0
  0
LINE
  5
492
330
50
100
AcDbEntity
  8
0
  6
Continuous
 62
     3
100
AcDbLine
 10
2034.34216093867
 20
-266.5751228537348
 30
0.0
 11
2034.342160938264
 21
-264.735607021161
 31
0.0
  0
LINE
  5
493
330
50
100
AcDbEntity
  8
0
  6
Continuous
 62
     3
100
AcDbLine
 10
2038.342160938912
 20
-261.7356070181854
 30
0.0
 11
2037.342160938555
 21
-261.7356070181854
 31
0.0
  0
LINE
  5
494
330
50
100
AcDbEntity
  8
0
  6
Continuous
 62
     3
100
AcDbLine
 10
2063.084348671555
 20
-261.7356070181854
 30
0.0
 11
2054.842160938555
 21
-261.7356070181854
 31
0.0
  0
LINE
  5
495
330
50
100
AcDbEntity
  8
0
  6
Continuous
 62
     3
100
AcDbLine
 10
2034.342160938902
 20
-306.9356070181855
 30
0.0
 11
2034.34216093867
 21
-266.5751228537348
 31
0.0
  0
LINE
  5
496
330
50
100
AcDbEntity
  8
0
  6
Continuous
 62
     3
100
AcDbLine
 10
2033.342160938555
 20
-306.9356070181689
 30
0.0
 11
2034.342160938902
 21
-306.9356070181855
 31
0.0
  0
LINE
  5
497
330
50
100
AcDbEntity
  8
0
  6
Continuous
 62
     3
100
AcDbLine
 10
2119.342160938912
 20
-312.7356070181849
 30
0.0
 11
2033.842160938555
 21
-312.7356070181854
 31
0.0
  0
LINE
  5
498
330
50
100
AcDbEntity
  8
0
  6
Continuous
 62
     3
100
AcDbLine
 10
2024.342160938555
 20
-312.7356070181854
 30
0.0
 11
2029.342160938555
 21
-312.7356070181854
 31
0.0
  0
LINE
  5
499
330
50
100
AcDbEntity
  8
0
  6
Continuous
 62
     3
100
AcDbLine
 10
2033.842160938555
 20
-312.7356070181854
 30
0.0
 11
2029.342160938555
 21
-312.7356070181854
 31
0.0
  0
LINE
  5
49A
330
50
100
AcDbEntity
  8
0
  6
Continuous
 62
     3
100
AcDbLine
 10
2024.342160938555
 20
-312.7356070181854
 30
0.0
 11
2024.342160938555
 21
-309.7356070181854
 31
0.0
  0
LINE
  5
49B
330
50
100
AcDbEntity
  8
0
  6
Continuous
 62
     3
100
AcDbLine
 10
2024.877237672752
 20
-309.73560701819
 30
0.0
 11
2024.342160938555
 21
-309.7356070181854
 31
0.0
  0
LINE
  5
49C
330
50
100
AcDbEntity
  8
0
  6
Continuous
 62
     3
100
AcDbLine
 10
2029.342160938555
 20
-309.7356070181854
 30
0.0
 11
2027.342160938555
 21
-309.7356070181854
 31
0.0
  0
LINE
  5
49D
330
50
100
AcDbEntity
  8
0
  6
Continuous
 62
     3
100
AcDbLine
 10
2028.342160938719
 20
-308.7356070182156
 30
0.0
 11
2028.342160938719
 21
-306.9356070181689
 31
0.0
  0
LINE
  5
49E
330
50
100
AcDbEntity
  8
0
  6
Continuous
 62
     3
100
AcDbLine
 10
2065.513673964512
 20
-256.3635028146384
 30
0.0
 11
2065.066106428555
 21
-259.9883412121852
 31
0.0
  0
LINE
  5
49F
330
50
100
AcDbEntity
  8
0
  6
Continuous
 62
     3
100
AcDbLine
 10
2070.492698350868
 20
-253.7356070181853
 30
0.0
 11
2068.490507594555
 21
-253.7356070181853
 31
0.0
  0
LINE
  5
4A0
330
50
100
AcDbEntity
  8
0
  6
Continuous
 62
     3
100
AcDbLine
 10
2038.342160938912
 20
-309.7356070181854
 30
0.0
 11
2119.342160938916
 21
-309.7356070181849
 31
0.0
  0
LINE
  5
4A1
330
50
100
AcDbEntity
  8
0
  6
Continuous
 62
     3
100
AcDbLine
 10
2122.842160938555
 20
-312.7356070181854
 30
0.0
 11
2119.092160938912
 21
-312.7356070181854
 31
0.0
  0
LINE
  5
4A2
330
50
100
AcDbEntity
  8
1
  6
Continuous
 62
     3
100
AcDbLine
 10
2127.842160938555
 20
-309.7356070181854
 30
0.0
 11
2132.842160938555
 21
-309.7356070181854
 31
0.0
  0
LINE
  5
4A3
330
50
100
AcDbEntity
  8
0
  6
Continuous
 62
     3
100
AcDbLine
 10
2132.842160938555
 20
-309.7356070181854
 30
0.0
 11
2132.842160938555
 21
-304.7356070181854
 31
0.0
  0
ARC
  5
4A4
330
50
100
AcDbEntity
  8
1
  6
Continuous
 62
     3
100
AcDbCircle
 10
1784.842160938555
 20
-174.6402324541395
 30
0.0
 40
18.00000000000013
100
AcDbArc
 50
126.3628261670922
 51
-126.3628261681102
  0
ARC
  5
4A5
330
50
100
AcDbEntity
  8
0
  6
Continuous
 62
     3
100
AcDbCircle
 10
1771.231014175666
 20
-189.2121481327098
 30
0.0
 40
2.940014893161031
100
AcDbArc
 50
-0.92261217108824
 51
1.4988208188476
  0
ARC
  5
4A6
330
50
100
AcDbEntity
  8
0
  6
Continuous
 62
     3
100
AcDbCircle
 10
1722.133266178604
 20
-202.3022255866603
 30
0.0
 40
4.990123796480486
100
AcDbArc
 50
179.9906441645013
 51
-90.00337776791764
  0
ARC
  5
4A7
330
50
100
AcDbEntity
  8
0
  6
Continuous
 62
     3
100
AcDbCircle
 10
1722.131570733278
 20
-146.9860147876554
 30
0.0
 40
4.988433140896365
100
AcDbArc
 50
143.0739643666347
 51
179.9200521152662
  0
ARC
  5
4A8
330
50
100
AcDbEntity
  8
0
  6
Continuous
 62
     3
100
AcDbCircle
 10
1722.140367847835
 20
-146.9799309755696
 30
0.0
 40
4.991820919716661
100
AcDbArc
 50
90.08488912307227
 51
143.1904497572844
  0
ARC
  5
4A9
330
50
100
AcDbEntity
  8
0
  6
Continuous
 62
     3
100
AcDbCircle
 10
1784.842160938139
 20
-174.640232454682
 30
0.0
 40
9.000000000375778
100
AcDbArc
 50
-77.16041159092424
 51
-40.54160187350493
  0
ARC
  5
4AA
330
50
100
AcDbEntity
  8
0
  6
Continuous
 62
     3
100
AcDbCircle
 10
1794.328993919177
 20
-181.1402324546618
 30
0.0
 40
2.499999999979792
100
AcDbArc
 50
90.00000000087024
 51
145.5826113008539
  0
ARC
  5
4AB
330
50
100
AcDbEntity
  8
0
  6
Continuous
 62
     3
100
AcDbCircle
 10
1771.23101417578
 20
-160.0683167763875
 30
0.0
 40
2.940014893278069
100
AcDbArc
 50
-1.49882079914623
 51
0.92261216604827
  0
ARC
  5
4AC
330
50
100
AcDbEntity
  8
0
  6
Continuous
 62
     3
100
AcDbCircle
 10
1784.842160938139
 20
-174.640232454682
 30
0.0
 40
16.99999999979138
100
AcDbArc
 50
133.0328319731782
 51
-133.0328319733246
  0
ARC
  5
4AD
330
50
100
AcDbEntity
  8
0
  6
Continuous
 62
     3
100
AcDbCircle
 10
1757.83439524676
 20
-159.7938646794086
 30
0.0
 40
1.057817391195187
100
AcDbArc
 50
48.6813273212513
 51
59.87959736031944
  0
ARC
  5
4AE
330
50
100
AcDbEntity
  8
0
  6
Continuous
 62
     3
100
AcDbCircle
 10
1758.180479843305
 20
-158.9298678610891
 30
0.0
 40
1.222157610071197
100
AcDbArc
 50
168.0724020432319
 51
179.8799170168736
  0
ARC
  5
4AF
330
50
100
AcDbEntity
  8
0
  6
Continuous
 62
     3
100
AcDbCircle
 10
1794.328993919092
 20
-168.1402324546575
 30
0.0
 40
2.500000000023971
100
AcDbArc
 50
-145.5826112965018
 51
-89.99999999892133
  0
ARC
  5
4B0
330
50
100
AcDbEntity
  8
0
  6
Continuous
 62
     3
100
AcDbCircle
 10
1784.842160938046
 20
-174.6402324545615
 30
0.0
 40
9.000000000367997
100
AcDbArc
 50
34.41738870991968
 51
40.54160187253724
  0
ARC
  5
4B1
330
50
100
AcDbEntity
  8
0
  6
Continuous
 62
     3
100
AcDbCircle
 10
1784.842160938555
 20
-174.6402324541395
 30
0.0
 40
9.000000000411864
100
AcDbArc
 50
-40.54160187785136
 51
-34.41738871590167
  0
ARC
  5
4B2
330
50
100
AcDbEntity
  8
0
  6
Continuous
 62
     3
100
AcDbCircle
 10
1811.213814314225
 20
-169.6400759244229
 30
0.0
 40
1.000160199213404
100
AcDbArc
 50
-89.84480628503791
 51
0.04578275510905
  0
ARC
  5
4B3
330
50
100
AcDbEntity
  8
0
  6
Continuous
 62
     3
100
AcDbCircle
 10
1811.214611340032
 20
-179.6411881727888
 30
0.0
 40
0.9993628541069484
100
AcDbArc
 50
0.00000000612848
 51
89.99999999386012
  0
ARC
  5
4B4
330
50
100
AcDbEntity
  8
0
  6
Continuous
 62
     3
100
AcDbCircle
 10
1806.842160938063
 20
-146.1402324546063
 30
0.0
 40
1.499999999924057
100
AcDbArc
 50
-179.9999999971079
 51
-89.99999999709921
  0
ARC
  5
4B5
330
50
100
AcDbEntity
  8
0
  6
Continuous
 62
     3
100
AcDbCircle
 10
1810.342160938139
 20
-142.640232454682
 30
0.0
 40
5.0
100
AcDbArc
 50
0.0
 51
90.0
  0
ARC
  5
4B6
330
50
100
AcDbEntity
  8
0
  6
Continuous
 62
     3
100
AcDbCircle
 10
1756.272818276906
 20
-166.0278154591312
 30
0.0
 40
6.396231103844978
100
AcDbArc
 50
76.39013125774955
 51
77.37460325690621
  0
ARC
  5
4B7
330
50
100
AcDbEntity
  8
0
  6
Continuous
 62
     3
100
AcDbCircle
 10
1757.291735618571
 20
-161.4662301565767
 30
0.0
 40
1.722236615360263
100
AcDbArc
 50
77.28237460883206
 51
78.89353362480408
  0
ARC
  5
4B8
330
50
100
AcDbEntity
  8
0
  6
Continuous
 62
     3
100
AcDbCircle
 10
1756.541219890241
 20
-157.2645328391904
 30
0.0
 40
0.2782512626686812
100
AcDbArc
 50
-49.32555939899385
 51
-23.59749537986314
  0
ARC
  5
4B9
330
50
100
AcDbEntity
  8
0
  6
Continuous
 62
     3
100
AcDbCircle
 10
1756.5553776462
 20
-157.2743947466515
 30
0.0
 40
0.2615797928831612
100
AcDbArc
 50
-76.37783568166762
 51
-50.26965370424463
  0
ARC
  5
4BA
330
50
100
AcDbEntity
  8
0
  6
Continuous
 62
     3
100
AcDbCircle
 10
1756.610517530085
 20
-156.7716305685219
 30
0.0
 40
0.7778840400742995
100
AcDbArc
 50
-117.9252236207826
 51
-108.7898995889431
  0
ARC
  5
4BB
330
50
100
AcDbEntity
  8
0
  6
Continuous
 62
     3
100
AcDbCircle
 10
1756.719541010302
 20
-156.5552668164693
 30
0.0
 40
1.020124293598218
100
AcDbArc
 50
-129.2164461915444
 51
-117.6444802339829
  0
ARC
  5
4BC
330
50
100
AcDbEntity
  8
0
  6
Continuous
 62
     3
100
AcDbCircle
 10
1756.154308683218
 20
-157.3680428019983
 30
0.0
 40
1.463150675655973
100
AcDbArc
 50
-3.32491695702264
 51
5.42189403615065
  0
ARC
  5
4BD
330
50
100
AcDbEntity
  8
0
  6
Continuous
 62
     3
100
AcDbCircle
 10
1756.442798369528
 20
-157.2278595599652
 30
0.0
 40
0.3831672252643781
100
AcDbArc
 50
-22.73132043759805
 51
-7.21567242375961
  0
ARC
  5
4BE
330
50
100
AcDbEntity
  8
0
  6
Continuous
 62
     3
100
AcDbCircle
 10
1756.548278846996
 20
-156.968598789406
 30
0.0
 40
0.5713839168267139
100
AcDbArc
 50
-109.2432988966269
 51
-97.95870192304216
  0
ARC
  5
4BF
330
50
100
AcDbEntity
  8
0
  6
Continuous
 62
     3
100
AcDbCircle
 10
1756.53033635887
 20
-157.1115840827219
 30
0.0
 40
0.4272963481470012
100
AcDbArc
 50
-98.23063215820133
 51
-87.89473820528757
  0
ARC
  5
4C0
330
50
100
AcDbEntity
  8
0
  6
Continuous
 62
     3
100
AcDbCircle
 10
1756.535672431617
 20
-157.2075981947555
 30
0.0
 40
0.3311559411871509
100
AcDbArc
 50
-88.20709629016412
 51
-75.78625924909932
  0
ARC
  5
4C1
330
50
100
AcDbEntity
  8
0
  6
Continuous
 62
     3
100
AcDbCircle
 10
1756.867048951439
 20
-156.3604533689926
 30
0.0
 40
1.264351937584131
100
AcDbArc
 50
-140.4037959924436
 51
-128.8136969686951
  0
ARC
  5
4C2
330
50
100
AcDbEntity
  8
0
  6
Continuous
 62
     3
100
AcDbCircle
 10
1755.92564989583
 20
-156.5645628637228
 30
0.0
 40
0.3335149789352965
100
AcDbArc
 50
90.80480689145368
 51
104.2082408886566
  0
ARC
  5
4C3
330
50
100
AcDbEntity
  8
0
  6
Continuous
 62
     3
100
AcDbCircle
 10
1755.810696427428
 20
-157.3092532537511
 30
0.0
 40
1.027624100566513
100
AcDbArc
 50
14.6151342473078
 51
25.78097224416038
  0
ARC
  5
4C4
330
50
100
AcDbEntity
  8
0
  6
Continuous
 62
     3
100
AcDbCircle
 10
1756.077961515606
 20
-157.2327840634643
 30
0.0
 40
0.7497406172918951
100
AcDbArc
 50
4.96276218181958
 51
14.11402219329964
  0
ARC
  5
4C5
330
50
100
AcDbEntity
  8
0
  6
Continuous
 62
     3
100
AcDbCircle
 10
1756.27874799019
 20
-157.2120661619094
 30
0.0
 40
0.5479243556973351
100
AcDbArc
 50
-6.69939233007018
 51
4.62076364652499
  0
ARC
  5
4C6
330
50
100
AcDbEntity
  8
0
  6
Continuous
 62
     3
100
AcDbCircle
 10
1755.860297771208
 20
-157.405269708031
 30
0.0
 40
1.759388157944158
100
AcDbArc
 50
5.72409351728565
 51
16.20217652456361
  0
ARC
  5
4C7
330
50
100
AcDbEntity
  8
0
  6
Continuous
 62
     3
100
AcDbCircle
 10
1756.886951967258
 20
-156.3369084999462
 30
0.0
 40
1.294706677949856
100
AcDbArc
 50
-153.8503606157157
 51
-140.1623026242017
  0
ARC
  5
4C8
330
50
100
AcDbEntity
  8
0
  6
Continuous
 62
     3
100
AcDbCircle
 10
1755.905496615123
 20
-156.4958079401922
 30
0.0
 40
0.2619302242705702
100
AcDbArc
 50
103.6261266154843
 51
129.7118906851239
  0
ARC
  5
4C9
330
50
100
AcDbEntity
  8
0
  6
Continuous
 62
     3
100
AcDbCircle
 10
1755.930159101399
 20
-156.6671856658954
 30
0.0
 40
0.4362017784950278
100
AcDbArc
 50
81.01603461551879
 51
91.20770663953884
  0
ARC
  5
4CA
330
50
100
AcDbEntity
  8
0
  6
Continuous
 62
     3
100
AcDbCircle
 10
1755.909889781269
 20
-156.8133624914439
 30
0.0
 40
0.5837572801828285
100
AcDbArc
 50
70.1746495097087
 51
81.29144752497963
  0
ARC
  5
4CB
330
50
100
AcDbEntity
  8
0
  6
Continuous
 62
     3
100
AcDbCircle
 10
1755.839397667392
 20
-157.0266895607321
 30
0.0
 40
0.8083708605735822
100
AcDbArc
 50
59.42872073582147
 51
70.60252069610955
  0
ARC
  5
4CC
330
50
100
AcDbEntity
  8
0
  6
Continuous
 62
     3
100
AcDbCircle
 10
1755.709397399819
 20
-157.2635202517335
 30
0.0
 40
1.078434509074147
100
AcDbArc
 50
48.69319094097212
 51
59.88162491556594
  0
ARC
  5
4CD
330
50
100
AcDbEntity
  8
0
  6
Continuous
 62
     3
100
AcDbCircle
 10
1755.919600855917
 20
-156.5053681716285
 30
0.0
 40
0.2783365728021535
100
AcDbArc
 50
130.6880062030973
 51
156.402385075719
  0
ARC
  5
4CE
330
50
100
AcDbEntity
  8
0
  6
Continuous
 62
     3
100
AcDbCircle
 10
1755.577519584074
 20
-157.4254772525953
 30
0.0
 40
1.287169529282423
100
AcDbArc
 50
39.69021616923084
 51
49.04224719496311
  0
ARC
  5
4CF
330
50
100
AcDbEntity
  8
0
  6
Continuous
 62
     3
100
AcDbCircle
 10
1756.017878418866
 20
-156.5419306337039
 30
0.0
 40
0.3830769224603752
100
AcDbArc
 50
157.2753671029295
 51
172.792686220946
  0
ARC
  5
4D0
330
50
100
AcDbEntity
  8
0
  6
Continuous
 62
     3
100
AcDbCircle
 10
1755.573144527696
 20
-157.4331688560826
 30
0.0
 40
1.295452079475845
100
AcDbArc
 50
26.14641213843578
 51
39.82841612952775
  0
ARC
  5
4D1
330
50
100
AcDbEntity
  8
0
  6
Continuous
 62
     3
100
AcDbCircle
 10
1755.542944513704
 20
-157.5095085756436
 30
0.0
 40
2.093254500029902
100
AcDbArc
 50
16.51827958535166
 51
28.95392259040822
  0
ARC
  5
4D2
330
50
100
AcDbEntity
  8
0
  6
Continuous
 62
     3
100
AcDbCircle
 10
1756.64955902351
 20
-156.4606599929741
 30
0.0
 40
1.027092767937843
100
AcDbArc
 50
-165.3814520708117
 51
-154.2108380809908
  0
ARC
  5
4D3
330
50
100
AcDbEntity
  8
0
  6
Continuous
 62
     3
100
AcDbCircle
 10
1756.383699745938
 20
-156.5368437384893
 30
0.0
 40
0.7506417469126445
100
AcDbArc
 50
-175.0263662142315
 51
-165.8866981666224
  0
ARC
  5
4D4
330
50
100
AcDbEntity
  8
0
  6
Continuous
 62
     3
100
AcDbCircle
 10
1756.181231353171
 20
-156.5576896569298
 30
0.0
 40
0.5471378631561975
100
AcDbArc
 50
173.3015996740553
 51
-175.3629314129147
  0
ARC
  5
4D5
330
50
100
AcDbEntity
  8
0
  6
Continuous
 62
     3
100
AcDbCircle
 10
1810.342160938139
 20
-206.640232454682
 30
0.0
 40
5.0
100
AcDbArc
 50
-90.0
 51
0.0
  0
ARC
  5
4D6
330
50
100
AcDbEntity
  8
0
  6
Continuous
 62
     3
100
AcDbCircle
 10
1806.342629537441
 20
-204.7951201467008
 30
0.0
 40
5.007612329906228
100
AcDbArc
 50
-90.0053615896294
 51
-3.25545244629489
  0
ARC
  5
4D7
330
50
100
AcDbEntity
  8
0
  6
Continuous
 62
     3
100
AcDbCircle
 10
1757.842160938139
 20
-198.640232454682
 30
0.0
 40
3.5
100
AcDbArc
 50
180.0
 51
0.0
  0
ARC
  5
4D8
330
50
100
AcDbEntity
  8
0
  6
Continuous
 62
     3
100
AcDbCircle
 10
1754.79604721662
 20
-165.835525490464
 30
0.0
 40
5.359463534945459
100
AcDbArc
 50
39.99086640144846
 51
45.31836240443685
  0
ARC
  5
4D9
330
50
100
AcDbEntity
  8
0
  6
Continuous
 62
     3
100
AcDbCircle
 10
1757.863179155057
 20
-165.245982740213
 30
0.0
 40
1.433728162963553
100
AcDbArc
 50
73.37580140350286
 51
77.98239142180515
  0
ARC
  5
4DA
330
50
100
AcDbEntity
  8
0
  6
Continuous
 62
     3
100
AcDbCircle
 10
1760.172113245845
 20
-154.4067217099563
 30
0.0
 40
9.680185077050904
100
AcDbArc
 50
-97.79488503732179
 51
-94.03623203650226
  0
ARC
  5
4DB
330
50
100
AcDbEntity
  8
0
  6
Continuous
 62
     3
100
AcDbCircle
 10
1757.843105586447
 20
-164.6922815785962
 30
0.0
 40
0.8735195888770978
100
AcDbArc
 50
107.3279888829468
 51
129.4645929255992
  0
ARC
  5
4DC
330
50
100
AcDbEntity
  8
0
  6
Continuous
 62
     3
100
AcDbCircle
 10
1759.911019041153
 20
-158.2378559914052
 30
0.0
 40
5.840182567987852
100
AcDbArc
 50
-94.12665187529493
 51
-92.36934287838275
  0
ARC
  5
4DD
330
50
100
AcDbEntity
  8
0
  6
Continuous
 62
     3
100
AcDbCircle
 10
1759.569331664331
 20
-158.9023084080142
 30
0.0
 40
5.144399496639601
100
AcDbArc
 50
-99.66596672329837
 51
-97.934233725022
  0
ARC
  5
4DE
330
50
100
AcDbEntity
  8
0
  6
Continuous
 62
     3
100
AcDbCircle
 10
1759.161271695333
 20
-161.3249774483097
 30
0.0
 40
2.687613118335135
100
AcDbArc
 50
-101.7182463808325
 51
-99.76208237476251
  0
ARC
  5
4DF
330
50
100
AcDbEntity
  8
0
  6
Continuous
 62
     3
100
AcDbCircle
 10
1759.612909641386
 20
-159.2292688070349
 30
0.0
 40
4.831399131121024
100
AcDbArc
 50
-104.8190782708191
 51
-101.9149692629563
  0
ARC
  5
4E0
330
50
100
AcDbEntity
  8
0
  6
Continuous
 62
     3
100
AcDbCircle
 10
1761.388261291987
 20
-152.4396248661878
 30
0.0
 40
11.84930271988575
100
AcDbArc
 50
-105.2408081588457
 51
-104.7210601622438
  0
ARC
  5
4E1
330
50
100
AcDbEntity
  8
0
  6
Continuous
 62
     3
100
AcDbCircle
 10
1751.982534174454
 20
-168.671431723779
 30
0.0
 40
9.354234693532526
100
AcDbArc
 50
45.27939177836945
 51
46.55753077475097
  0
ARC
  5
4E2
330
50
100
AcDbEntity
  8
0
  6
Continuous
 62
     3
100
AcDbCircle
 10
1722.204066289947
 20
-199.9883115036418
 30
0.0
 40
52.56884758858919
100
AcDbArc
 50
46.46291297936802
 51
46.66397898000351
  0
ARC
  5
4E3
330
50
100
AcDbEntity
  8
0
  6
Continuous
 62
     3
100
AcDbCircle
 10
1778.955861951578
 20
-141.5710240477637
 30
0.0
 40
29.63312146018424
100
AcDbArc
 50
-134.3217708081721
 51
-133.8952348074158
  0
ARC
  5
4E4
330
50
100
AcDbEntity
  8
0
  6
Continuous
 62
     3
100
AcDbCircle
 10
1765.493966119193
 20
-155.3631541456959
 30
0.0
 40
10.36020239339791
100
AcDbArc
 50
-134.9595855493219
 51
-134.3515055532268
  0
ARC
  5
4E5
330
50
100
AcDbEntity
  8
0
  6
Continuous
 62
     3
100
AcDbCircle
 10
1763.026096690268
 20
-157.8286813590088
 30
0.0
 40
6.871767442607415
100
AcDbArc
 50
-136.3897491191043
 51
-134.9252601203723
  0
ARC
  5
4E6
330
50
100
AcDbEntity
  8
0
  6
Continuous
 62
     3
100
AcDbCircle
 10
1763.652271112818
 20
-157.2651366083134
 30
0.0
 40
7.713889487068443
100
AcDbArc
 50
-139.4756719999909
 51
-136.5670429964198
  0
ARC
  5
4E7
330
50
100
AcDbEntity
  8
0
  6
Continuous
 62
     3
100
AcDbCircle
 10
1757.887760912436
 20
-164.8757321146381
 30
0.0
 40
1.062012413036293
100
AcDbArc
 50
90.25559575708279
 51
106.6800077346004
  0
ARC
  5
4E8
330
50
100
AcDbEntity
  8
0
  6
Continuous
 62
     3
100
AcDbCircle
 10
1757.838618565867
 20
-164.6769435477037
 30
0.0
 40
0.8588494000205481
100
AcDbArc
 50
129.8838707275703
 51
156.7758947140476
  0
ARC
  5
4E9
330
50
100
AcDbEntity
  8
0
  6
Continuous
 62
     3
100
AcDbCircle
 10
1757.880598577357
 20
-165.1460721828082
 30
0.0
 40
1.332344120359038
100
AcDbArc
 50
78.23261062162986
 51
89.89572762799945
  0
ARC
  5
4EA
330
50
100
AcDbEntity
  8
0
  6
Continuous
 62
     3
100
AcDbCircle
 10
1757.742877214691
 20
-160.0107023036371
 30
0.0
 40
2.001441820184018
100
AcDbArc
 50
16.00124346065016
 51
30.39273946525408
  0
ARC
  5
4EB
330
50
100
AcDbEntity
  8
0
  6
Continuous
 62
     3
100
AcDbCircle
 10
1758.702849296421
 20
-158.9035632539241
 30
0.0
 40
1.746933216926871
100
AcDbArc
 50
-170.4376955039593
 51
-163.8881415344506
  0
ARC
  5
4EC
330
50
100
AcDbEntity
  8
0
  6
Continuous
 62
     3
100
AcDbCircle
 10
1757.700895567728
 20
-159.9610178995876
 30
0.0
 40
1.271057752663883
100
AcDbArc
 50
26.15343275348738
 51
39.84020372827344
  0
ARC
  5
4ED
330
50
100
AcDbEntity
  8
0
  6
Continuous
 62
     3
100
AcDbCircle
 10
1758.757938531604
 20
-159.0061448292321
 30
0.0
 40
1.009373426278484
100
AcDbArc
 50
-165.3801708793924
 51
-154.2211838746308
  0
ARC
  5
4EE
330
50
100
AcDbEntity
  8
0
  6
Continuous
 62
     3
100
AcDbCircle
 10
1758.496697789803
 20
-159.0811105146292
 30
0.0
 40
0.7376990383348074
100
AcDbArc
 50
-175.0227217714863
 51
-165.8928007258571
  0
ARC
  5
4EF
330
50
100
AcDbEntity
  8
0
  6
Continuous
 62
     3
100
AcDbCircle
 10
1758.297380368157
 20
-159.10170692172
 30
0.0
 40
0.5373559306556898
100
AcDbArc
 50
173.3027981493792
 51
-175.3666789391339
  0
ARC
  5
4F0
330
50
100
AcDbEntity
  8
0
  6
Continuous
 62
     3
100
AcDbCircle
 10
1757.706146015203
 20
-159.9517192586768
 30
0.0
 40
1.261074771584895
100
AcDbArc
 50
39.66863880785891
 51
49.04032581289285
  0
ARC
  5
4F1
330
50
100
AcDbEntity
  8
0
  6
Continuous
 62
     3
100
AcDbCircle
 10
1758.857146182747
 20
-164.9150318186807
 30
0.0
 40
1.059039596688989
100
AcDbArc
 50
-131.3119709129192
 51
-120.124499911767
  0
ARC
  5
4F2
330
50
100
AcDbEntity
  8
0
  6
Continuous
 62
     3
100
AcDbCircle
 10
1758.729338740736
 20
-165.1477782314948
 30
0.0
 40
0.7936092910821204
100
AcDbArc
 50
-120.5768547855494
 51
-109.4017727328521
  0
ARC
  5
4F3
330
50
100
AcDbEntity
  8
0
  6
Continuous
 62
     3
100
AcDbCircle
 10
1758.721275726607
 20
-165.8304996962756
 30
0.0
 40
1.005383966398096
100
AcDbArc
 50
-25.21094471651783
 51
-11.59707968384365
  0
ARC
  5
4F4
330
50
100
AcDbEntity
  8
0
  6
Continuous
 62
     3
100
AcDbCircle
 10
1759.201392672632
 20
-164.5679635669591
 30
0.0
 40
2.286476072974436
100
AcDbArc
 50
-149.9846425564624
 51
-140.0914765500418
  0
ARC
  5
4F5
330
50
100
AcDbEntity
  8
0
  6
Continuous
 62
     3
100
AcDbCircle
 10
1758.651525015216
 20
-165.6603269375775
 30
0.0
 40
0.2720172728375286
100
AcDbArc
 50
-49.37175552107505
 51
-23.53020849482922
  0
ARC
  5
4F6
330
50
100
AcDbEntity
  8
0
  6
Continuous
 62
     3
100
AcDbCircle
 10
1758.664448388028
 20
-165.6691951672396
 30
0.0
 40
0.2569033608521573
100
AcDbArc
 50
-76.3768952347794
 51
-50.27139923624927
  0
ARC
  5
4F7
330
50
100
AcDbEntity
  8
0
  6
Continuous
 62
     3
100
AcDbCircle
 10
1758.644596857888
 20
-165.6014221835832
 30
0.0
 40
0.3274622711332643
100
AcDbArc
 50
-89.19414180389566
 51
-75.79420581131014
  0
ARC
  5
4F8
330
50
100
AcDbEntity
  8
0
  6
Continuous
 62
     3
100
AcDbCircle
 10
1758.640216519375
 20
-165.50049063563
 30
0.0
 40
0.4284556702213986
100
AcDbArc
 50
-98.98441643850839
 51
-88.798260470336
  0
ARC
  5
4F9
330
50
100
AcDbEntity
  8
0
  6
Continuous
 62
     3
100
AcDbCircle
 10
1758.659985145562
 20
-165.3577441282986
 30
0.0
 40
0.5725446648985069
100
AcDbArc
 50
-109.8354363444006
 51
-98.7076113857669
  0
ARC
  5
4FA
330
50
100
AcDbEntity
  8
0
  6
Continuous
 62
     3
100
AcDbCircle
 10
1758.509954392922
 20
-165.7799318897318
 30
0.0
 40
1.222577174852902
100
AcDbArc
 50
-11.92766485945833
 51
-0.12472786406663
  0
ARC
  5
4FB
330
50
100
AcDbEntity
  8
0
  6
Continuous
 62
     3
100
AcDbCircle
 10
1758.593158475387
 20
-164.7899521460694
 30
0.0
 40
1.635391978197388
100
AcDbArc
 50
-176.0892476729858
 51
-163.6291206794327
  0
ARC
  5
4FC
330
50
100
AcDbEntity
  8
0
  6
Continuous
 62
     3
100
AcDbCircle
 10
1757.700834495949
 20
-165.8250567243908
 30
0.0
 40
1.271136563138095
100
AcDbArc
 50
26.15442117474719
 51
39.84016515963347
  0
ARC
  5
4FD
330
50
100
AcDbEntity
  8
0
  6
Continuous
 62
     3
100
AcDbCircle
 10
1758.757107643655
 20
-164.8704391220876
 30
0.0
 40
1.008492097424993
100
AcDbArc
 50
-165.382597540825
 51
-154.2155935420303
  0
ARC
  5
4FE
330
50
100
AcDbEntity
  8
0
  6
Continuous
 62
     3
100
AcDbCircle
 10
1758.495141333692
 20
-164.945408595026
 30
0.0
 40
0.7361135270037428
100
AcDbArc
 50
-175.0317958474501
 51
-165.8832598041008
  0
ARC
  5
4FF
330
50
100
AcDbEntity
  8
0
  6
Continuous
 62
     3
100
AcDbCircle
 10
1758.297300882135
 20
-164.9657556339084
 30
0.0
 40
0.5372634255888508
100
AcDbArc
 50
173.302264951275
 51
-175.3663430584288
  0
ARC
  5
500
330
50
100
AcDbEntity
  8
0
  6
Continuous
 62
     3
100
AcDbCircle
 10
1758.984542864499
 20
-164.7526025817849
 30
0.0
 40
1.264560825628709
100
AcDbArc
 50
-153.8905800057743
 51
-140.1349977885712
  0
ARC
  5
501
330
50
100
AcDbEntity
  8
0
  6
Continuous
 62
     3
100
AcDbCircle
 10
1758.947955752203
 20
-164.699183786832
 30
0.0
 40
2.001429899400252
100
AcDbArc
 50
-163.9987779297292
 51
-149.6080509225675
  0
ARC
  5
502
330
50
100
AcDbEntity
  8
0
  6
Continuous
 62
     3
100
AcDbCircle
 10
1758.241079648065
 20
-165.7708218637733
 30
0.0
 40
1.491495476083864
100
AcDbArc
 50
-0.45220543466476
 51
9.83046857472421
  0
ARC
  5
503
330
50
100
AcDbEntity
  8
0
  6
Continuous
 62
     3
100
AcDbCircle
 10
1757.98884498282
 20
-165.8062804676728
 30
0.0
 40
1.746099525812887
100
AcDbArc
 50
9.56379388604117
 51
16.11503788237949
  0
ARC
  5
504
330
50
100
AcDbEntity
  8
0
  6
Continuous
 62
     3
100
AcDbCircle
 10
1758.195339501692
 20
-165.6285519500368
 30
0.0
 40
0.7365020871985666
100
AcDbArc
 50
4.97108721069663
 51
14.11569822070977
  0
ARC
  5
505
330
50
100
AcDbEntity
  8
0
  6
Continuous
 62
     3
100
AcDbCircle
 10
1758.393635998132
 20
-165.6081280080252
 30
0.0
 40
0.5371909949171277
100
AcDbArc
 50
-6.70120144967241
 51
4.63360549289343
  0
ARC
  5
506
330
50
100
AcDbEntity
  8
0
  6
Continuous
 62
     3
100
AcDbCircle
 10
1758.553775829218
 20
-165.6235417703835
 30
0.0
 40
0.3763617149884435
100
AcDbArc
 50
-22.72360780935558
 51
-7.21553878249757
  0
ARC
  5
507
330
50
100
AcDbEntity
  8
0
  6
Continuous
 62
     3
100
AcDbCircle
 10
1757.934747459324
 20
-165.7031422801883
 30
0.0
 40
1.007455058508866
100
AcDbArc
 50
14.6153070201461
 51
25.79472803494506
  0
ARC
  5
508
330
50
100
AcDbEntity
  8
0
  6
Continuous
 62
     3
100
AcDbCircle
 10
1758.986713834807
 20
-164.7559587344353
 30
0.0
 40
1.26408216550364
100
AcDbArc
 50
-140.3148329675528
 51
-130.963330003276
  0
ARC
  5
509
330
50
100
AcDbEntity
  8
0
  6
Continuous
 62
     3
100
AcDbCircle
 10
1757.706228665636
 20
-165.8155716412366
 30
0.0
 40
1.260923940546697
100
AcDbArc
 50
39.66625828432068
 51
49.03990228546407
  0
ARC
  5
50A
330
50
100
AcDbEntity
  8
0
  6
Continuous
 62
     3
100
AcDbCircle
 10
1759.761219823571
 20
-161.4795945837176
 30
0.0
 40
3.524807324980029
100
AcDbArc
 50
-97.95773796756269
 51
-91.48977795975198
  0
ARC
  5
50B
330
50
100
AcDbEntity
  8
0
  6
Continuous
 62
     3
100
AcDbCircle
 10
1759.686546599052
 20
-161.9282033290594
 30
0.0
 40
3.070203379480414
100
AcDbArc
 50
-104.5945572371457
 51
-97.73663923900142
  0
ARC
  5
50C
330
50
100
AcDbEntity
  8
0
  6
Continuous
 62
     3
100
AcDbCircle
 10
1758.260793627168
 20
-164.8030785438929
 30
0.0
 40
1.302940951768735
100
AcDbArc
 50
171.2672176968537
 51
-175.6683102839681
  0
ARC
  5
50D
330
50
100
AcDbEntity
  8
0
  6
Continuous
 62
     3
100
AcDbCircle
 10
1758.861974692313
 20
-165.9050268549353
 30
0.0
 40
0.8463753850711032
100
AcDbArc
 50
-50.27617794149938
 51
-24.70341815996092
  0
ARC
  5
50E
330
50
100
AcDbEntity
  8
0
  6
Continuous
 62
     3
100
AcDbCircle
 10
1758.861597648566
 20
-165.9055187717108
 30
0.0
 40
0.8462382150249831
100
AcDbArc
 50
-63.3795728831729
 51
-50.23525785177077
  0
ARC
  5
50F
330
50
100
AcDbEntity
  8
0
  6
Continuous
 62
     3
100
AcDbCircle
 10
1758.821573919955
 20
-165.8050338340449
 30
0.0
 40
0.9540497325417396
100
AcDbArc
 50
-81.94658886637295
 51
-63.93473787138637
  0
ARC
  5
510
330
50
100
AcDbEntity
  8
0
  6
Continuous
 62
     3
100
AcDbCircle
 10
1758.798680999462
 20
-165.5663294286528
 30
0.0
 40
1.193655850137085
100
AcDbArc
 50
-96.09580296147701
 51
-82.46377095317673
  0
ARC
  5
511
330
50
100
AcDbEntity
  8
0
  6
Continuous
 62
     3
100
AcDbCircle
 10
1758.847297831482
 20
-165.2368429745306
 30
0.0
 40
1.526500385516744
100
AcDbArc
 50
-109.3308705719358
 51
-96.59701559354566
  0
ARC
  5
512
330
50
100
AcDbEntity
  8
0
  6
Continuous
 62
     3
100
AcDbCircle
 10
1758.992385697261
 20
-164.8698797087495
 30
0.0
 40
1.92086468067343
100
AcDbArc
 50
-123.0089239305908
 51
-109.791271932916
  0
ARC
  5
513
330
50
100
AcDbEntity
  8
0
  6
Continuous
 62
     3
100
AcDbCircle
 10
1759.209536666694
 20
-164.5663345350724
 30
0.0
 40
2.293771656809881
100
AcDbArc
 50
-140.1907752826759
 51
-123.4270112802432
  0
ARC
  5
514
330
50
100
AcDbEntity
  8
0
  6
Continuous
 62
     3
100
AcDbCircle
 10
1757.834034672985
 20
-165.6583031388513
 30
0.0
 40
1.058399432064852
100
AcDbArc
 50
48.68369876022826
 51
59.87715778795653
  0
ARC
  5
515
330
50
100
AcDbEntity
  8
0
  6
Continuous
 62
     3
100
AcDbCircle
 10
1757.996695725677
 20
-164.7538050422956
 30
0.0
 40
1.034459465302116
100
AcDbArc
 50
156.3162299986824
 51
171.7438439874387
  0
ARC
  5
516
330
50
100
AcDbEntity
  8
0
  6
Continuous
 62
     3
100
AcDbCircle
 10
1758.13668572862
 20
-164.9502660878827
 30
0.0
 40
0.3759527763213691
100
AcDbArc
 50
157.2712513451386
 51
172.7918733110603
  0
ARC
  5
517
330
50
100
AcDbEntity
  8
0
  6
Continuous
 62
     3
100
AcDbCircle
 10
1758.039032145575
 20
-164.9134716304442
 30
0.0
 40
0.2716927927086291
100
AcDbArc
 50
130.6091697063908
 51
156.4713098440876
  0
ARC
  5
518
330
50
100
AcDbEntity
  8
0
  6
Continuous
 62
     3
100
AcDbCircle
 10
1758.026455963599
 20
-164.9046712974561
 30
0.0
 40
0.2568544834528816
100
AcDbArc
 50
103.6449917166365
 51
129.7571726167135
  0
ARC
  5
519
330
50
100
AcDbEntity
  8
0
  6
Continuous
 62
     3
100
AcDbCircle
 10
1758.046291529574
 20
-164.9723051803612
 30
0.0
 40
0.3272756315450004
100
AcDbArc
 50
90.81818562542412
 51
104.2263246082783
  0
ARC
  5
51A
330
50
100
AcDbEntity
  8
0
  6
Continuous
 62
     3
100
AcDbCircle
 10
1758.050699393224
 20
-165.0733612943893
 30
0.0
 40
0.428394640883808
100
AcDbArc
 50
81.02699855619517
 51
91.21466056608416
  0
ARC
  5
51B
330
50
100
AcDbEntity
  8
0
  6
Continuous
 62
     3
100
AcDbCircle
 10
1758.030942473149
 20
-165.216085148701
 30
0.0
 40
0.5724598836554911
100
AcDbArc
 50
70.17195014219419
 51
81.30177520351106
  0
ARC
  5
51C
330
50
100
AcDbEntity
  8
0
  6
Continuous
 62
     3
100
AcDbCircle
 10
1757.961607780476
 20
-165.4259890864425
 30
0.0
 40
0.7934603495482472
100
AcDbArc
 50
59.42630484663786
 51
70.60340379778039
  0
ARC
  5
51D
330
50
100
AcDbEntity
  8
0
  6
Continuous
 62
     3
100
AcDbCircle
 10
1806.842160938215
 20
-203.1402324546074
 30
0.0
 40
1.499999999925393
100
AcDbArc
 50
90.00000000290949
 51
-179.9999999971502
  0
ARC
  5
51E
330
50
100
AcDbEntity
  8
0
  6
Continuous
 62
     3
100
AcDbCircle
 10
1811.11571109333
 20
-199.1402259179239
 30
0.0
 40
2.500006540671283
100
AcDbArc
 50
-90.00330102983192
 51
-84.80304227159475
  0
ARC
  5
51F
330
50
100
AcDbEntity
  8
0
  6
Continuous
 62
     3
100
AcDbCircle
 10
1806.340147579756
 20
-204.9375271353981
 30
0.0
 40
5.004027527323547
100
AcDbArc
 50
-1.62569967411394
 51
1.62569967411524
  0
ARC
  5
520
330
50
100
AcDbEntity
  8
0
  6
Continuous
 62
     3
100
AcDbCircle
 10
1811.341236419119
 20
-199.1392097191562
 30
0.0
 40
2.500924728140387
100
AcDbArc
 50
-66.40795693559657
 51
-0.02343070551465
  0
ARC
  5
521
330
50
100
AcDbEntity
  8
0
  6
Continuous
 62
     3
100
AcDbCircle
 10
1809.732627896229
 20
-199.141029013394
 30
0.0
 40
2.499203567912751
100
AcDbArc
 50
-89.98174421763378
 51
0.0182616033066
  0
ARC
  5
522
330
50
100
AcDbEntity
  8
0
  6
Continuous
 62
     3
100
AcDbCircle
 10
1757.842160938139
 20
-150.640232454682
 30
0.0
 40
3.5
100
AcDbArc
 50
0.0
 51
180.0
  0
ARC
  5
523
330
50
100
AcDbEntity
  8
0
  6
Continuous
 62
     3
100
AcDbCircle
 10
1757.869243800096
 20
-158.9043193703878
 30
0.0
 40
0.9535341547864666
100
AcDbArc
 50
98.05380507751625
 51
116.0766400304819
  0
ARC
  5
524
330
50
100
AcDbEntity
  8
0
  6
Continuous
 62
     3
100
AcDbCircle
 10
1757.843558032235
 20
-159.4731813522439
 30
0.0
 40
1.526676897954681
100
AcDbArc
 50
70.67061292155667
 51
83.40266590901102
  0
ARC
  5
525
330
50
100
AcDbEntity
  8
0
  6
Continuous
 62
     3
100
AcDbCircle
 10
1757.698784487537
 20
-159.839296693879
 30
0.0
 40
1.920136603228609
100
AcDbArc
 50
56.98805004421138
 51
70.21020804025535
  0
ARC
  5
526
330
50
100
AcDbEntity
  8
0
  6
Continuous
 62
     3
100
AcDbCircle
 10
1757.834307701091
 20
-158.811872782828
 30
0.0
 40
0.855191133593467
100
AcDbArc
 50
116.6968612515007
 51
129.7048058381603
  0
ARC
  5
527
330
50
100
AcDbEntity
  8
0
  6
Continuous
 62
     3
100
AcDbCircle
 10
1757.892262648493
 20
-159.1433990416767
 30
0.0
 40
1.193528776932916
100
AcDbArc
 50
83.90639761541489
 51
97.53995065924519
  0
ARC
  5
528
330
50
100
AcDbEntity
  8
0
  6
Continuous
 62
     3
100
AcDbCircle
 10
1803.343593318266
 20
-143.4567004453861
 30
0.0
 40
1.998568132107728
100
AcDbArc
 50
0.04103465050355
 51
90.04106407064208
  0
ARC
  5
529
330
50
100
AcDbEntity
  8
0
  6
Continuous
 62
     3
100
AcDbCircle
 10
1803.340727530858
 20
-141.4791658623728
 30
0.0
 40
2.001433920987316
100
AcDbArc
 50
-0.04106408670315
 51
89.95896532297076
  0
ARC
  5
52A
330
50
100
AcDbEntity
  8
0
  6
Continuous
 62
     3
100
AcDbCircle
 10
1809.732627895977
 20
-150.1394358957179
 30
0.0
 40
2.499203567971657
100
AcDbArc
 50
-0.01826160467059
 51
89.9817442128646
  0
ARC
  5
52B
330
50
100
AcDbEntity
  8
0
  6
Continuous
 62
     3
100
AcDbCircle
 10
1758.991172314275
 20
-158.884498895351
 30
0.0
 40
1.272325119815397
100
AcDbArc
 50
-153.8561161983024
 51
-140.182085192877
  0
ARC
  5
52C
330
50
100
AcDbEntity
  8
0
  6
Continuous
 62
     3
100
AcDbCircle
 10
1758.450993460219
 20
-158.938952952662
 30
0.0
 40
1.492713978139586
100
AcDbArc
 50
179.5529589672784
 51
-170.1712999990676
  0
ARC
  5
52D
330
50
100
AcDbEntity
  8
0
  6
Continuous
 62
     3
100
AcDbCircle
 10
1758.985426542197
 20
-158.8932219557398
 30
0.0
 40
1.262329691530544
100
AcDbArc
 50
-140.3191931212595
 51
-130.9562291209686
  0
ARC
  5
52E
330
50
100
AcDbEntity
  8
0
  6
Continuous
 62
     3
100
AcDbCircle
 10
1758.136694414468
 20
-159.0862105634523
 30
0.0
 40
0.3759741377749799
100
AcDbArc
 50
157.2712690725726
 51
172.7924370612951
  0
ARC
  5
52F
330
50
100
AcDbEntity
  8
0
  6
Continuous
 62
     3
100
AcDbCircle
 10
1811.115711089901
 20
-150.1402389912848
 30
0.0
 40
2.50000654082731
100
AcDbArc
 50
84.80304219300864
 51
90.00330095138521
  0
ARC
  5
530
330
50
100
AcDbEntity
  8
0
  6
Continuous
 62
     3
100
AcDbCircle
 10
1811.341236419119
 20
-150.1412551902076
 30
0.0
 40
2.500924728140166
100
AcDbArc
 50
0.02343070551009
 51
66.40795693559501
  0
ARC
  5
531
330
50
100
AcDbEntity
  8
0
  6
Continuous
 62
     3
100
AcDbCircle
 10
1784.842160938139
 20
-176.640232454682
 30
0.0
 40
20.0000000000001
100
AcDbArc
 50
-84.26082952153521
 51
-14.47751218595553
  0
ARC
  5
532
330
50
100
AcDbEntity
  8
0
  6
Continuous
 62
     3
100
AcDbCircle
 10
1784.842160938139
 20
-181.640232454682
 30
0.0
 40
15.00000000000008
100
AcDbArc
 50
-82.3377443376303
 51
-0.00000000000076
  0
ARC
  5
533
330
50
100
AcDbEntity
  8
0
  6
Continuous
 62
     3
100
AcDbCircle
 10
1757.486245461662
 20
-160.140481427973
 30
0.0
 40
2.288535042857383
100
AcDbArc
 50
29.94479838105281
 51
56.63412786677933
  0
ARC
  5
534
330
50
100
AcDbEntity
  8
0
  6
Continuous
 62
     3
100
AcDbCircle
 10
1757.968408283555
 20
-158.879003546438
 30
0.0
 40
1.004169910082654
100
AcDbArc
 50
154.7812283297618
 51
168.4111073449419
  0
ARC
  5
535
330
50
100
AcDbEntity
  8
0
  6
Continuous
 62
     3
100
AcDbCircle
 10
1758.039171189902
 20
-159.0495097110019
 30
0.0
 40
0.2718710408978143
100
AcDbArc
 50
130.6155485589683
 51
156.4642776716968
  0
ARC
  5
536
330
50
100
AcDbEntity
  8
0
  6
Continuous
 62
     3
100
AcDbCircle
 10
1758.02644108008
 20
-159.0409429597116
 30
0.0
 40
0.2571134937907251
100
AcDbArc
 50
103.6182656391338
 51
129.7048486595906
  0
ARC
  5
537
330
50
100
AcDbEntity
  8
0
  6
Continuous
 62
     3
100
AcDbCircle
 10
1758.046266223535
 20
-159.1086760688929
 30
0.0
 40
0.3276270432768611
100
AcDbArc
 50
90.80417689567658
 51
104.1988609047994
  0
ARC
  5
538
330
50
100
AcDbEntity
  8
0
  6
Continuous
 62
     3
100
AcDbCircle
 10
1758.050654174451
 20
-159.2095153248387
 30
0.0
 40
0.4285282598121042
100
AcDbArc
 50
81.01671126008154
 51
91.20157830217542
  0
ARC
  5
539
330
50
100
AcDbEntity
  8
0
  6
Continuous
 62
     3
100
AcDbCircle
 10
1758.030880265047
 20
-159.3523267874043
 30
0.0
 40
0.5726823008302068
100
AcDbArc
 50
70.1684577239668
 51
81.29365871669162
  0
ARC
  5
53A
330
50
100
AcDbEntity
  8
0
  6
Continuous
 62
     3
100
AcDbCircle
 10
1757.961623435328
 20
-159.5620158467015
 30
0.0
 40
0.7934539561018733
100
AcDbArc
 50
59.42486962013678
 51
70.60091254471111
  0
ARC
  5
53B
330
50
100
AcDbEntity
  8
0
  6
Continuous
 62
     3
100
AcDbCircle
 10
1758.097968581387
 20
-159.9199116270713
 30
0.0
 40
1.63511544781375
100
AcDbArc
 50
3.91047703069951
 51
16.37305704133579
  0
ARC
  5
53C
330
50
100
AcDbEntity
  8
0
  6
Continuous
 62
     3
100
AcDbCircle
 10
1758.651507692644
 20
-159.796357256999
 30
0.0
 40
0.2720362752732336
100
AcDbArc
 50
-49.37038305158713
 51
-23.5302780342411
  0
ARC
  5
53D
330
50
100
AcDbEntity
  8
0
  6
Continuous
 62
     3
100
AcDbCircle
 10
1758.693769973701
 20
-159.9560113077161
 30
0.0
 40
1.034857744060432
100
AcDbArc
 50
-23.67853241949466
 51
-8.25710941563921
  0
ARC
  5
53E
330
50
100
AcDbEntity
  8
0
  6
Continuous
 62
     3
100
AcDbCircle
 10
1758.852249883079
 20
-160.0330016947618
 30
0.0
 40
0.8588274815318275
100
AcDbArc
 50
-50.11249360846141
 51
-23.22070061630302
  0
ARC
  5
53F
330
50
100
AcDbEntity
  8
0
  6
Continuous
 62
     3
100
AcDbCircle
 10
1758.843654309975
 20
-160.0099144147261
 30
0.0
 40
0.8820928643191551
100
AcDbArc
 50
-74.35012012376812
 51
-50.64577912569406
  0
ARC
  5
540
330
50
100
AcDbEntity
  8
0
  6
Continuous
 62
     3
100
AcDbCircle
 10
1758.801957315518
 20
-159.8201353708911
 30
0.0
 40
1.076141207017413
100
AcDbArc
 50
-90.34875976132904
 51
-74.93809378453251
  0
ARC
  5
541
330
50
100
AcDbEntity
  8
0
  6
Continuous
 62
     3
100
AcDbCircle
 10
1758.430285299052
 20
-159.9068453849483
 30
0.0
 40
1.302716908732337
100
AcDbArc
 50
-8.73281215171945
 51
4.3339118458898
  0
ARC
  5
542
330
50
100
AcDbEntity
  8
0
  6
Continuous
 62
     3
100
AcDbCircle
 10
1758.195240542002
 20
-159.7645881178602
 30
0.0
 40
0.7366012710718914
100
AcDbArc
 50
4.97101540943803
 51
14.11481738554801
  0
ARC
  5
543
330
50
100
AcDbEntity
  8
0
  6
Continuous
 62
     3
100
AcDbCircle
 10
1758.39357509216
 20
-159.7441582835585
 30
0.0
 40
0.5372517771700855
100
AcDbArc
 50
-6.70084414825272
 51
4.63327086094913
  0
ARC
  5
544
330
50
100
AcDbEntity
  8
0
  6
Continuous
 62
     3
100
AcDbCircle
 10
1758.553726166853
 20
-159.7595691587525
 30
0.0
 40
0.3764116727756023
100
AcDbArc
 50
-22.72220875918462
 51
-7.2155967282501
  0
ARC
  5
545
330
50
100
AcDbEntity
  8
0
  6
Continuous
 62
     3
100
AcDbCircle
 10
1803.340727530845
 20
-207.8012990469983
 30
0.0
 40
2.001433920979748
100
AcDbArc
 50
-89.95896532259958
 51
0.04106408709305
  0
ARC
  5
546
330
50
100
AcDbEntity
  8
0
  6
Continuous
 62
     3
100
AcDbCircle
 10
1803.343593318186
 20
-205.8237644640219
 30
0.0
 40
1.998568132166505
100
AcDbArc
 50
-90.04106406416805
 51
-0.04103464794467
  0
ARC
  5
547
330
50
100
AcDbEntity
  8
0
  6
Continuous
 62
     3
100
AcDbCircle
 10
1806.342629537402
 20
-144.4853447626257
 30
0.0
 40
5.007612329868656
100
AcDbArc
 50
3.2554524458342
 51
90.00536158918199
  0
ARC
  5
548
330
50
100
AcDbEntity
  8
0
  6
Continuous
 62
     3
100
AcDbCircle
 10
1769.171541644634
 20
-146.9843816150478
 30
0.0
 40
4.996306438323163
100
AcDbArc
 50
23.14397956013118
 51
89.76970785335466
  0
ARC
  5
549
330
50
100
AcDbEntity
  8
0
  6
Continuous
 62
     3
100
AcDbCircle
 10
1758.856668328565
 20
-159.0515669981457
 30
0.0
 40
1.058367402740891
100
AcDbArc
 50
-131.3109741946212
 51
-120.1173262023537
  0
ARC
  5
54A
330
50
100
AcDbEntity
  8
0
  6
Continuous
 62
     3
100
AcDbCircle
 10
1758.729407323694
 20
-159.2834695605426
 30
0.0
 40
0.7939405483554881
100
AcDbArc
 50
-120.5706478175245
 51
-109.4002928398013
  0
ARC
  5
54B
330
50
100
AcDbEntity
  8
0
  6
Continuous
 62
     3
100
AcDbCircle
 10
1758.659971453908
 20
-159.4936574303865
 30
0.0
 40
0.5726390367337141
100
AcDbArc
 50
-109.8329262650966
 51
-98.70626621796193
  0
ARC
  5
54C
330
50
100
AcDbEntity
  8
0
  6
Continuous
 62
     3
100
AcDbCircle
 10
1757.934606132931
 20
-159.8391996948341
 30
0.0
 40
1.007600496742337
100
AcDbArc
 50
14.6151751233219
 51
25.79337213530019
  0
ARC
  5
54D
330
50
100
AcDbEntity
  8
0
  6
Continuous
 62
     3
100
AcDbCircle
 10
1758.812321535727
 20
-159.5489198219818
 30
0.0
 40
1.347442989913922
100
AcDbArc
 50
-102.5069675769294
 51
-90.71926157240658
  0
ARC
  5
54E
330
50
100
AcDbEntity
  8
0
  6
Continuous
 62
     3
100
AcDbCircle
 10
1758.664487804109
 20
-159.8052037316967
 30
0.0
 40
0.256902730269609
100
AcDbArc
 50
-76.38674970940519
 51
-50.28271271982723
  0
ARC
  5
54F
330
50
100
AcDbEntity
  8
0
  6
Continuous
 62
     3
100
AcDbCircle
 10
1758.6445988721
 20
-159.7372394609499
 30
0.0
 40
0.3276558082799908
100
AcDbArc
 50
-89.1965831371076
 51
-75.80379920728208
  0
ARC
  5
550
330
50
100
AcDbEntity
  8
0
  6
Continuous
 62
     3
100
AcDbCircle
 10
1758.64023721983
 20
-159.6361852586608
 30
0.0
 40
0.4287713430014048
100
AcDbArc
 50
-98.98253495771522
 51
-88.80314491537332
  0
ARC
  5
551
330
50
100
AcDbEntity
  8
0
  6
Continuous
 62
     3
100
AcDbCircle
 10
1769.163800993688
 20
-146.9931830417333
 30
0.0
 40
5.006886009220674
100
AcDbArc
 50
0.22640479311997
 51
23.20177649559838
  0
ARC
  5
552
330
50
100
AcDbEntity
  8
0
  6
Continuous
 62
     3
100
AcDbCircle
 10
1806.340147579756
 20
-144.3429377739682
 30
0.0
 40
5.004027527249384
100
AcDbArc
 50
-1.62569967411037
 51
1.62569967410939
  0
ARC
  5
553
330
50
100
AcDbEntity
  8
0
  6
Continuous
 62
     3
100
AcDbCircle
 10
1716.842160938139
 20
-142.640232454682
 30
0.0
 40
5.0
100
AcDbArc
 50
90.0
 51
180.0
  0
ARC
  5
554
330
50
100
AcDbEntity
  8
0
  6
Continuous
 62
     3
100
AcDbCircle
 10
1718.398653106339
 20
-144.1901210985515
 30
0.0
 40
4.999185259507152
100
AcDbArc
 50
89.94557196047344
 51
143.0392936981492
  0
ARC
  5
555
330
50
100
AcDbEntity
  8
0
  6
Continuous
 62
     3
100
AcDbCircle
 10
1757.836197715136
 20
-158.8106324043822
 30
0.0
 40
0.8554472052484413
100
AcDbArc
 50
129.855269028978
 51
155.1511350265794
  0
ARC
  5
556
330
50
100
AcDbEntity
  8
0
  6
Continuous
 62
     3
100
AcDbCircle
 10
1718.38409870654
 20
-144.1702359765936
 30
0.0
 40
4.975604443862244
100
AcDbArc
 50
143.1214912067877
 51
-179.909757991941
  0
ARC
  5
557
330
50
100
AcDbEntity
  8
0
  6
Continuous
 62
     3
100
AcDbCircle
 10
1699.842160938285
 20
-187.3681545159915
 30
0.0
 40
11.99999999985403
100
AcDbArc
 50
0.00000000147822
 51
50.47880364393625
  0
ARC
  5
558
330
50
100
AcDbEntity
  8
0
  6
Continuous
 62
     3
100
AcDbCircle
 10
1699.842160938285
 20
-161.9123103933723
 30
0.0
 40
11.99999999985403
100
AcDbArc
 50
-50.47880364393616
 51
-0.00000000147822
  0
ARC
  5
559
330
50
100
AcDbEntity
  8
0
  6
Continuous
 62
     3
100
AcDbCircle
 10
1716.842160938139
 20
-206.640232454682
 30
0.0
 40
5.0
100
AcDbArc
 50
180.0
 51
-90.0
  0
ARC
  5
55A
330
50
100
AcDbEntity
  8
0
  6
Continuous
 62
     3
100
AcDbCircle
 10
1718.385603805003
 20
-205.1128432452721
 30
0.0
 40
4.976715395561447
100
AcDbArc
 50
-176.2353097039756
 51
-89.79509218492851
  0
ARC
  5
55B
330
50
100
AcDbEntity
  8
0
  6
Continuous
 62
     3
100
AcDbCircle
 10
1710.342160938139
 20
-174.640232454682
 30
0.0
 40
4.500000000015926
100
AcDbArc
 50
129.5211963644742
 51
-129.5211963644761
  0
ARC
  5
55C
330
50
100
AcDbEntity
  8
0
  6
Continuous
 62
     3
100
AcDbCircle
 10
1784.842160938139
 20
-174.640232454682
 30
0.0
 40
9.000000000375451
100
AcDbArc
 50
40.54160187350507
 51
78.78772858012394
  0
ARC
  5
55D
330
50
100
AcDbEntity
  8
0
  6
Continuous
 62
     3
100
AcDbCircle
 10
1784.842160938139
 20
-174.640232454682
 30
0.0
 40
6.499999999999967
100
AcDbArc
 50
-74.381501720543
 51
74.381501720543
  0
ARC
  5
55E
330
50
100
AcDbEntity
  8
0
  6
Continuous
 62
     3
100
AcDbCircle
 10
1784.842160938139
 20
-174.640232454682
 30
0.0
 40
6.499999999999931
100
AcDbArc
 50
105.6184982718403
 51
-105.6184982718403
  0
ARC
  5
55F
330
50
100
AcDbEntity
  8
0
  6
Continuous
 62
     3
100
AcDbCircle
 10
1784.842160938139
 20
-174.640232454682
 30
0.0
 40
9.000000000375518
100
AcDbArc
 50
101.2122714144753
 51
-102.8395884036423
  0
ARC
  5
560
330
50
100
AcDbEntity
  8
0
  6
Continuous
 62
     3
100
AcDbCircle
 10
1600.499910806609
 20
-308.7356070183579
 30
0.0
 40
0.9999999998566977
100
AcDbArc
 50
-89.99999994637859
 51
-3.06648547141961
  0
ARC
  5
561
330
50
100
AcDbEntity
  8
0
  6
Continuous
 62
     3
100
AcDbCircle
 10
1659.447773300004
 20
-313.2356070189823
 30
0.0
 40
8.500000000097383
100
AcDbArc
 50
28.27371363319875
 51
33.49501290598305
  0
ARC
  5
562
330
50
100
AcDbEntity
  8
0
  6
Continuous
 62
     3
100
AcDbCircle
 10
1673.39563579199
 20
-308.7356070178922
 30
0.0
 40
1.000000000299583
100
AcDbArc
 50
-176.9335145016025
 51
-90.00000001861638
  0
ARC
  5
563
330
50
100
AcDbEntity
  8
0
  6
Continuous
 62
     3
100
AcDbCircle
 10
1659.44777329938
 20
-313.2356070176908
 30
0.0
 40
8.500000000035557
100
AcDbArc
 50
6.75632702700428
 51
28.27371362353976
  0
ARC
  5
564
330
50
100
AcDbEntity
  8
0
  6
Continuous
 62
     3
100
AcDbCircle
 10
1667.814373565223
 20
-308.73560701862
 30
0.0
 40
0.9999999999669675
100
AcDbArc
 50
-151.726286362633
 51
-89.99999999959614
  0
ARC
  5
565
330
50
100
AcDbEntity
  8
0
  6
Continuous
 62
     3
100
AcDbCircle
 10
1659.447773299598
 20
-313.2356070182431
 30
0.0
 40
8.500000000028342
100
AcDbArc
 50
33.49501290031805
 51
90.00000000035864
  0
ARC
  5
566
330
50
100
AcDbEntity
  8
0
  6
Continuous
 62
     3
100
AcDbCircle
 10
1659.447773299545
 20
-313.2356070182146
 30
0.0
 40
5.499999999999421
100
AcDbArc
 50
5.21590857045467
 51
169.5243183036099
  0
ARC
  5
567
330
50
100
AcDbEntity
  8
0
  6
Continuous
 62
     3
100
AcDbCircle
 10
1659.447773299556
 20
-313.2356070182078
 30
0.0
 40
8.499999999993236
100
AcDbArc
 50
90.0000000000751
 51
151.7262863709015
  0
ARC
  5
568
330
50
100
AcDbEntity
  8
0
  6
Continuous
 62
     3
100
AcDbCircle
 10
1659.447773299545
 20
-313.2356070182146
 30
0.0
 40
5.199999999999585
100
AcDbArc
 50
5.51773437372557
 51
174.4822656262754
  0
ARC
  5
569
330
50
100
AcDbEntity
  8
0
  6
Continuous
 62
     3
100
AcDbCircle
 10
1659.447773299545
 20
-313.2356070182146
 30
0.0
 40
5.499999999999896
100
AcDbArc
 50
169.5243183036099
 51
174.7840914295462
  0
ARC
  5
56A
330
50
100
AcDbEntity
  8
0
  6
Continuous
 62
     3
100
AcDbCircle
 10
1659.447773299587
 20
-313.2356070180791
 30
0.0
 40
8.499999999959041
100
AcDbArc
 50
151.7262863717642
 51
173.243672970299
  0
ARC
  5
56B
330
50
100
AcDbEntity
  8
0
  6
Continuous
 62
     3
100
AcDbCircle
 10
1651.081173034305
 20
-308.7356070183579
 30
0.0
 40
0.9999999998566977
100
AcDbArc
 50
-89.99999998625593
 51
-28.27371364549349
  0
ARC
  5
56C
330
50
100
AcDbEntity
  8
0
  6
Continuous
 62
     3
100
AcDbCircle
 10
1883.394298446521
 20
-308.735607017922
 30
0.0
 40
1.000000000293312
100
AcDbArc
 50
-89.99999999804587
 51
-3.06648549733519
  0
ARC
  5
56D
330
50
100
AcDbEntity
  8
0
  6
Continuous
 62
     3
100
AcDbCircle
 10
1891.652901972154
 20
-266.7356070169325
 30
0.0
 40
4.999999999509332
100
AcDbArc
 50
138.1896851145884
 51
176.9335145117532
  0
ARC
  5
56E
330
50
100
AcDbEntity
  8
0
  6
Continuous
 62
     3
100
AcDbCircle
 10
1891.652901971109
 20
-266.7356070184345
 30
0.0
 40
4.999999999732609
100
AcDbArc
 50
89.99999999179525
 51
138.1896850937761
  0
ARC
  5
56F
330
50
100
AcDbEntity
  8
0
  6
Continuous
 62
     3
100
AcDbCircle
 10
1956.290023430547
 20
-308.7356070178815
 30
0.0
 40
1.000000000333211
100
AcDbArc
 50
-176.9335145002185
 51
-89.99999999954403
  0
ARC
  5
570
330
50
100
AcDbEntity
  8
0
  6
Continuous
 62
     3
100
AcDbCircle
 10
1948.031419906143
 20
-266.7356070185439
 30
0.0
 40
5.000000000267312
100
AcDbArc
 50
41.81031490014084
 51
90.00000000647208
  0
ARC
  5
571
330
50
100
AcDbEntity
  8
0
  6
Continuous
 62
     3
100
AcDbCircle
 10
1943.342134365086
 20
-264.7356335915332
 30
0.0
 40
3.000026573586775
100
AcDbArc
 50
0.00050750850611
 51
89.99949249555519
  0
ARC
  5
572
330
50
100
AcDbEntity
  8
0
  6
Continuous
 62
     3
100
AcDbCircle
 10
1948.031419904686
 20
-266.7356070164645
 30
0.0
 40
4.999999999966702
100
AcDbArc
 50
3.06648548272834
 51
41.81031487124972
  0
ARC
  5
573
330
50
100
AcDbEntity
  8
0
  6
Continuous
 62
     3
100
AcDbCircle
 10
1896.34213436663
 20
-264.7355804462899
 30
0.0
 40
2.999973428192233
100
AcDbArc
 50
89.99949250911983
 51
-179.9994925091253
  0
ARC
  5
574
330
50
100
AcDbEntity
  8
0
  6
Continuous
 62
     3
100
AcDbCircle
 10
1914.842160938344
 20
-262.7356070183538
 30
0.0
 40
1.000000000138925
100
AcDbArc
 50
-0.00000003830426
 51
89.99999998539612
  0
ARC
  5
575
330
50
100
AcDbEntity
  8
0
  6
Continuous
 62
     3
100
AcDbCircle
 10
1924.842160938394
 20
-262.7356070178404
 30
0.0
 40
0.9999999996257998
100
AcDbArc
 50
89.99999999077649
 51
-179.9999999671673
  0
ARC
  5
576
330
50
100
AcDbEntity
  8
0
  6
Continuous
 62
     3
100
AcDbCircle
 10
1947.60284847639
 20
-258.7356070180516
 30
0.0
 40
5.000000000127236
100
AcDbArc
 50
3.06648550055596
 51
89.99999999486454
  0
ARC
  5
577
330
50
100
AcDbEntity
  8
0
  6
Continuous
 62
     3
100
AcDbCircle
 10
1892.081473400136
 20
-258.7356070174488
 30
0.0
 40
4.999999999524079
100
AcDbArc
 50
89.99999999519805
 51
176.9335145078674
  0
ARC
  5
578
330
50
100
AcDbEntity
  8
0
  6
Continuous
 62
     3
100
AcDbCircle
 10
1812.342160938473
 20
-308.7356070181033
 30
0.0
 40
1.000000000082991
100
AcDbArc
 50
-179.9999999935579
 51
-89.99999999529706
  0
ARC
  5
579
330
50
100
AcDbEntity
  8
0
  6
Continuous
 62
     3
100
AcDbCircle
 10
1802.3421609387
 20
-264.7356070183309
 30
0.0
 40
3.000000000145974
100
AcDbArc
 50
-0.00000005405348
 51
90.00000000277053
  0
ARC
  5
57A
330
50
100
AcDbEntity
  8
0
  6
Continuous
 62
     3
100
AcDbCircle
 10
1776.601217289828
 20
-259.7367032087079
 30
0.0
 40
1.998904196625167
100
AcDbArc
 50
-172.7679618465303
 51
-90.03565992953473
  0
ARC
  5
57B
330
50
100
AcDbEntity
  8
0
  6
Continuous
 62
     3
100
AcDbCircle
 10
1771.193814282484
 20
-256.7356070181231
 30
0.0
 40
2.999999999938127
100
AcDbArc
 50
7.1250163436039
 51
89.99999999864514
  0
ARC
  5
57C
330
50
100
AcDbEntity
  8
0
  6
Continuous
 62
     3
100
AcDbCircle
 10
1712.768184592655
 20
-303.7356070181102
 30
0.0
 40
1.000000000075204
100
AcDbArc
 50
-90.00000000573212
 51
-4.08561678467794
  0
ARC
  5
57D
330
50
100
AcDbEntity
  8
0
  6
Continuous
 62
     3
100
AcDbCircle
 10
1712.423469142157
 20
-308.7367387885927
 30
0.0
 40
0.9988689726811922
100
AcDbArc
 50
-89.93011183295506
 51
-4.22192896674655
  0
ARC
  5
57E
330
50
100
AcDbEntity
  8
0
  6
Continuous
 62
     3
100
AcDbCircle
 10
2127.260852734952
 20
-308.7367387885926
 30
0.0
 40
0.9988689726816296
100
AcDbArc
 50
-175.7780710332577
 51
-90.06988816705798
  0
ARC
  5
57F
330
50
100
AcDbEntity
  8
0
  6
Continuous
 62
     3
100
AcDbCircle
 10
2126.916137284455
 20
-303.7356070181101
 30
0.0
 40
1.000000000075417
100
AcDbArc
 50
-175.9143832153188
 51
-89.99999999426788
  0
ARC
  5
580
330
50
100
AcDbEntity
  8
0
  6
Continuous
 62
     3
100
AcDbCircle
 10
2068.490507594625
 20
-256.7356070181231
 30
0.0
 40
2.999999999937813
100
AcDbArc
 50
90.0000000013375
 51
172.8749836563939
  0
ARC
  5
581
330
50
100
AcDbEntity
  8
0
  6
Continuous
 62
     3
100
AcDbCircle
 10
2063.083104587281
 20
-259.7367032087079
 30
0.0
 40
1.998904196626074
100
AcDbArc
 50
-89.96434007043921
 51
-7.23203815346402
  0
ARC
  5
582
330
50
100
AcDbEntity
  8
0
  6
Continuous
 62
     3
100
AcDbCircle
 10
2037.342160938409
 20
-264.7356070183308
 30
0.0
 40
3.000000000145406
100
AcDbArc
 50
89.9999999972121
 51
-179.9999999459476
  0
ARC
  5
583
330
50
100
AcDbEntity
  8
0
  6
Continuous
 62
     3
100
AcDbCircle
 10
2027.342160938637
 20
-308.7356070181032
 30
0.0
 40
1.000000000082196
100
AcDbArc
 50
-90.00000000470294
 51
-0.00000000643887
  0
CIRCLE
  5
584
330
50
100
AcDbEntity
  8
0
  6
Continuous
 62
     3
100
AcDbCircle
 10
1784.842160938139
 20
-174.640232454682
 30
0.0
 40
4.5
  0
CIRCLE
  5
585
330
50
100
AcDbEntity
  8
0
  6
Continuous
 62
     3
100
AcDbCircle
 10
1757.842160938139
 20
-174.640232454682
 30
0.0
 40
2.0
  0
SPLINE
  5
586
330
50
100
AcDbEntity
  8
0
  6
Continuous
 62
     3
100
AcDbSpline
210
0.0
220
0.0
230
1.0
 70
     8
 71
     3
 72
    13
 73
     9
 74
     7
 42
0.0000000001
 43
0.0000000001
 44
0.00000001
 40
0.0
 40
0.0
 40
0.0
 40
0.0
 40
0.1328956156471303
 40
0.2523540999691765
 40
0.3536070220280292
 40
0.43189303118974
 40
0.4824824288588769
 40
0.500937320028104
 40
0.500937320028104
 40
0.500937320028104
 40
0.500937320028104
 10
1812.213974194139
 20
-150.640232454682
 30
0.0
 10
1812.214074372292
 20
-150.5959302796022
 30
0.0
 10
1812.214264599543
 20
-150.5118053409087
 30
0.0
 10
1812.216240932571
 20
-150.3939895391097
 30
0.0
 10
1812.218245785903
 20
-150.2942286993221
 30
0.0
 10
1812.223047845187
 20
-150.2179028814634
 30
0.0
 10
1812.223635090445
 20
-150.1682940157021
 30
0.0
 10
1812.230102625511
 20
-150.1461510593434
 30
0.0
 10
1812.231831337007
 20
-150.140232454682
 30
0.0
 11
1812.213974194139
 21
-150.640232454682
 31
0.0
 11
1812.214613128596
 21
-150.5073383749757
 31
0.0
 11
1812.216414852909
 21
-150.3878934786175
 31
0.0
 11
1812.219208451491
 21
-150.2866791020082
 31
0.0
 11
1812.222823008759
 21
-150.2084765815486
 31
0.0
 11
1812.227087609126
 21
-150.1580672536396
 31
0.0
 11
1812.231831337007
 21
-150.140232454682
 31
0.0
  0
SPLINE
  5
587
330
50
100
AcDbEntity
  8
0
  6
Continuous
 62
     3
100
AcDbSpline
210
0.0
220
0.0
230
1.0
 70
     8
 71
     3
 72
    11
 73
     7
 74
     5
 42
0.0000000001
 43
0.0000000001
 44
0.00000001
 40
0.0
 40
0.0
 40
0.0
 40
0.0
 40
0.4982866875370903
 40
0.9313442970719951
 40
1.320434178224885
 40
1.682471897804688
 40
1.682471897804688
 40
1.682471897804688
 40
1.682471897804688
 10
1811.546167428139
 20
-178.640232454682
 30
0.0
 10
1811.713967376812
 20
-178.6593538784816
 30
0.0
 10
1812.027601132548
 20
-178.6950936031283
 30
0.0
 10
1812.396391747498
 20
-178.9585672518405
 30
0.0
 10
1812.646551029774
 20
-179.2756388939979
 30
0.0
 10
1812.705823321802
 20
-179.521654720652
 30
0.0
 10
1812.734392110139
 20
-179.640232454682
 30
0.0
 11
1811.546167428139
 21
-178.640232454682
 31
0.0
 11
1812.034249158639
 21
-178.7405611511195
 31
0.0
 11
1812.393150103139
 21
-178.9829018311819
 31
0.0
 11
1812.625592661264
 21
-179.2949297029944
 31
0.0
 11
1812.734392110139
 21
-179.640232454682
 31
0.0
  0
SPLINE
  5
588
330
50
100
AcDbEntity
  8
0
  6
Continuous
 62
     3
100
AcDbSpline
210
0.0
220
0.0
230
1.0
 70
     8
 71
     3
 72
    11
 73
     7
 74
     5
 42
0.0000000001
 43
0.0000000001
 44
0.00000001
 40
0.0
 40
0.0
 40
0.0
 40
0.0
 40
0.4982866875371132
 40
0.9313442970720816
 40
1.32043417822488
 40
1.682471897804575
 40
1.682471897804575
 40
1.682471897804575
 40
1.682471897804575
 10
1811.546167428139
 20
-170.640232454682
 30
0.0
 10
1811.713967376812
 20
-170.6211110308823
 30
0.0
 10
1812.027601132549
 20
-170.5853713062356
 30
0.0
 10
1812.396391747498
 20
-170.3218976575233
 30
0.0
 10
1812.646551029774
 20
-170.004826015366
 30
0.0
 10
1812.705823321801
 20
-169.7588101887121
 30
0.0
 10
1812.734392110139
 20
-169.640232454682
 30
0.0
 11
1811.546167428139
 21
-170.640232454682
 31
0.0
 11
1812.034249158639
 21
-170.5399037582444
 31
0.0
 11
1812.393150103139
 21
-170.2975630781819
 31
0.0
 11
1812.625592661264
 21
-169.9855352063695
 31
0.0
 11
1812.734392110139
 21
-169.640232454682
 31
0.0
  0
SPLINE
  5
589
330
50
100
AcDbEntity
  8
0
  6
Continuous
 62
     3
100
AcDbSpline
210
0.0
220
0.0
230
1.0
 70
     8
 71
     3
 72
    15
 73
    11
 74
     9
 42
0.0000000001
 43
0.0000000001
 44
0.00000001
 40
0.0
 40
0.0
 40
0.0
 40
0.0
 40
0.9137121868565755
 40
1.882103045636548
 40
2.891139468141184
 40
3.921889412804265
 40
4.953063718342383
 40
5.963267141961318
 40
6.933304798080588
 40
7.848820200631587
 40
7.848820200631587
 40
7.848820200631587
 40
7.848820200631587
 10
1806.342160938139
 20
-210.0895268146819
 30
0.0
 10
1806.647115456366
 20
-210.0730874429831
 30
0.0
 10
1807.275273683641
 20
-210.0392249291766
 30
0.0
 10
1808.207494563131
 20
-209.7613455876534
 30
0.0
 10
1809.102894326765
 20
-209.2978546616002
 30
0.0
 10
1809.903231338726
 20
-208.6474013394267
 30
0.0
 10
1810.552278610295
 20
-207.8454414361888
 30
0.0
 10
1811.014736652177
 20
-206.94831197863
 30
0.0
 10
1811.291972160178
 20
-206.0143480998063
 30
0.0
 10
1811.325756983646
 20
-205.3850447127846
 30
0.0
 10
1811.342160937974
 20
-205.0794914211141
 30
0.0
 11
1806.342160938139
 21
-210.0895268146819
 31
0.0
 11
1807.252006356375
 21
-210.0055549424537
 31
0.0
 11
1808.182634485897
 21
-209.7377637179702
 31
0.0
 11
1809.0779423989
 21
-209.2723840419462
 31
0.0
 11
1809.877694844024
 21
-208.6221214219685
 31
0.0
 11
1810.526653454966
 21
-207.8207643419555
 31
0.0
 11
1810.991102443434
 21
-206.9236589444676
 31
0.0
 11
1811.258356065953
 21
-205.9911630701927
 31
0.0
 11
1811.342160937974
 21
-205.0794914211141
 31
0.0
  0
SPLINE
  5
58A
330
50
100
AcDbEntity
  8
0
  6
Continuous
 62
     3
100
AcDbSpline
210
0.0
220
0.0
230
1.0
 70
     8
 71
     3
 72
    13
 73
     9
 74
     7
 42
0.0000000001
 43
0.0000000001
 44
0.00000001
 40
0.0
 40
0.0
 40
0.0
 40
0.0
 40
0.0942178267646855
 40
0.2187236797127012
 40
0.4649440134844692
 40
0.7685385090798016
 40
0.897435990491309
 40
1.028247506368797
 40
1.028247506368797
 40
1.028247506368797
 40
1.028247506368797
 10
1811.342160938139
 20
-201.639954413682
 30
0.0
 10
1811.373573271819
 20
-201.6396872708828
 30
0.0
 10
1811.446496002545
 20
-201.6390671073952
 30
0.0
 10
1811.601104039562
 20
-201.626936950258
 30
0.0
 10
1811.824059675348
 20
-201.5966536397976
 30
0.0
 10
1812.044319573903
 20
-201.5422757634067
 30
0.0
 10
1812.222060085075
 20
-201.4813977686119
 30
0.0
 10
1812.301931106113
 20
-201.4479500616307
 30
0.0
 10
1812.342160938139
 20
-201.431102954682
 30
0.0
 11
1811.342160938139
 21
-201.639954413682
 31
0.0
 11
1811.436362600177
 21
-201.6382092061095
 31
0.0
 11
1811.560551113336
 21
-201.6293254784159
 31
0.0
 11
1811.804415785666
 21
-201.5953479218233
 31
0.0
 11
1812.099096641996
 21
-201.5223218260179
 31
0.0
 11
1812.220944868943
 21
-201.4802793438836
 31
0.0
 11
1812.342160938139
 21
-201.431102954682
 31
0.0
  0
SPLINE
  5
58B
330
50
100
AcDbEntity
  8
0
  6
Continuous
 62
     3
100
AcDbSpline
210
0.0
220
0.0
230
1.0
 70
     8
 71
     3
 72
    13
 73
     9
 74
     7
 42
0.0000000001
 43
0.0000000001
 44
0.00000001
 40
0.0
 40
0.0
 40
0.0
 40
0.0
 40
0.0184757862905819
 40
0.0690723579880703
 40
0.1473554645438643
 40
0.2485997115964649
 40
0.3680480789679384
 40
0.5009364674290143
 40
0.5009364674290143
 40
0.5009364674290143
 40
0.5009364674290143
 10
1812.2318313372
 20
-199.1402324544894
 30
0.0
 10
1812.230102692352
 20
-199.1343065979741
 30
0.0
 10
1812.223640094556
 20
-199.1121525810257
 30
0.0
 10
1812.223046119719
 20
-199.0625371989173
 30
0.0
 10
1812.218247983256
 20
-198.9862117842576
 30
0.0
 10
1812.2162415979
 20
-198.8864586107271
 30
0.0
 10
1812.214265558952
 20
-198.7686513412489
 30
0.0
 10
1812.21407470431
 20
-198.6845322080513
 30
0.0
 10
1812.213974194317
 20
-198.640232454682
 30
0.0
 11
1812.2318313372
 21
-199.1402324544894
 31
0.0
 11
1812.227087867744
 21
-199.1223759661288
 31
0.0
 11
1812.222823629028
 21
-199.0719594079786
 31
0.0
 11
1812.219209381691
 21
-198.9937597788988
 31
0.0
 11
1812.216415886368
 21
-198.8925540777495
 31
0.0
 11
1812.214613903698
 21
-198.7731193033906
 31
0.0
 11
1812.213974194317
 21
-198.640232454682
 31
0.0
  0
SPLINE
  5
58C
330
50
100
AcDbEntity
  8
0
  6
Continuous
 62
     3
100
AcDbSpline
210
0.0
220
0.0
230
1.0
 70
     8
 71
     3
 72
    11
 73
     7
 74
     5
 42
0.0000000001
 43
0.0000000001
 44
0.00000001
 40
0.0
 40
0.0
 40
0.0
 40
0.0
 40
0.6835629293916961
 40
1.312056447255356
 40
1.911486295732884
 40
2.553987813295786
 40
2.553987813295786
 40
2.553987813295786
 40
2.553987813295786
 10
1773.612941280716
 20
-161.8768228042015
 30
0.0
 10
1773.775146443424
 20
-161.7151458718714
 30
0.0
 10
1774.086489145548
 20
-161.4048170750406
 30
0.0
 10
1774.39336446613
 20
-160.8386649724548
 30
0.0
 10
1774.588696869611
 20
-160.241068563939
 30
0.0
 10
1774.611416061687
 20
-159.825990422337
 30
0.0
 10
1774.623169622138
 20
-159.6112536476819
 30
0.0
 11
1773.612941280716
 21
-161.8768228042015
 31
0.0
 11
1774.072223726836
 21
-161.3705443105595
 31
0.0
 11
1774.379980485139
 21
-160.8225571941821
 31
0.0
 11
1774.559277126764
 21
-160.2505704307445
 31
0.0
 11
1774.623169622138
 21
-159.6112536476819
 31
0.0
  0
SPLINE
  5
58D
330
50
100
AcDbEntity
  8
0
  6
Continuous
 62
     3
100
AcDbSpline
210
0.0
220
0.0
230
1.0
 70
     8
 71
     3
 72
    15
 73
    11
 74
     9
 42
0.0000000001
 43
0.0000000001
 44
0.00000001
 40
0.0
 40
0.0
 40
0.0
 40
0.0
 40
0.2215712036752509
 40
0.4344639125846965
 40
0.6270637858885868
 40
0.7849906115549241
 40
0.9081738926755609
 40
0.9901814113579119
 40
1.018639777051062
 40
1.028258343253355
 40
1.028258343253355
 40
1.028258343253355
 40
1.028258343253355
 10
1812.342160938139
 20
-147.849361954682
 30
0.0
 10
1812.273584622592
 20
-147.8218037563074
 30
0.0
 10
1812.139117986724
 20
-147.7677667583084
 30
0.0
 10
1811.937461387843
 20
-147.7114154380922
 30
0.0
 10
1811.753391312169
 20
-147.6734423045419
 30
0.0
 10
1811.596657237157
 20
-147.6533183597146
 30
0.0
 10
1811.475930683813
 20
-147.6440325001624
 30
0.0
 10
1811.398080169794
 20
-147.6414157424422
 30
0.0
 10
1811.358059171737
 20
-147.6406165733204
 30
0.0
 10
1811.345367073277
 20
-147.6405318879481
 30
0.0
 10
1811.342160938139
 20
-147.640510495682
 30
0.0
 11
1812.342160938139
 21
-147.849361954682
 31
0.0
 11
1812.135066005236
 21
-147.7705870407567
 31
0.0
 11
1811.93036393989
 21
-147.712103111768
 31
0.0
 11
1811.741622979332
 21
-147.6737421810666
 31
0.0
 11
1811.585019212354
 21
-147.6533426116258
 31
0.0
 11
1811.462187508427
 21
-147.6440424364609
 31
0.0
 11
1811.380233057053
 21
-147.6410926872672
 31
0.0
 11
1811.351779212378
 21
-147.6405854386302
 31
0.0
 11
1811.342160938139
 21
-147.640510495682
 31
0.0
  0
SPLINE
  5
58E
330
50
100
AcDbEntity
  8
0
  6
Continuous
 62
     3
100
AcDbSpline
210
0.0
220
0.0
230
1.0
 70
     8
 71
     3
 72
    11
 73
     7
 74
     5
 42
0.0000000001
 43
0.0000000001
 44
0.00000001
 40
0.0
 40
0.0
 40
0.0
 40
0.0
 40
0.6425015175627834
 40
1.241931366040163
 40
1.870424883903797
 40
2.553987813295683
 40
2.553987813295683
 40
2.553987813295683
 40
2.553987813295683
 10
1774.623169622138
 20
-189.6692112616819
 30
0.0
 10
1774.611416061687
 20
-189.4544744870269
 30
0.0
 10
1774.588696869611
 20
-189.039396345425
 30
0.0
 10
1774.393364466129
 20
-188.4417999369091
 30
0.0
 10
1774.086489145548
 20
-187.8756478343236
 30
0.0
 10
1773.775146443424
 20
-187.5653190374926
 30
0.0
 10
1773.612941280716
 20
-187.4036421051623
 30
0.0
 11
1774.623169622138
 21
-189.6692112616819
 31
0.0
 11
1774.559277126764
 21
-189.0298944786194
 31
0.0
 11
1774.379980485139
 21
-188.457907715182
 31
0.0
 11
1774.072223726836
 21
-187.9099205988046
 31
0.0
 11
1773.612941280716
 21
-187.4036421051623
 31
0.0
  0
SPLINE
  5
58F
330
50
100
AcDbEntity
  8
0
  6
Continuous
 62
     3
100
AcDbSpline
210
0.0
220
0.0
230
1.0
 70
     8
 71
     3
 72
    15
 73
    11
 74
     9
 42
0.0000000001
 43
0.0000000001
 44
0.00000001
 40
0.0
 40
0.0
 40
0.0
 40
0.0
 40
0.7549739715121028
 40
1.575153274799514
 40
2.458168493413022
 40
3.392144330246609
 40
4.35632510826642
 40
5.323457792056948
 40
6.265095721352627
 40
7.157215617969324
 40
7.157215617969324
 40
7.157215617969324
 40
7.157215617969324
 10
1770.428249845139
 20
-207.8223320826818
 30
0.0
 10
1770.677988784355
 20
-207.7850071171513
 30
0.0
 10
1771.199036029418
 20
-207.7071335163311
 30
0.0
 10
1771.958914074862
 20
-207.3772684548169
 30
0.0
 10
1772.688520739609
 20
-206.8793304401599
 30
0.0
 10
1773.343659393935
 20
-206.21510354136
 30
0.0
 10
1773.883046803362
 20
-205.4207827218276
 30
0.0
 10
1774.281295491748
 20
-204.5460248217458
 30
0.0
 10
1774.537826437587
 20
-203.6425242336191
 30
0.0
 10
1774.591905890968
 20
-203.0326100528126
 30
0.0
 10
1774.618215448139
 20
-202.735887896682
 30
0.0
 11
1770.428249845139
 21
-207.8223320826818
 31
0.0
 11
1771.169625944632
 21
-207.6796885522958
 31
0.0
 11
1771.926669216934
 21
-207.3641262392679
 31
0.0
 11
1772.656784549388
 21
-206.867490077054
 31
0.0
 11
1773.314801129832
 21
-206.2046740817356
 31
0.0
 11
1773.858602116748
 21
-205.4084799726566
 31
0.0
 11
1774.26178320667
 21
-204.5293948591522
 31
0.0
 11
1774.512335325171
 21
-203.6217023860079
 31
0.0
 11
1774.618215448139
 21
-202.735887896682
 31
0.0
  0
SPLINE
  5
590
330
50
100
AcDbEntity
  8
0
  6
Continuous
 62
     3
100
AcDbSpline
210
0.0
220
0.0
230
1.0
 70
     8
 71
     3
 72
    11
 73
     7
 74
     5
 42
0.0000000001
 43
0.0000000001
 44
0.00000001
 40
0.0
 40
0.0
 40
0.0
 40
0.0
 40
1.939322108389941
 40
3.881062094645174
 40
5.824345003710914
 40
7.767394362995962
 40
7.767394362995962
 40
7.767394362995962
 40
7.767394362995962
 10
1769.191623525825
 20
-207.2923493744681
 30
0.0
 10
1769.842596854376
 20
-207.2153636582081
 30
0.0
 10
1771.145355121884
 20
-207.0612962426339
 30
0.0
 10
1772.787441592106
 20
-205.9079460003767
 30
0.0
 10
1773.939688990551
 20
-204.2637955605559
 30
0.0
 10
1774.093664689673
 20
-202.9592834363334
 30
0.0
 10
1774.170647912637
 20
-202.3070665716581
 30
0.0
 11
1769.191623525825
 21
-207.2923493744681
 31
0.0
 11
1771.09247065812
 21
-206.9079662066035
 31
0.0
 11
1772.705264119943
 21
-205.8266469088377
 31
0.0
 11
1773.786122402344
 21
-204.2116875167681
 31
0.0
 11
1774.170647912637
 21
-202.3070665716581
 31
0.0
  0
SPLINE
  5
591
330
50
100
AcDbEntity
  8
0
  6
Continuous
 62
     3
100
AcDbSpline
210
0.0
220
0.0
230
1.0
 70
     8
 71
     3
 72
    15
 73
    11
 74
     9
 42
0.0000000001
 43
0.0000000001
 44
0.00000001
 40
0.0
 40
0.0
 40
0.0
 40
0.0
 40
0.9155154029118138
 40
1.885553058666414
 40
2.895756483296106
 40
3.926930787715479
 40
4.957680731592228
 40
5.966717154790735
 40
6.935108013569826
 40
7.848820200427309
 40
7.848820200427309
 40
7.848820200427309
 40
7.848820200427309
 10
1811.3421609379
 20
-144.2009734882547
 30
0.0
 10
1811.325756983569
 20
-143.8954201964707
 30
0.0
 10
1811.291972160109
 20
-143.2661168094642
 30
0.0
 10
1811.014736652237
 20
-142.3321529301734
 30
0.0
 10
1810.552278609287
 20
-141.4350234734163
 30
0.0
 10
1809.903231338927
 20
-140.6330635695868
 30
0.0
 10
1809.102894326495
 20
-139.9826102486047
 30
0.0
 10
1808.207494563466
 20
-139.5191193215934
 30
0.0
 10
1807.275273683616
 20
-139.2412399802294
 30
0.0
 10
1806.647115456359
 20
-139.2073774663945
 30
0.0
 10
1806.342160938139
 20
-139.1909380946819
 30
0.0
 11
1811.3421609379
 21
-144.2009734882547
 31
0.0
 11
1811.258356065876
 21
-143.289301838814
 31
0.0
 11
1810.991102443434
 21
-142.3568059648964
 31
0.0
 11
1810.526653453934
 21
-141.4597005668045
 31
0.0
 11
1809.877694844024
 21
-140.6583434873955
 31
0.0
 11
1809.077942399271
 21
-140.0080808682073
 31
0.0
 11
1808.182634485897
 21
-139.5427011913936
 31
0.0
 11
1807.252006356376
 21
-139.2749099669102
 31
0.0
 11
1806.342160938139
 21
-139.1909380946819
 31
0.0
  0
SPLINE
  5
592
330
50
100
AcDbEntity
  8
0
  6
Continuous
 62
     3
100
AcDbSpline
210
0.0
220
0.0
230
1.0
 70
     8
 71
     3
 72
    15
 73
    11
 74
     9
 42
0.0000000001
 43
0.0000000001
 44
0.00000001
 40
0.0
 40
0.0
 40
0.0
 40
0.0
 40
0.8921198960871108
 40
1.833757825934012
 40
2.800890509927211
 40
3.765071287762202
 40
4.699047124595628
 40
5.582062343209136
 40
6.402241646954226
 40
7.157215618008513
 40
7.157215618008513
 40
7.157215618008513
 40
7.157215618008513
 10
1774.618215448139
 20
-146.5445770126821
 30
0.0
 10
1774.591905891068
 20
-146.247854856715
 30
0.0
 10
1774.53782643786
 20
-145.6379406758754
 30
0.0
 10
1774.281295491702
 20
-144.7344400877571
 30
0.0
 10
1773.883046803503
 20
-143.8596821873855
 30
0.0
 10
1773.343659393847
 20
-143.0653613679858
 30
0.0
 10
1772.68852073962
 20
-142.4011344691978
 30
0.0
 10
1771.958914074735
 20
-141.9031964544617
 30
0.0
 10
1771.199036029266
 20
-141.5733313929842
 30
0.0
 10
1770.677988784203
 20
-141.4954577921815
 30
0.0
 10
1770.428249845139
 20
-141.458132826682
 30
0.0
 11
1774.618215448139
 21
-146.5445770126821
 31
0.0
 11
1774.512335325417
 21
-145.6587625238602
 31
0.0
 11
1774.26178320667
 21
-144.7510700502118
 31
0.0
 11
1773.858602116743
 21
-143.8719849364866
 31
0.0
 11
1773.314801129832
 21
-143.0757908276282
 31
0.0
 11
1772.656784549388
 21
-142.4129748323101
 31
0.0
 11
1771.926669216934
 21
-141.9163386700961
 31
0.0
 11
1771.169625944191
 21
-141.6007763569364
 31
0.0
 11
1770.428249845139
 21
-141.458132826682
 31
0.0
  0
SPLINE
  5
593
330
50
100
AcDbEntity
  8
0
  6
Continuous
 62
     3
100
AcDbSpline
210
0.0
220
0.0
230
1.0
 70
     8
 71
     3
 72
     9
 73
     5
 74
     3
 42
0.0000000001
 43
0.0000000001
 44
0.00000001
 40
0.0
 40
0.0
 40
0.0
 40
0.0
 40
3.430967506259469
 40
7.930364134637022
 40
7.930364134637022
 40
7.930364134637022
 40
7.930364134637022
 10
1713.461551277696
 20
-205.0626041262084
 30
0.0
 10
1713.547572893426
 20
-203.9218534798996
 30
0.0
 10
1713.746403903904
 20
-201.2851138443459
 30
0.0
 10
1713.758678907208
 20
-198.6406205719795
 30
0.0
 10
1713.765643292139
 20
-197.140232454682
 30
0.0
 11
1713.461551277696
 21
-205.0626041262084
 31
0.0
 11
1713.684697575797
 21
-201.6389009032856
 31
0.0
 11
1713.765643292139
 21
-197.140232454682
 31
0.0
  0
SPLINE
  5
594
330
50
100
AcDbEntity
  8
0
  6
Continuous
 62
     3
100
AcDbSpline
210
0.0
220
0.0
230
1.0
 70
     8
 71
     3
 72
     9
 73
     5
 74
     3
 42
0.0000000001
 43
0.0000000001
 44
0.00000001
 40
0.0
 40
0.0
 40
0.0
 40
0.0
 40
3.500879390097786
 40
8.377285749951183
 40
8.377285749951183
 40
8.377285749951183
 40
8.377285749951183
 10
1713.40850043404
 20
-188.773632189682
 30
0.0
 10
1713.508829983163
 20
-189.9367161044545
 30
0.0
 10
1713.748909462775
 20
-192.719870055082
 30
0.0
 10
1713.759486445333
 20
-195.5138567142707
 30
0.0
 10
1713.765643292139
 20
-197.140232454682
 30
0.0
 11
1713.40850043404
 21
-188.773632189682
 31
0.0
 11
1713.669408403894
 21
-192.2647757752823
 31
0.0
 11
1713.765643292139
 21
-197.140232454682
 31
0.0
  0
SPLINE
  5
595
330
50
100
AcDbEntity
  8
0
  6
Continuous
 62
     3
100
AcDbSpline
210
0.0
220
0.0
230
1.0
 70
     8
 71
     3
 72
     9
 73
     5
 74
     3
 42
0.0000000001
 43
0.0000000001
 44
0.00000001
 40
0.0
 40
0.0
 40
0.0
 40
0.0
 40
0.1974345858052012
 40
0.3793403395462176
 40
0.3793403395462176
 40
0.3793403395462176
 40
0.3793403395462176
 10
1713.461551277696
 20
-205.0626041262084
 30
0.0
 10
1713.453528223518
 20
-205.1279273907677
 30
0.0
 10
1713.438113152834
 20
-205.2534360459869
 30
0.0
 10
1713.425618932602
 20
-205.379268567833
 30
0.0
 10
1713.419627556753
 20
-205.4396092628378
 30
0.0
 11
1713.461551277696
 21
-205.0626041262084
 31
0.0
 11
1713.438273336027
 21
-205.2586616511946
 31
0.0
 11
1713.419627556753
 21
-205.4396092628378
 31
0.0
  0
SPLINE
  5
596
330
50
100
AcDbEntity
  8
0
  6
Continuous
 62
     3
100
AcDbSpline
210
0.0
220
0.0
230
1.0
 70
     8
 71
     3
 72
    13
 73
     9
 74
     7
 42
0.0000000001
 43
0.0000000001
 44
0.00000001
 40
0.0
 40
0.0
 40
0.0
 40
0.0
 40
0.1215634364173338
 40
0.2849135560837037
 40
0.5197135900175545
 40
0.8127382264284577
 40
0.9479815850453714
 40
1.086042785086351
 40
1.086042785086351
 40
1.086042785086351
 40
1.086042785086351
 10
1946.133031438555
 20
-309.7356070182146
 30
0.0
 10
1946.174050668176
 20
-309.7232205690153
 30
0.0
 10
1946.270189235196
 20
-309.6941899049224
 30
0.0
 10
1946.320155848361
 20
-309.506795154235
 30
0.0
 10
1946.338802597077
 20
-309.2848567401302
 30
0.0
 10
1946.341199459145
 20
-309.0612152027101
 30
0.0
 10
1946.341921545071
 20
-308.8727789512221
 30
0.0
 10
1946.341895868305
 20
-308.7816442035721
 30
0.0
 10
1946.341882897555
 20
-308.7356070182146
 30
0.0
 11
1946.133031438555
 21
-309.7356070182146
 31
0.0
 11
1946.243574190926
 21
-309.6850306504937
 31
0.0
 11
1946.30865121217
 21
-309.535203273486
 31
0.0
 11
1946.334791482959
 21
-309.3018628736868
 31
0.0
 11
1946.34130070597
 21
-309.0089105438454
 31
0.0
 11
1946.341826334107
 21
-308.8736682066686
 31
0.0
 11
1946.341882897555
 21
-308.7356070182146
 31
0.0
  0
SPLINE
  5
597
330
50
100
AcDbEntity
  8
0
  6
Continuous
 62
     3
100
AcDbSpline
210
0.0
220
0.0
230
1.0
 70
     8
 71
     3
 72
    13
 73
     9
 74
     7
 42
0.0000000001
 43
0.0000000001
 44
0.00000001
 40
0.0
 40
0.0
 40
0.0
 40
0.0
 40
0.330310662014628
 40
0.623939516919431
 40
0.8446310280977537
 40
0.9924297327935694
 40
1.040123808570394
 40
1.089817894492657
 40
1.089817894492657
 40
1.089817894492657
 40
1.089817894492657
 10
1893.342438979555
 20
-308.7356070182146
 30
0.0
 10
1893.342153283361
 20
-308.8456043430659
 30
0.0
 10
1893.341613618235
 20
-309.0533835207394
 30
0.0
 10
1893.347920955775
 20
-309.3361922497411
 30
0.0
 10
1893.371043401648
 20
-309.5529954605854
 30
0.0
 10
1893.42794876034
 20
-309.6910698445041
 30
0.0
 10
1893.501925340578
 20
-309.7321529674335
 30
0.0
 10
1893.534611651957
 20
-309.7344400120049
 30
0.0
 10
1893.551290438555
 20
-309.7356070182146
 30
0.0
 11
1893.342438979555
 21
-308.7356070182146
 31
0.0
 11
1893.343038952446
 21
-309.0659171353365
 31
0.0
 11
1893.353067914821
 21
-309.3593746694813
 31
0.0
 11
1893.387045471414
 21
-309.5774349105942
 31
0.0
 11
1893.460071567219
 21
-309.7059325620949
 31
0.0
 11
1893.502114049353
 21
-309.7284526544613
 31
0.0
 11
1893.551290438555
 21
-309.7356070182146
 31
0.0
  0
SPLINE
  5
598
330
50
100
AcDbEntity
  8
0
  6
Continuous
 62
     3
100
AcDbSpline
210
0.0
220
0.0
230
1.0
 70
     8
 71
     3
 72
     9
 73
     5
 74
     3
 42
0.0000000001
 43
0.0000000001
 44
0.00000001
 40
0.0
 40
0.0
 40
0.0
 40
0.0
 40
0.3698397816448237
 40
0.7473143976645781
 40
0.7473143976645781
 40
0.7473143976645781
 40
0.7473143976645781
 10
1713.461464818989
 20
-308.0641498104642
 30
0.0
 10
1713.453322912456
 20
-308.1871640001567
 30
0.0
 10
1713.436871020911
 20
-308.435731838547
 30
0.0
 10
1713.425414393689
 20
-308.6845801175307
 30
0.0
 10
1713.419627557553
 20
-308.8102754190666
 30
0.0
 11
1713.461464818989
 21
-308.0641498104642
 31
0.0
 11
1713.438262529101
 21
-308.4332610644663
 31
0.0
 11
1713.419627557553
 21
-308.8102754190666
 31
0.0
  0
SPLINE
  5
599
330
50
100
AcDbEntity
  8
0
  6
Continuous
 62
     3
100
AcDbSpline
210
0.0
220
0.0
230
1.0
 70
     8
 71
     3
 72
     9
 73
     5
 74
     3
 42
0.0000000001
 43
0.0000000001
 44
0.00000001
 40
0.0
 40
0.0
 40
0.0
 40
0.0
 40
0.369839781644767
 40
0.7473143976645669
 40
0.7473143976645669
 40
0.7473143976645669
 40
0.7473143976645669
 10
2126.22285705812
 20
-308.0641498104641
 30
0.0
 10
2126.230998964653
 20
-308.1871640001565
 30
0.0
 10
2126.247450856198
 20
-308.4357318385469
 30
0.0
 10
2126.25890748342
 20
-308.6845801175307
 30
0.0
 10
2126.264694319556
 20
-308.8102754190665
 30
0.0
 11
2126.22285705812
 21
-308.0641498104641
 31
0.0
 11
2126.246059348009
 21
-308.4332610644661
 31
0.0
 11
2126.264694319556
 21
-308.8102754190665
 31
0.0
  0
ARC
  5
59A
330
50
100
AcDbEntity
  8
1
  6
Continuous
 62
     3
100
AcDbCircle
 10
1784.565048647202
 20
-201.6213806410295
 30
0.0
 40
1.0
100
AcDbArc
 50
180.0
 51
-90.0
  0
ARC
  5
59B
330
50
100
AcDbEntity
  8
1
  6
Continuous
 62
     3
100
AcDbCircle
 10
1609.187289674977
 20
-258.7356070182146
 30
0.0
 40
4.999999999999972
100
AcDbArc
 50
90.0
 51
176.9332829850908
  0
ARC
  5
59C
330
50
100
AcDbEntity
  8
1
  6
Continuous
 62
     3
100
AcDbCircle
 10
1664.708151407949
 20
-258.7356070182146
 30
0.0
 40
5.000000000000257
100
AcDbArc
 50
3.06683681132603
 51
90.0
  0
ARC
  5
59D
330
50
100
AcDbEntity
  8
1
  6
Continuous
 62
     3
100
AcDbCircle
 10
1814.807084204349
 20
-308.73560701819
 30
0.0
 40
0.9999999999992596
100
AcDbArc
 50
-177.9545915111416
 51
-89.9999999994789
  0
ARC
  5
59E
330
50
100
AcDbEntity
  8
1
  6
Continuous
 62
     3
100
AcDbCircle
 10
1720.342160938198
 20
-309.2356070181857
 30
0.0
 40
0.5
100
AcDbArc
 50
180.0
 51
-90.0
  0
ARC
  5
59F
330
50
100
AcDbEntity
  8
1
  6
Continuous
 62
     3
100
AcDbCircle
 10
1807.029812493203
 20
-266.7356070181854
 30
0.0
 40
5.000000000000206
100
AcDbArc
 50
2.41584238145287
 51
90.0
  0
ARC
  5
5A0
330
50
100
AcDbEntity
  8
1
  6
Continuous
 62
     3
100
AcDbCircle
 10
1721.997756955668
 20
-258.7356070181854
 30
0.0
 40
5.000000000000028
100
AcDbArc
 50
90.0
 51
175.9143832204275
  0
ARC
  5
5A1
330
50
100
AcDbEntity
  8
1
  6
Continuous
 62
     3
100
AcDbCircle
 10
2117.686564921441
 20
-258.7356070181854
 30
0.0
 40
4.999999999999663
100
AcDbArc
 50
4.08561677957251
 51
90.0
  0
ARC
  5
5A2
330
50
100
AcDbEntity
  8
1
  6
Continuous
 62
     3
100
AcDbCircle
 10
2032.654509383906
 20
-266.7356070181854
 30
0.0
 40
5.0
100
AcDbArc
 50
90.0
 51
177.5841576185454
  0
ARC
  5
5A3
330
50
100
AcDbEntity
  8
1
  6
Continuous
 62
     3
100
AcDbCircle
 10
2119.342160938912
 20
-309.2356070181856
 30
0.0
 40
0.5
100
AcDbArc
 50
-90.0
 51
0.0
  0
ARC
  5
5A4
330
50
100
AcDbEntity
  8
1
  6
Continuous
 62
     3
100
AcDbCircle
 10
2024.87723767276
 20
-308.73560701819
 30
0.0
 40
1.0
100
AcDbArc
 50
-90.00000000045597
 51
-2.04540848884956
  0
MTEXT
  5
5A6
330
50
100
AcDbEntity
  8
1
 62
     3
100
AcDbMText
 10
1808.842160938139
 20
-184.6402324546863
 30
0.0
 40
3.5
 41
0.0
 71
     9
 72
     1
  1
O
  7
CONVERTER_3
 73
     1
 44
0.84033613445378
  0
ENDBLK
  5
59
330
50
100
AcDbEntity
  8
0
100
AcDbBlockEnd
  0
BLOCK
  5
5B
330
5A
100
AcDbEntity
  8
0
100
AcDbBlockBegin
  2
_3
 70
     0
 71
     0
 10
1806.432343363451
 20
-407.5356070182148
 30
0.0
  3
_3
  1

  0
LINE
  5
5A7
330
5A
100
AcDbEntity
  8
1
  6
Continuous
 62
     3
100
AcDbLine
 10
2012.342160938555
 20
-366.6356070182147
 30
0.0
 11
2014.016476719205
 21
-363.7356070182149
 31
0.0
  0
LINE
  5
5A8
330
5A
100
AcDbEntity
  8
1
  6
Continuous
 62
     3
100
AcDbLine
 10
2014.016476719205
 20
-363.7356070182149
 30
0.0
 11
2028.667845157905
 21
-363.7356070182149
 31
0.0
  0
LINE
  5
5A9
330
5A
100
AcDbEntity
  8
1
  6
Continuous
 62
     3
100
AcDbLine
 10
2030.342160938555
 20
-404.6356070182147
 30
0.0
 11
2028.667845157905
 21
-407.5356070182148
 31
0.0
  0
LINE
  5
5AA
330
5A
100
AcDbEntity
  8
1
  6
Continuous
 62
     3
100
AcDbLine
 10
2012.342160938555
 20
-404.6356070182147
 30
0.0
 11
2012.342160938555
 21
-366.6356070182147
 31
0.0
  0
LINE
  5
5AB
330
5A
100
AcDbEntity
  8
1
  6
Continuous
 62
     3
100
AcDbLine
 10
2030.342160938555
 20
-366.6356070182147
 30
0.0
 11
2030.342160938555
 21
-404.6356070182147
 31
0.0
  0
LINE
  5
5AC
330
5A
100
AcDbEntity
  8
1
  6
DASH_CENTER
 62
     1
100
AcDbLine
 10
2033.251978513659
 20
-385.6356070182147
 30
0.0
 11
2009.072936962406
 21
-385.6356070182147
 31
0.0
  0
LINE
  5
5AD
330
5A
100
AcDbEntity
  8
1
  6
Continuous
 62
     3
100
AcDbLine
 10
2028.667845157905
 20
-407.5356070182148
 30
0.0
 11
2014.016476719205
 21
-407.5356070182148
 31
0.0
  0
LINE
  5
5AE
330
5A
100
AcDbEntity
  8
1
  6
Continuous
 62
     3
100
AcDbLine
 10
2014.016476719205
 20
-407.5356070182148
 30
0.0
 11
2012.342160938555
 21
-404.6356070182147
 31
0.0
  0
LINE
  5
5AF
330
5A
100
AcDbEntity
  8
1
  6
Continuous
 62
     3
100
AcDbLine
 10
2028.667845157905
 20
-363.7356070182149
 30
0.0
 11
2030.342160938555
 21
-366.6356070182147
 31
0.0
  0
LINE
  5
5B0
330
5A
100
AcDbEntity
  8
1
  6
Continuous
 62
     3
100
AcDbLine
 10
2014.016476719205
 20
-374.6264288421178
 30
0.0
 11
2028.667845157905
 21
-374.6264288421178
 31
0.0
  0
LINE
  5
5B1
330
5A
100
AcDbEntity
  8
1
  6
Continuous
 62
     3
100
AcDbLine
 10
2028.667845157905
 20
-396.6447851943118
 30
0.0
 11
2014.016476719205
 21
-396.6447851943118
 31
0.0
  0
LINE
  5
5B2
330
5A
100
AcDbEntity
  8
1
  6
Continuous
 62
     3
100
AcDbLine
 10
1825.667845157905
 20
-396.6447851943118
 30
0.0
 11
1811.016476719205
 21
-396.6447851943118
 31
0.0
  0
LINE
  5
5B3
330
5A
100
AcDbEntity
  8
1
  6
Continuous
 62
     3
100
AcDbLine
 10
1811.016476719205
 20
-374.6264288421178
 30
0.0
 11
1825.667845157905
 21
-374.6264288421178
 31
0.0
  0
LINE
  5
5B4
330
5A
100
AcDbEntity
  8
1
  6
Continuous
 62
     3
100
AcDbLine
 10
1809.342160938555
 20
-366.6356070182147
 30
0.0
 11
1811.016476719205
 21
-363.7356070182149
 31
0.0
  0
LINE
  5
5B5
330
5A
100
AcDbEntity
  8
1
  6
Continuous
 62
     3
100
AcDbLine
 10
1827.342160938555
 20
-404.6356070182147
 30
0.0
 11
1825.667845157905
 21
-407.5356070182148
 31
0.0
  0
LINE
  5
5B6
330
5A
100
AcDbEntity
  8
1
  6
Continuous
 62
     3
100
AcDbLine
 10
1825.667845157905
 20
-407.5356070182148
 30
0.0
 11
1811.016476719205
 21
-407.5356070182148
 31
0.0
  0
LINE
  5
5B7
330
5A
100
AcDbEntity
  8
1
  6
DASH_CENTER
 62
     1
100
AcDbLine
 10
1830.611384914704
 20
-385.6356070182147
 30
0.0
 11
1806.432343363451
 21
-385.6356070182147
 31
0.0
  0
LINE
  5
5B8
330
5A
100
AcDbEntity
  8
1
  6
Continuous
 62
     3
100
AcDbLine
 10
1809.342160938555
 20
-404.6356070182147
 30
0.0
 11
1809.342160938555
 21
-366.6356070182147
 31
0.0
  0
LINE
  5
5B9
330
5A
100
AcDbEntity
  8
1
  6
Continuous
 62
     3
100
AcDbLine
 10
1827.342160938555
 20
-366.6356070182147
 30
0.0
 11
1827.342160938555
 21
-404.6356070182147
 31
0.0
  0
LINE
  5
5BA
330
5A
100
AcDbEntity
  8
1
  6
Continuous
 62
     3
100
AcDbLine
 10
1811.016476719205
 20
-407.5356070182148
 30
0.0
 11
1809.342160938555
 21
-404.6356070182147
 31
0.0
  0
LINE
  5
5BB
330
5A
100
AcDbEntity
  8
1
  6
Continuous
 62
     3
100
AcDbLine
 10
1811.016476719205
 20
-363.7356070182149
 30
0.0
 11
1825.667845157905
 21
-363.7356070182149
 31
0.0
  0
LINE
  5
5BC
330
5A
100
AcDbEntity
  8
1
  6
Continuous
 62
     3
100
AcDbLine
 10
1825.667845157905
 20
-363.7356070182149
 30
0.0
 11
1827.342160938555
 21
-366.6356070182147
 31
0.0
  0
LINE
  5
5BD
330
5A
100
AcDbEntity
  8
1
  6
Continuous
 62
     3
100
AcDbLine
 10
1825.667845157905
 20
-152.7402324546829
 30
0.0
 11
1827.342160938555
 21
-155.6402324546827
 31
0.0
  0
LINE
  5
5BE
330
5A
100
AcDbEntity
  8
1
  6
Continuous
 62
     3
100
AcDbLine
 10
1827.342160938555
 20
-155.6402324546827
 30
0.0
 11
1827.342160938555
 21
-193.6402324546827
 31
0.0
  0
LINE
  5
5BF
330
5A
100
AcDbEntity
  8
1
  6
Continuous
 62
     3
100
AcDbLine
 10
1825.667845157905
 20
-196.5402324546828
 30
0.0
 11
1815.342160938139
 21
-196.5402324546828
 31
0.0
  0
LINE
  5
5C0
330
5A
100
AcDbEntity
  8
1
  6
Continuous
 62
     3
100
AcDbLine
 10
1827.342160938555
 20
-193.6402324546827
 30
0.0
 11
1825.667845157905
 21
-196.5402324546828
 31
0.0
  0
LINE
  5
5C1
330
5A
100
AcDbEntity
  8
1
  6
Continuous
 62
     3
100
AcDbLine
 10
1815.342160938139
 20
-152.7402324546829
 30
0.0
 11
1825.667845157905
 21
-152.7402324546829
 31
0.0
  0
LINE
  5
5C2
330
5A
100
AcDbEntity
  8
1
  6
Continuous
 62
     3
100
AcDbLine
 10
1825.667845157905
 20
-174.6402324546827
 30
0.0
 11
1815.342160938139
 21
-174.6402324546827
 31
0.0
  0
ARC
  5
5C3
330
5A
100
AcDbEntity
  8
1
  6
Continuous
 62
     3
100
AcDbCircle
 10
2049.373806605254
 20
-385.6356070182147
 30
0.0
 40
37.03164566669874
100
AcDbArc
 50
162.7050280735203
 51
-162.7050280735202
  0
ARC
  5
5C4
330
5A
100
AcDbEntity
  8
1
  6
Continuous
 62
     3
100
AcDbCircle
 10
2022.034428582576
 20
-402.0901961062633
 30
0.0
 40
9.692267644021001
100
AcDbArc
 50
145.8175209737212
 51
180.0
  0
ARC
  5
5C5
330
5A
100
AcDbEntity
  8
1
  6
Continuous
 62
     3
100
AcDbCircle
 10
2022.034428582576
 20
-369.1810179301663
 30
0.0
 40
9.692267644021058
100
AcDbArc
 50
180.0
 51
-145.8175209737215
  0
ARC
  5
5C6
330
5A
100
AcDbEntity
  8
1
  6
Continuous
 62
     3
100
AcDbCircle
 10
2020.649893294535
 20
-369.1810179301663
 30
0.0
 40
9.692267644020028
100
AcDbArc
 50
-34.18247902628233
 51
0.0
  0
ARC
  5
5C7
330
5A
100
AcDbEntity
  8
1
  6
Continuous
 62
     3
100
AcDbCircle
 10
1993.310515271856
 20
-385.6356070182147
 30
0.0
 40
37.03164566669899
100
AcDbArc
 50
-17.29497192647973
 51
17.29497192647956
  0
ARC
  5
5C8
330
5A
100
AcDbEntity
  8
1
  6
Continuous
 62
     3
100
AcDbCircle
 10
2020.649893294535
 20
-402.0901961062633
 30
0.0
 40
9.692267644019921
100
AcDbArc
 50
0.0
 51
34.1824790262826
  0
ARC
  5
5C9
330
5A
100
AcDbEntity
  8
1
  6
Continuous
 62
     3
100
AcDbCircle
 10
1819.034428582575
 20
-402.0901961062633
 30
0.0
 40
9.69226764402006
100
AcDbArc
 50
145.8175209737174
 51
180.0
  0
ARC
  5
5CA
330
5A
100
AcDbEntity
  8
1
  6
Continuous
 62
     3
100
AcDbCircle
 10
1846.373806605254
 20
-385.6356070182147
 30
0.0
 40
37.03164566669896
100
AcDbArc
 50
162.7050280735205
 51
-162.7050280735203
  0
ARC
  5
5CB
330
5A
100
AcDbEntity
  8
1
  6
Continuous
 62
     3
100
AcDbCircle
 10
1819.034428582575
 20
-369.1810179301663
 30
0.0
 40
9.692267644019921
100
AcDbArc
 50
180.0
 51
-145.8175209737177
  0
ARC
  5
5CC
330
5A
100
AcDbEntity
  8
1
  6
Continuous
 62
     3
100
AcDbCircle
 10
1817.649893294534
 20
-369.1810179301663
 30
0.0
 40
9.692267644020969
100
AcDbArc
 50
-34.18247902627855
 51
0.0
  0
ARC
  5
5CD
330
5A
100
AcDbEntity
  8
1
  6
Continuous
 62
     3
100
AcDbCircle
 10
1817.649893294534
 20
-402.0901961062633
 30
0.0
 40
9.692267644021058
100
AcDbArc
 50
0.0
 51
34.18247902627883
  0
ARC
  5
5CE
330
5A
100
AcDbEntity
  8
1
  6
Continuous
 62
     3
100
AcDbCircle
 10
1790.310515271856
 20
-385.6356070182147
 30
0.0
 40
37.03164566669899
100
AcDbArc
 50
-17.29497192647973
 51
17.29497192647956
  0
ARC
  5
5CF
330
5A
100
AcDbEntity
  8
1
  6
Continuous
 62
     3
100
AcDbCircle
 10
1790.698585469865
 20
-163.6902324546828
 30
0.0
 40
36.64357546868995
100
AcDbArc
 50
-17.3870166351116
 51
0.0
  0
ARC
  5
5D0
330
5A
100
AcDbEntity
  8
1
  6
Continuous
 62
     3
100
AcDbCircle
 10
1790.698585469865
 20
-185.5902324546827
 30
0.0
 40
36.64357546868996
100
AcDbArc
 50
0.0
 51
17.38701663511181
  0
ENDBLK
  5
5C
330
5A
100
AcDbEntity
  8
0
100
AcDbBlockEnd
  0
BLOCK
  5
5E
330
5D
100
AcDbEntity
  8
0
100
AcDbBlockBegin
  2
_4
 70
     0
 71
     0
 10
1811.008509859631
 20
-399.1356070182147
 30
0.0
  3
_4
  1

  0
LINE
  5
5D1
330
5D
100
AcDbEntity
  8
1
  6
DOT_CENTER
 62
     1
100
AcDbLine
 10
2028.675812017479
 20
-385.6356070182147
 30
0.0
 11
1980.845433711226
 21
-385.6356070182147
 31
0.0
  0
LINE
  5
5D2
330
5D
100
AcDbEntity
  8
1
  6
Continuous
 62
     3
100
AcDbLine
 10
2001.342160938555
 20
-399.1356070182147
 30
0.0
 11
1987.842160938555
 21
-398.6356070182147
 31
0.0
  0
LINE
  5
5D3
330
5D
100
AcDbEntity
  8
1
  6
Continuous
 62
     3
100
AcDbLine
 10
1986.842160938555
 20
-373.6356070182147
 30
0.0
 11
1986.842160938555
 21
-397.6356070182147
 31
0.0
  0
LINE
  5
5D4
330
5D
100
AcDbEntity
  8
1
  6
Continuous
 62
     3
100
AcDbLine
 10
1987.842160938555
 20
-398.6356070182147
 30
0.0
 11
1986.842160938555
 21
-397.6356070182147
 31
0.0
  0
LINE
  5
5D5
330
5D
100
AcDbEntity
  8
1
  6
Continuous
 62
     3
100
AcDbLine
 10
1986.842160938555
 20
-373.6356070182147
 30
0.0
 11
1987.842160938555
 21
-372.6356070182147
 31
0.0
  0
LINE
  5
5D6
330
5D
100
AcDbEntity
  8
1
  6
Continuous
 62
     1
100
AcDbLine
 10
2001.342160938555
 20
-398.1356070182147
 30
0.0
 11
1986.842160938555
 21
-397.6356070182147
 31
0.0
  0
LINE
  5
5D7
330
5D
100
AcDbEntity
  8
1
  6
Continuous
 62
     1
100
AcDbLine
 10
2002.342160938555
 20
-399.1356070182147
 30
0.0
 11
2001.342160938555
 21
-398.1356070182147
 31
0.0
  0
LINE
  5
5D8
330
5D
100
AcDbEntity
  8
1
  6
Continuous
 62
     3
100
AcDbLine
 10
2012.342160938555
 20
-399.1356070182147
 30
0.0
 11
2002.342160938555
 21
-399.1356070182147
 31
0.0
  0
LINE
  5
5D9
330
5D
100
AcDbEntity
  8
1
  6
Continuous
 62
     3
100
AcDbLine
 10
2001.342160938555
 20
-399.1356070182147
 30
0.0
 11
2001.342160938555
 21
-398.1356070182147
 31
0.0
  0
LINE
  5
5DA
330
5D
100
AcDbEntity
  8
1
  6
Continuous
 62
     3
100
AcDbLine
 10
2002.342160938555
 20
-399.1356070182147
 30
0.0
 11
2001.342160938555
 21
-399.1356070182147
 31
0.0
  0
LINE
  5
5DB
330
5D
100
AcDbEntity
  8
1
  6
Continuous
 62
     1
100
AcDbLine
 10
1986.842160938555
 20
-373.6356070182147
 30
0.0
 11
2001.342160938555
 21
-373.1356070182147
 31
0.0
  0
LINE
  5
5DC
330
5D
100
AcDbEntity
  8
1
  6
Continuous
 62
     3
100
AcDbLine
 10
2001.342160938555
 20
-373.1356070182147
 30
0.0
 11
2001.342160938555
 21
-372.1356070182147
 31
0.0
  0
LINE
  5
5DD
330
5D
100
AcDbEntity
  8
1
  6
Continuous
 62
     1
100
AcDbLine
 10
2001.342160938555
 20
-373.1356070182147
 30
0.0
 11
2002.342160938555
 21
-372.1356070182147
 31
0.0
  0
LINE
  5
5DE
330
5D
100
AcDbEntity
  8
1
  6
Continuous
 62
     3
100
AcDbLine
 10
1987.842160938555
 20
-372.6356070182147
 30
0.0
 11
2001.342160938555
 21
-372.1356070182147
 31
0.0
  0
LINE
  5
5DF
330
5D
100
AcDbEntity
  8
1
  6
Continuous
 62
     3
100
AcDbLine
 10
2001.342160938555
 20
-372.1356070182147
 30
0.0
 11
2012.342160938555
 21
-372.1356070182147
 31
0.0
  0
LINE
  5
5E0
330
5D
100
AcDbEntity
  8
1
  6
Continuous
 62
     3
100
AcDbLine
 10
2001.342160938555
 20
-398.1356070182147
 30
0.0
 11
2001.342160938555
 21
-373.1356070182147
 31
0.0
  0
LINE
  5
5E1
330
5D
100
AcDbEntity
  8
1
  6
Continuous
 62
     3
100
AcDbLine
 10
1838.342160938555
 20
-373.1356070182147
 30
0.0
 11
1838.342160938555
 21
-398.1356070182147
 31
0.0
  0
LINE
  5
5E2
330
5D
100
AcDbEntity
  8
1
  6
Continuous
 62
     3
100
AcDbLine
 10
1827.342160938555
 20
-372.1356070182147
 30
0.0
 11
1838.342160938555
 21
-372.1356070182147
 31
0.0
  0
LINE
  5
5E3
330
5D
100
AcDbEntity
  8
1
  6
Continuous
 62
     3
100
AcDbLine
 10
1838.342160938555
 20
-372.1356070182147
 30
0.0
 11
1851.842160938555
 21
-372.6356070182147
 31
0.0
  0
LINE
  5
5E4
330
5D
100
AcDbEntity
  8
1
  6
Continuous
 62
     1
100
AcDbLine
 10
1837.342160938555
 20
-372.1356070182147
 30
0.0
 11
1838.342160938555
 21
-373.1356070182147
 31
0.0
  0
LINE
  5
5E5
330
5D
100
AcDbEntity
  8
1
  6
Continuous
 62
     3
100
AcDbLine
 10
1838.342160938555
 20
-372.1356070182147
 30
0.0
 11
1838.342160938555
 21
-373.1356070182147
 31
0.0
  0
LINE
  5
5E6
330
5D
100
AcDbEntity
  8
1
  6
Continuous
 62
     1
100
AcDbLine
 10
1838.342160938555
 20
-373.1356070182147
 30
0.0
 11
1852.842160938555
 21
-373.6356070182147
 31
0.0
  0
LINE
  5
5E7
330
5D
100
AcDbEntity
  8
1
  6
Continuous
 62
     3
100
AcDbLine
 10
1838.342160938555
 20
-399.1356070182147
 30
0.0
 11
1837.342160938555
 21
-399.1356070182147
 31
0.0
  0
LINE
  5
5E8
330
5D
100
AcDbEntity
  8
1
  6
Continuous
 62
     3
100
AcDbLine
 10
1838.342160938555
 20
-398.1356070182147
 30
0.0
 11
1838.342160938555
 21
-399.1356070182147
 31
0.0
  0
LINE
  5
5E9
330
5D
100
AcDbEntity
  8
1
  6
Continuous
 62
     3
100
AcDbLine
 10
1837.342160938555
 20
-399.1356070182147
 30
0.0
 11
1827.342160938555
 21
-399.1356070182147
 31
0.0
  0
LINE
  5
5EA
330
5D
100
AcDbEntity
  8
1
  6
Continuous
 62
     1
100
AcDbLine
 10
1838.342160938555
 20
-398.1356070182147
 30
0.0
 11
1837.342160938555
 21
-399.1356070182147
 31
0.0
  0
LINE
  5
5EB
330
5D
100
AcDbEntity
  8
1
  6
Continuous
 62
     1
100
AcDbLine
 10
1852.842160938555
 20
-397.6356070182147
 30
0.0
 11
1838.342160938555
 21
-398.1356070182147
 31
0.0
  0
LINE
  5
5EC
330
5D
100
AcDbEntity
  8
1
  6
Continuous
 62
     3
100
AcDbLine
 10
1851.842160938555
 20
-372.6356070182147
 30
0.0
 11
1852.842160938555
 21
-373.6356070182147
 31
0.0
  0
LINE
  5
5ED
330
5D
100
AcDbEntity
  8
1
  6
Continuous
 62
     3
100
AcDbLine
 10
1852.842160938555
 20
-397.6356070182147
 30
0.0
 11
1851.842160938555
 21
-398.6356070182147
 31
0.0
  0
LINE
  5
5EE
330
5D
100
AcDbEntity
  8
1
  6
Continuous
 62
     3
100
AcDbLine
 10
1852.842160938555
 20
-397.6356070182147
 30
0.0
 11
1852.842160938555
 21
-373.6356070182147
 31
0.0
  0
LINE
  5
5EF
330
5D
100
AcDbEntity
  8
1
  6
Continuous
 62
     3
100
AcDbLine
 10
1851.842160938555
 20
-398.6356070182147
 30
0.0
 11
1838.342160938555
 21
-399.1356070182147
 31
0.0
  0
LINE
  5
5F0
330
5D
100
AcDbEntity
  8
1
  6
DOT_CENTER
 62
     1
100
AcDbLine
 10
1858.838888165884
 20
-385.6356070182147
 30
0.0
 11
1811.008509859631
 21
-385.6356070182147
 31
0.0
  0
LINE
  5
5F1
330
5D
100
AcDbEntity
  8
1
  6
DOT_CENTER
 62
     1
100
AcDbLine
 10
1858.838888165884
 20
-174.6402324546827
 30
0.0
 11
1811.008509859631
 21
-174.6402324546827
 31
0.0
  0
LINE
  5
5F2
330
5D
100
AcDbEntity
  8
1
  6
Continuous
 62
     3
100
AcDbLine
 10
1851.842160938555
 20
-187.6402324546827
 30
0.0
 11
1838.342160938555
 21
-188.1402324546827
 31
0.0
  0
LINE
  5
5F3
330
5D
100
AcDbEntity
  8
1
  6
Continuous
 62
     3
100
AcDbLine
 10
1852.842160938555
 20
-186.6402324546827
 30
0.0
 11
1852.842160938555
 21
-162.6402324546827
 31
0.0
  0
LINE
  5
5F4
330
5D
100
AcDbEntity
  8
1
  6
Continuous
 62
     3
100
AcDbLine
 10
1852.842160938555
 20
-186.6402324546827
 30
0.0
 11
1851.842160938555
 21
-187.6402324546827
 31
0.0
  0
LINE
  5
5F5
330
5D
100
AcDbEntity
  8
1
  6
Continuous
 62
     3
100
AcDbLine
 10
1851.842160938555
 20
-161.6402324546827
 30
0.0
 11
1852.842160938555
 21
-162.6402324546827
 31
0.0
  0
LINE
  5
5F6
330
5D
100
AcDbEntity
  8
1
  6
Continuous
 62
     1
100
AcDbLine
 10
1852.842160938555
 20
-186.6402324546827
 30
0.0
 11
1838.342160938555
 21
-187.1402324546827
 31
0.0
  0
LINE
  5
5F7
330
5D
100
AcDbEntity
  8
1
  6
Continuous
 62
     1
100
AcDbLine
 10
1838.342160938555
 20
-187.1402324546827
 30
0.0
 11
1837.342160938555
 21
-188.1402324546827
 31
0.0
  0
LINE
  5
5F8
330
5D
100
AcDbEntity
  8
1
  6
Continuous
 62
     3
100
AcDbLine
 10
1837.342160938555
 20
-188.1402324546827
 30
0.0
 11
1827.342160938555
 21
-188.1402324546827
 31
0.0
  0
LINE
  5
5F9
330
5D
100
AcDbEntity
  8
1
  6
Continuous
 62
     3
100
AcDbLine
 10
1838.342160938555
 20
-187.1402324546827
 30
0.0
 11
1838.342160938555
 21
-188.1402324546827
 31
0.0
  0
LINE
  5
5FA
330
5D
100
AcDbEntity
  8
1
  6
Continuous
 62
     3
100
AcDbLine
 10
1838.342160938555
 20
-188.1402324546827
 30
0.0
 11
1837.342160938555
 21
-188.1402324546827
 31
0.0
  0
LINE
  5
5FB
330
5D
100
AcDbEntity
  8
1
  6
Continuous
 62
     1
100
AcDbLine
 10
1838.342160938555
 20
-162.1402324546827
 30
0.0
 11
1852.842160938555
 21
-162.6402324546827
 31
0.0
  0
LINE
  5
5FC
330
5D
100
AcDbEntity
  8
1
  6
Continuous
 62
     3
100
AcDbLine
 10
1838.342160938555
 20
-161.1402324546827
 30
0.0
 11
1838.342160938555
 21
-162.1402324546827
 31
0.0
  0
LINE
  5
5FD
330
5D
100
AcDbEntity
  8
1
  6
Continuous
 62
     1
100
AcDbLine
 10
1837.342160938555
 20
-161.1402324546827
 30
0.0
 11
1838.342160938555
 21
-162.1402324546827
 31
0.0
  0
LINE
  5
5FE
330
5D
100
AcDbEntity
  8
1
  6
Continuous
 62
     3
100
AcDbLine
 10
1838.342160938555
 20
-161.1402324546827
 30
0.0
 11
1851.842160938555
 21
-161.6402324546827
 31
0.0
  0
LINE
  5
5FF
330
5D
100
AcDbEntity
  8
1
  6
Continuous
 62
     3
100
AcDbLine
 10
1827.342160938555
 20
-161.1402324546827
 30
0.0
 11
1838.342160938555
 21
-161.1402324546827
 31
0.0
  0
LINE
  5
600
330
5D
100
AcDbEntity
  8
1
  6
Continuous
 62
     3
100
AcDbLine
 10
1838.342160938555
 20
-162.1402324546827
 30
0.0
 11
1838.342160938555
 21
-187.1402324546827
 31
0.0
  0
ENDBLK
  5
5F
330
5D
100
AcDbEntity
  8
0
100
AcDbBlockEnd
  0
ENDSEC
  0
SECTION
  2
ENTITIES
  0
INSERT
  5
60
330
1F
100
AcDbEntity
  8
1
100
AcDbBlockReference
  2
1
 10
1612.947773299545
 20
-397.166476434231
 30
0.0
  0
INSERT
  5
61
330
1F
100
AcDbEntity
  8
1
100
AcDbBlockReference
  2
7
 10
1612.447773299545
 20
-335.6356070182147
 30
0.0
  0
INSERT
  5
62
330
1F
100
AcDbEntity
  8
1
100
AcDbBlockReference
  2
3
 10
1613.947773299545
 20
-347.3739443588877
 30
0.0
  0
INSERT
  5
63
330
1F
100
AcDbEntity
  8
1
100
AcDbBlockReference
  2
2
 10
1599.947773299545
 20
-337.6696805778882
 30
0.0
  0
INSERT
  5
64
330
1F
100
AcDbEntity
  8
1
100
AcDbBlockReference
  2
_3
 10
1806.432343363451
 20
-407.5356070182148
 30
0.0
  0
INSERT
  5
65
330
1F
100
AcDbEntity
  8
1
100
AcDbBlockReference
  2
_4
 10
1811.008509859631
 20
-399.1356070182147
 30
0.0
  0
ENDSEC
  0
SECTION
  2
OBJECTS
  0
DICTIONARY
  5
C
330
0
100
AcDbDictionary
281
     1
  3
ACAD_GROUP
350
D
  3
ACAD_LAYOUT
350
1A
  3
ACAD_MLINESTYLE
350
17
  3
ACAD_PLOTSETTINGS
350
19
  3
ACAD_PLOTSTYLENAME
350
E
  0
DICTIONARY
  5
D
102
{ACAD_REACTORS
330
C
102
}
330
C
100
AcDbDictionary
281
     1
  0
DICTIONARY
  5
1A
102
{ACAD_REACTORS
330
C
102
}
330
C
100
AcDbDictionary
281
     1
  3
Layout1
350
1E
  3
Layout2
350
26
  3
Model
350
22
  0
DICTIONARY
  5
17
102
{ACAD_REACTORS
330
C
102
}
330
C
100
AcDbDictionary
281
     1
  3
Standard
350
18
  0
DICTIONARY
  5
19
102
{ACAD_REACTORS
330
C
102
}
330
C
100
AcDbDictionary
281
     1
  0
ACDBDICTIONARYWDFLT
  5
E
102
{ACAD_REACTORS
330
C
102
}
330
C
100
AcDbDictionary
281
     1
  3
Normal
350
F
100
AcDbDictionaryWithDefault
340
F
  0
LAYOUT
  5
1E
102
{ACAD_REACTORS
330
1A
102
}
330
1A
100
AcDbPlotSettings
  1

  2

  4

  6

 40
0.0
 41
0.0
 42
0.0
 43
0.0
 44
0.0
 45
0.0
 46
0.0
 47
0.0
 48
0.0
 49
0.0
140
0.0
141
0.0
142
1.0
143
1.0
 70
   688
 72
     0
 73
     0
 74
     5
  7

 75
    16
147
1.0
148
0.0
149
0.0
100
AcDbLayout
  1
Layout1
 70
     1
 71
     1
 10
0.0
 20
0.0
 11
0.0
 21
0.0
 12
0.0
 22
0.0
 32
0.0
 14
0.0
 24
0.0
 34
0.0
 15
0.0
 25
0.0
 35
0.0
146
0.0
 13
0.0
 23
0.0
 33
0.0
 16
1.0
 26
0.0
 36
0.0
 17
0.0
 27
1.0
 37
0.0
 76
     0
330
1B
  0
LAYOUT
  5
26
102
{ACAD_REACTORS
330
1A
102
}
330
1A
100
AcDbPlotSettings
  1

  2

  4

  6

 40
0.0
 41
0.0
 42
0.0
 43
0.0
 44
0.0
 45
0.0
 46
0.0
 47
0.0
 48
0.0
 49
0.0
140
0.0
141
0.0
142
1.0
143
1.0
 70
   688
 72
     0
 73
     0
 74
     5
  7

 75
    16
147
1.0
148
0.0
149
0.0
100
AcDbLayout
  1
Layout2
 70
     1
 71
     2
 10
0.0
 20
0.0
 11
0.0
 21
0.0
 12
0.0
 22
0.0
 32
0.0
 14
0.0
 24
0.0
 34
0.0
 15
0.0
 25
0.0
 35
0.0
146
0.0
 13
0.0
 23
0.0
 33
0.0
 16
1.0
 26
0.0
 36
0.0
 17
0.0
 27
1.0
 37
0.0
 76
     0
330
23
  0
LAYOUT
  5
22
102
{ACAD_REACTORS
330
1A
102
}
330
1A
100
AcDbPlotSettings
  1

  2

  4

  6

 40
0.0
 41
0.0
 42
0.0
 43
0.0
 44
0.0
 45
0.0
 46
0.0
 47
0.0
 48
0.0
 49
0.0
140
0.0
141
0.0
142
1.0
143
1.0
 70
  1712
 72
     0
 73
     0
 74
     0
  7

 75
     0
147
1.0
148
0.0
149
0.0
100
AcDbLayout
  1
Model
 70
     1
 71
     0
 10
0.0
 20
0.0
 11
0.0
 21
0.0
 12
0.0
 22
0.0
 32
0.0
 14
1599.947773299545
 24
-407.5356070182148
 34
0.0
 15
2141.65730968565
 25
-133.616905327916
 35
0.0
146
0.0
 13
0.0
 23
0.0
 33
0.0
 16
1.0
 26
0.0
 36
0.0
 17
0.0
 27
1.0
 37
0.0
 76
     0
330
1F
  0
MLINESTYLE
  5
18
102
{ACAD_REACTORS
330
17
102
}
330
17
100
AcDbMlineStyle
  2
Standard
 70
     0
  3

 62
   256
 51
90.0
 52
90.0
 71
     2
 49
0.5
 62
   256
  6
BYLAYER
 49
-0.5
 62
   256
  6
BYLAYER
  0
ACDBPLACEHOLDER
  5
F
102
{ACAD_REACTORS
330
E
102
}
330
E
  0
ENDSEC
  0
EOF
