  0
SECTION
  2
HEADER
  9
$ACADVER
  1
AC1009
  9
$INSBASE
 10
0
 20
0
  9
$EXTMIN
 10
-182
 20
-65
  9
$EXTMAX
 10
86.50024243294583
 20
116.5596583191922
  9
$LIMMIN
 10
-182
 20
-65
  9
$LIMMAX
 10
86.50024243294583
 20
116.5596583191922
  9
$VIEWCTR
 10
10
 20
10
  9
$VIEWSIZE
 40
10
  9
$SNAPMODE
 70
0
  9
$SNAPUNIT
 10
1
 20
1
  9
$SNAPBASE
 10
0
 20
0
  9
$SNAPANG
 50
0
  9
$SNAPSTYLE
 70
0
  9
$SNAPISOPAIR
 70
0
  9
$GRIDMODE
 70
0
  9
$GRIDUNIT
 10
0
 20
0
  9
$ORTHOMODE
 70
0
  9
$REGENMODE
 70
1
  9
$FILLMODE
 70
1
  9
$QTEXTMODE
 70
0
  9
$DRAGMODE
 70
2
  9
$LTSCALE
 40
1
  9
$OSMODE
 70
0
  9
$ATTMODE
 70
1
  9
$TEXTSIZE
 40
3.5
  9
$TRACEWID
 40
0.5
  9
$TEXTSTYLE
  7
STANDARD
  9
$CLAYER
  8
0
  9
$CELTYPE
  6
BYLAYER
  9
$CECOLOR
 62
256
  9
$DIMSCALE
 40
1
  9
$DIMASZ
 40
0.18
  9
$DIMEXO
 40
0.0625
  9
$DIMDLI
 40
0.38
  9
$DIMRND
 40
0
  9
$DIMDLE
 40
0
  9
$DIMEXE
 40
0.18
  9
$DIMTP
 40
0
  9
$DIMTM
 40
0
  9
$DIMTXT
 40
0.18
  9
$DIMCEN
 40
0.09
  9
$DIMTSZ
 40
0
  9
$DIMTOL
 70
0
  9
$DIMLIM
 70
0
  9
$DIMTIH
 70
1
  9
$DIMTOH
 70
1
  9
$DIMSE1
 70
0
  9
$DIMSE2
 70
0
  9
$DIMTAD
 70
0
  9
$DIMZIN
 70
0
  9
$DIMBLK
  1

  9
$DIMASO
 70
1
  9
$DIMSHO
 70
1
  9
$DIMPOST
  1

  9
$DIMAPOST
  1

  9
$DIMALT
 70
0
  9
$DIMALTD
 70
2
  9
$DIMALTF
 40
25.4
  9
$DIMLFAC
 40
1
  9
$DIMTOFL
 70
0
  9
$DIMTVP
 40
0
  9
$DIMTIX
 70
0
  9
$DIMSOXD
 70
0
  9
$DIMSAH
 70
0
  9
$DIMBLK1
  1

  9
$DIMBLK2
  1

  9
$DIMSTYLE
  2
*UNNAMED
  9
$DIMCLRD
 70
0
  9
$DIMCLRE
 70
0
  9
$DIMCLRT
 70
0
  9
$DIMTFAC
 40
1
  9
$DIMGAP
 40
0.09
  9
$LUNITS
 70
2
  9
$LUPREC
 70
4
  9
$AXISMODE
 70
0
  9
$AXISUNIT
 10
0
 20
0
  9
$SKETCHINC
 40
0.1
  9
$FILLETRAD
 40
2
  9
$AUNITS
 70
0
  9
$AUPREC
 70
0
  9
$MENU
  1
ACAD
  9
$ELEVATION
 40
0
  9
$THICKNESS
 40
0
  9
$VIEWDIR
 10
0
 20
0
 30
1
  9
$LIMCHECK
 70
0
  9
$BLIPMODE
 70
1
  9
$CHAMFERA
 40
0
  9
$CHAMFERB
 40
0
  9
$FASTZOOM
 70
1
  9
$SKPOLY
 70
0
  9
$ANGBASE
 50
0
  9
$ANGDIR
 70
0
  9
$PDMODE
 70
0
  9
$PDSIZE
 40
0
  9
$PLINEWID
 40
0
  9
$COORDS
 70
2
  0
ENDSEC
  0
SECTION
  2
TABLES
  0
TABLE
  2
DIMSTYLE
 70
0
  0
ENDTAB
  0
TABLE
  2
LTYPE
 70
9
  0
LTYPE
  2
CONTINUOUS
 70
64
  3
Solid line
 72
65
 73
0
 40
0
  0
LTYPE
  2
BORDER
 70
64
  3
__ __ . __ __ .
 72
65
 73
6
 40
12.3651427436225
 49
3.532897926749287
 49
-1.766448963374643
 49
3.532897926749287
 49
-1.766448963374643
 49
0
 49
-1.766448963374643
  0
LTYPE
  2
CENTER
 70
64
  3
____ _ ____ _
 72
65
 73
4
 40
14.13159170699715
 49
8.832244816873217
 49
-1.766448963374643
 49
1.766448963374643
 49
-1.766448963374643
  0
LTYPE
  2
DASHDOT
 70
64
  3
__ . __ . __ .
 72
65
 73
4
 40
7.065795853498574
 49
3.532897926749287
 49
-1.766448963374643
 49
0
 49
-1.766448963374643
  0
LTYPE
  2
DASHED
 70
64
  3
__ __ __ __ __
 72
65
 73
2
 40
5.29934689012393
 49
3.532897926749287
 49
-1.766448963374643
  0
LTYPE
  2
DIVIDE
 70
64
  3
__ . . __ . . 
 72
65
 73
6
 40
8.832244816873217
 49
3.532897926749287
 49
-1.766448963374643
 49
0
 49
-1.766448963374643
 49
0
 49
-1.766448963374643
  0
LTYPE
  2
DOT
 70
64
  3
..............
 72
65
 73
4
 40
3.532897926749287
 49
0
 49
-1.766448963374643
 49
0
 49
-1.766448963374643
  0
LTYPE
  2
HIDDEN
 70
64
  3
_ _ _ _ _ _ _
 72
65
 73
2
 40
2.649673445061965
 49
1.766448963374643
 49
-0.8832244816873217
  0
LTYPE
  2
PHANTOM
 70
64
  3
_____ _ _ _____ _ _ 
 72
65
 73
6
 40
17.66448963374643
 49
8.832244816873217
 49
-1.766448963374643
 49
1.766448963374643
 49
-1.766448963374643
 49
1.766448963374643
 49
-1.766448963374643
  0
ENDTAB
  0
TABLE
  2
LAYER
 70
3
  0
LAYER
  2
1
 70
0
 62
7
  6
CONTINUOUS
  0
LAYER
  2
0
 70
0
 62
7
  6
CONTINUOUS
  0
ENDTAB
  0
TABLE
  2
STYLE
 70
4
  0
STYLE
  2
STANDARD
 70
0
 40
0
 41
1
 50
0
 71
0
 42
3.5
  3
txt
  4

  0
STYLE
  2
SIMPLEX
 70
0
 40
0
 41
1
 50
0
 71
0
 42
3.5
  3
simplex
  4

  0
STYLE
  2
COMPLEX
 70
0
 40
0
 41
1
 50
0
 71
0
 42
3.5
  3
complex
  4

  0
STYLE
  2
ITALIC
 70
0
 40
0
 41
1
 50
0
 71
0
 42
3.5
  3
italic
  4

  0
ENDTAB
  0
TABLE
  2
VIEW
 70
0
  0
ENDTAB
  0
ENDSEC
  0
SECTION
  2
BLOCKS
  0
ENDSEC
  0
SECTION
  2
ENTITIES
  0
LINE
  8
1
 62
7
 10
-63
 20
72.5
 30
0
 11
-62.02680968756652
 21
72.5
 31
0
  0
LINE
  8
1
 62
7
 10
-63
 20
65.5
 30
0
 11
-62.01519762301344
 21
65.5
 31
0
  0
LINE
  8
1
 62
7
 10
-63
 20
72.5
 30
0
 11
-63
 21
65.5
 31
0
  0
LINE
  8
1
 62
7
 10
-60.4
 20
68.98052604957006
 30
0
 11
-61.13905104194563
 21
66.95
 31
0
  0
LINE
  8
1
 62
7
 10
-61.15322691854578
 20
71.05
 30
0
 11
-60.4
 21
68.98052604957006
 31
0
  0
LINE
  8
1
 62
7
 10
-145
 20
-2.499999999999986
 30
0
 11
-150
 21
1.4210854715202e-14
 31
0
  0
LINE
  8
1
 62
7
 10
-145
 20
-0.9999999999999858
 30
0
 11
-145
 21
-2.499999999999986
 31
0
  0
LINE
  8
1
 62
7
 10
-138
 20
-0.9999999999999858
 30
0
 11
-145
 21
-0.9999999999999858
 31
0
  0
LINE
  8
1
 62
7
 10
-137
 20
-2.499999999999986
 30
0
 11
-138
 21
-0.9999999999999858
 31
0
  0
LINE
  8
1
 62
7
 10
-130
 20
-2.499999999999986
 30
0
 11
-137
 21
-2.499999999999986
 31
0
  0
LINE
  8
1
 62
7
 10
-131
 20
1.4210854715202e-14
 30
0
 11
-130
 21
-2.499999999999986
 31
0
  0
LINE
  8
1
 62
7
 10
-130
 20
2.500000000000014
 30
0
 11
-131
 21
1.4210854715202e-14
 31
0
  0
LINE
  8
1
 62
7
 10
-137
 20
2.500000000000014
 30
0
 11
-130
 21
2.500000000000014
 31
0
  0
LINE
  8
1
 62
7
 10
-138
 20
1.000000000000014
 30
0
 11
-137
 21
2.500000000000014
 31
0
  0
LINE
  8
1
 62
7
 10
-145
 20
1.000000000000014
 30
0
 11
-138
 21
1.000000000000014
 31
0
  0
LINE
  8
1
 62
7
 10
-145
 20
2.500000000000014
 30
0
 11
-145
 21
1.000000000000014
 31
0
  0
LINE
  8
1
 62
7
 10
-150
 20
1.4210854715202e-14
 30
0
 11
-145
 21
2.500000000000014
 31
0
  0
LINE
  8
1
 62
7
 10
-20
 20
91
 30
0
 11
20
 21
91
 31
0
  0
LINE
  8
1
 62
7
 10
-22
 20
77
 30
0
 11
-22
 21
89
 31
0
  0
LINE
  8
1
 62
2
  6
DASHDOT
 10
-24
 20
77
 30
0
 11
-24
 21
61.25403330758517
 31
0
  0
LINE
  8
1
 62
7
 10
-22
 20
61
 30
0
 11
-22
 21
49
 31
0
  0
LINE
  8
1
 62
7
 10
-20
 20
47
 30
0
 11
20
 21
47
 31
0
  0
LINE
  8
1
 62
7
 10
22
 20
61
 30
0
 11
22
 21
49
 31
0
  0
LINE
  8
1
 62
2
  6
DASHDOT
 10
24
 20
61
 30
0
 11
24
 21
77
 31
0
  0
LINE
  8
1
 62
7
 10
22
 20
77
 30
0
 11
22
 21
89
 31
0
  0
LINE
  8
1
 62
7
 10
22.55043109856756
 20
67.55043109856757
 30
0
 11
25.44956890143242
 21
70.4495689014324
 31
0
  0
LINE
  8
1
 62
7
 10
22.55043109856758
 20
70.4495689014324
 30
0
 11
25.44956890143242
 21
67.55043109856756
 31
0
  0
LINE
  8
1
 62
7
 10
-25.44956890143244
 20
67.55043109856757
 30
0
 11
-22.55043109856757
 21
70.4495689014324
 31
0
  0
LINE
  8
1
 62
7
 10
-25.44956890143241
 20
70.4495689014324
 30
0
 11
-22.55043109856757
 21
67.55043109856756
 31
0
  0
LINE
  8
1
 62
7
 10
-4.333333333333331
 20
64
 30
0
 11
3.000000000000001
 21
64
 31
0
  0
LINE
  8
1
 62
7
 10
4.333333333333335
 20
54
 30
0
 11
4.333333333333335
 21
62.66666666666666
 31
0
  0
LINE
  8
1
 62
7
 10
4.333333333333335
 20
54
 30
0
 11
-2.999999999999999
 21
54
 31
0
  0
LINE
  8
1
 62
7
 10
-4.333333333333331
 20
64
 30
0
 11
-4.333333333333331
 21
55.33333333333334
 31
0
  0
LINE
  8
1
 62
7
 10
4.000000000000002
 20
54.33333333333334
 30
0
 11
-2.999999999999999
 21
54.33333333333334
 31
0
  0
LINE
  8
1
 62
7
 10
4.000000000000002
 20
54.33333333333334
 30
0
 11
4.000000000000002
 21
62.66666666666666
 31
0
  0
LINE
  8
1
 62
7
 10
-3.999999999999999
 20
63.66666666666666
 30
0
 11
3.000000000000001
 21
63.66666666666666
 31
0
  0
LINE
  8
1
 62
7
 10
-3.999999999999999
 20
63.66666666666666
 30
0
 11
-3.999999999999999
 21
55.33333333333334
 31
0
  0
LINE
  8
1
 62
7
 10
-2.833333333333332
 20
62
 30
0
 11
2.833333333333334
 21
62
 31
0
  0
LINE
  8
1
 62
7
 10
2.833333333333334
 20
62
 30
0
 11
2.833333333333334
 21
63
 31
0
  0
LINE
  8
1
 62
7
 10
2.833333333333334
 20
63
 30
0
 11
-2.833333333333332
 21
63
 31
0
  0
LINE
  8
1
 62
7
 10
-2.833333333333332
 20
63
 30
0
 11
-2.833333333333332
 21
62
 31
0
  0
LINE
  8
1
 62
7
 10
-2.833333333333332
 20
55
 30
0
 11
2.833333333333334
 21
55
 31
0
  0
LINE
  8
1
 62
7
 10
2.833333333333334
 20
55
 30
0
 11
2.833333333333334
 21
56
 31
0
  0
LINE
  8
1
 62
7
 10
2.833333333333334
 20
56
 30
0
 11
-2.833333333333332
 21
56
 31
0
  0
LINE
  8
1
 62
7
 10
-2.833333333333332
 20
56
 30
0
 11
-2.833333333333332
 21
55
 31
0
  0
LINE
  8
1
 62
7
 10
-1.083333333333331
 20
58.33333333333334
 30
0
 11
-1.083333333333331
 21
56.33333333333334
 31
0
  0
LINE
  8
1
 62
7
 10
1.083333333333335
 20
58.33333333333334
 30
0
 11
1.083333333333335
 21
56.33333333333334
 31
0
  0
LINE
  8
1
 62
7
 10
-1.083333333333331
 20
56.33333333333334
 30
0
 11
1.083333333333335
 21
56.33333333333334
 31
0
  0
LINE
  8
1
 62
7
 10
-2.833333333333332
 20
61.5
 30
0
 11
-1.083333333333331
 21
58.33333333333334
 31
0
  0
LINE
  8
1
 62
7
 10
1.083333333333335
 20
58.33333333333334
 30
0
 11
2.833333333333334
 21
61.5
 31
0
  0
LINE
  8
1
 62
7
 10
-2.833333333333332
 20
61.5
 30
0
 11
-0.8333333333333318
 21
61.5
 31
0
  0
LINE
  8
1
 62
7
 10
-0.8333333333333318
 20
61.5
 30
0
 11
1.479719125008216e-15
 21
59.99206349206349
 31
0
  0
LINE
  8
1
 62
7
 10
1.479719125008216e-15
 20
59.99206349206349
 30
0
 11
0.8333333333333347
 21
61.5
 31
0
  0
LINE
  8
1
 62
7
 10
0.8333333333333347
 20
61.5
 30
0
 11
2.833333333333334
 21
61.5
 31
0
  0
LINE
  8
1
 62
2
  6
DASHDOT
 10
1.479719125008216e-15
 20
97.4465819873852
 30
0
 11
1.479719125008216e-15
 21
102.0534180126148
 31
0
  0
LINE
  8
1
 62
2
  6
DASHDOT
 10
1.479719125008216e-15
 20
102.0534180126148
 30
0
 11
1.479719125008216e-15
 21
109
 31
0
  0
LINE
  8
1
 62
7
 10
1.479719125008216e-15
 20
102.0534180126148
 30
0
 11
1.479719125008216e-15
 21
97.4465819873852
 31
0
  0
LINE
  8
1
 62
7
 10
5.000000000000002
 20
97.4465819873852
 30
0
 11
5.000000000000002
 21
97
 31
0
  0
LINE
  8
1
 62
7
 10
-4.999999999999998
 20
97.4465819873852
 30
0
 11
-4.999999999999998
 21
97
 31
0
  0
LINE
  8
1
 62
7
 10
-4.999999999999998
 20
102.0534180126148
 30
0
 11
-4.999999999999998
 21
97.4465819873852
 31
0
  0
LINE
  8
1
 62
7
 10
5.000000000000002
 20
102.0534180126148
 30
0
 11
5.000000000000002
 21
97.4465819873852
 31
0
  0
LINE
  8
1
 62
7
 10
-145.7735026918963
 20
97.4465819873852
 30
0
 11
-145.7735026918963
 21
102.0534180126148
 31
0
  0
LINE
  8
1
 62
7
 10
-137.1132486540519
 20
102.0534180126148
 30
0
 11
-137.1132486540519
 21
97.4465819873852
 31
0
  0
LINE
  8
1
 62
7
 10
-142.8867513459481
 20
102.0534180126148
 30
0
 11
-142.8867513459481
 21
97.4465819873852
 31
0
  0
LINE
  8
1
 62
7
 10
-134.2264973081037
 20
97.4465819873852
 30
0
 11
-134.4129221376626
 21
97.33894956185577
 31
0
  0
LINE
  8
1
 62
7
 10
-145.7735026918963
 20
97.4465819873852
 30
0
 11
-145.5870778623374
 21
97.33894956185577
 31
0
  0
LINE
  8
1
 62
7
 10
-134.2264973081037
 20
102.0534180126148
 30
0
 11
-134.2264973081037
 21
97.4465819873852
 31
0
  0
LINE
  8
1
 62
7
 10
-134.4129221376626
 20
102.1610504381442
 30
0
 11
-134.2264973081037
 21
102.0534180126148
 31
0
  0
LINE
  8
1
 62
7
 10
-145.5870778623374
 20
102.1610504381442
 30
0
 11
-145.7735026918963
 21
102.0534180126148
 31
0
  0
LINE
  8
1
 62
7
 10
-133.9
 20
97
 30
0
 11
-146.1
 21
97
 31
0
  0
LINE
  8
1
 62
7
 10
5.000000000000002
 20
97
 30
0
 11
6.100000000000001
 21
97
 31
0
  0
LINE
  8
1
 62
7
 10
5.000000000000002
 20
102.5
 30
0
 11
5.000000000000002
 21
102.0534180126148
 31
0
  0
LINE
  8
1
 62
7
 10
4.500000000000002
 20
102.5
 30
0
 11
5.000000000000002
 21
102.5
 31
0
  0
LINE
  8
1
 62
7
 10
-4.999999999999998
 20
97
 30
0
 11
5.000000000000002
 21
97
 31
0
  0
LINE
  8
1
 62
7
 10
-4.999999999999998
 20
102.5
 30
0
 11
-4.999999999999998
 21
102.0534180126148
 31
0
  0
LINE
  8
1
 62
7
 10
-4.499999999999998
 20
102.5
 30
0
 11
-4.999999999999998
 21
102.5
 31
0
  0
LINE
  8
1
 62
7
 10
9.000000000000002
 20
-22
 30
0
 11
-8.999999999999998
 21
-22
 31
0
  0
LINE
  8
1
 62
2
 10
9.000000000000002
 20
-22
 30
0
 11
8.188000000000002
 21
-23.4064252557459
 31
0
  0
LINE
  8
1
 62
7
 10
9.000000000000002
 20
-22
 30
0
 11
9.000000000000016
 21
-23.4064252557459
 31
0
  0
LINE
  8
1
 62
7
 10
8.188000000000002
 20
-23.4064252557459
 30
0
 11
9.000000000000016
 21
-23.4064252557459
 31
0
  0
LINE
  8
1
 62
7
 10
8.188000000000002
 20
-33
 30
0
 11
10.5
 21
-33
 31
0
  0
LINE
  8
1
 62
2
 10
8.188000000000002
 20
-33
 30
0
 11
8.188000000000002
 21
-23.4064252557459
 31
0
  0
LINE
  8
1
 62
7
 10
-8.187999999999999
 20
-33
 30
0
 11
8.188000000000002
 21
-33
 31
0
  0
LINE
  8
1
 62
2
 10
-8.187999999999999
 20
-23.4064252557459
 30
0
 11
-8.187999999999999
 21
-33
 31
0
  0
LINE
  8
1
 62
7
 10
-8.187999999999999
 20
-23.4064252557459
 30
0
 11
8.188000000000002
 21
-23.4064252557459
 31
0
  0
LINE
  8
1
 62
7
 10
-8.999999999999998
 20
-22
 30
0
 11
-9.999999999999995
 21
-22
 31
0
  0
LINE
  8
1
 62
2
 10
-8.999999999999998
 20
-22
 30
0
 11
-8.187999999999999
 21
-23.4064252557459
 31
0
  0
LINE
  8
1
 62
7
 10
-8.999999999999998
 20
-23.4064252557459
 30
0
 11
-8.999999999999998
 21
-33
 31
0
  0
LINE
  8
1
 62
7
 10
-8.999999999999998
 20
-23.4064252557459
 30
0
 11
-8.187999999999999
 21
-23.4064252557459
 31
0
  0
LINE
  8
1
 62
7
 10
-131
 20
-23.4064252557459
 30
0
 11
-131
 21
-33
 31
0
  0
LINE
  8
1
 62
7
 10
-148.9999999999999
 20
-23.4064252557459
 30
0
 11
-149
 21
-33
 31
0
  0
LINE
  8
1
 62
7
 10
-148.9999999999999
 20
-23.4064252557459
 30
0
 11
-131
 21
-23.4064252557459
 31
0
  0
LINE
  8
1
 62
2
 10
-131
 20
-22
 30
0
 11
-131.812
 21
-23.4064252557458
 31
0
  0
LINE
  8
1
 62
2
 10
-148.1879999999999
 20
-23.4064252557459
 30
0
 11
-148.188
 21
-33
 31
0
  0
LINE
  8
1
 62
2
 10
-149
 20
-22
 30
0
 11
-148.1879999999999
 21
-23.4064252557459
 31
0
  0
LINE
  8
1
 62
7
 10
-131.812
 20
-33
 30
0
 11
-131
 21
-33
 31
0
  0
LINE
  8
1
 62
2
 10
-131.812
 20
-33
 30
0
 11
-131.812
 21
-23.4064252557458
 31
0
  0
LINE
  8
1
 62
7
 10
-148.188
 20
-33
 30
0
 11
-131.812
 21
-33
 31
0
  0
LINE
  8
1
 62
7
 10
-131
 20
-23.4064252557459
 30
0
 11
-131
 21
-22.6028168082816
 31
0
  0
LINE
  8
1
 62
7
 10
-148.9999999999999
 20
-23.4064252557459
 30
0
 11
-149
 21
-22.6028168082816
 31
0
  0
LINE
  8
1
 62
7
 10
-131
 20
-22
 30
0
 11
-130.9069902715151
 21
-22
 31
0
  0
LINE
  8
1
 62
7
 10
-149
 20
-22
 30
0
 11
-131
 21
-22
 31
0
  0
LINE
  8
1
 62
7
 10
-149
 20
-22
 30
0
 11
-149.0930097284849
 21
-22
 31
0
  0
LINE
  8
1
 62
7
 10
1.479719125008216e-15
 20
-33.93782217350889
 30
0
 11
1.479719125008216e-15
 21
-45.06217782649111
 31
0
  0
LINE
  8
1
 62
7
 10
-10.5
 20
-33.93782217350889
 30
0
 11
-10.5
 21
-33
 31
0
  0
LINE
  8
1
 62
2
  6
DASHDOT
 10
1.479719125008216e-15
 20
-33.93782217350889
 30
0
 11
1.479719125008216e-15
 21
-45.06217782649111
 31
0
  0
LINE
  8
1
 62
7
 10
10.5
 20
-33.93782217350889
 30
0
 11
10.5
 21
-45.06217782649111
 31
0
  0
LINE
  8
1
 62
7
 10
10.5
 20
-45.06217782649111
 30
0
 11
10.5
 21
-46
 31
0
  0
LINE
  8
1
 62
2
  6
DASHDOT
 10
1.479719125008216e-15
 20
-45.06217782649111
 30
0
 11
1.479719125008216e-15
 21
-65
 31
0
  0
LINE
  8
1
 62
7
 10
-10.5
 20
-45.06217782649111
 30
0
 11
-10.5
 21
-33.93782217350889
 31
0
  0
LINE
  8
1
 62
7
 10
-146.0621778264911
 20
-33.93782217350889
 30
0
 11
-146.0621778264911
 21
-45.06217782649111
 31
0
  0
LINE
  8
1
 62
7
 10
-133.9378221735089
 20
-33.93782217350889
 30
0
 11
-133.9378221735089
 21
-45.06217782649111
 31
0
  0
LINE
  8
1
 62
7
 10
-149.0764118402058
 20
-33
 30
0
 11
-148.188
 21
-33
 31
0
  0
LINE
  8
1
 62
7
 10
-152.1243556529822
 20
-33.93782217350889
 30
0
 11
-152.1243556529822
 21
-45.06217782649111
 31
0
  0
LINE
  8
1
 62
7
 10
-127.8756443470178
 20
-33.93782217350889
 30
0
 11
-127.8756443470178
 21
-45.06217782649111
 31
0
  0
LINE
  8
1
 62
7
 10
-152.1243556529822
 20
-33.93782217350889
 30
0
 11
-151.7328635109085
 21
-33.71179407989709
 31
0
  0
LINE
  8
1
 62
7
 10
-128.2671364890915
 20
-33.71179407989709
 30
0
 11
-127.8756443470178
 21
-33.93782217350889
 31
0
  0
LINE
  8
1
 62
7
 10
-130.9235881597942
 20
-46
 30
0
 11
-149.0764118402058
 21
-46
 31
0
  0
LINE
  8
1
 62
7
 10
-127.8756443470178
 20
-45.06217782649111
 30
0
 11
-128.2671364890915
 21
-45.28820592010291
 31
0
  0
LINE
  8
1
 62
7
 10
-151.7328635109085
 20
-45.28820592010291
 30
0
 11
-152.1243556529822
 21
-45.06217782649111
 31
0
  0
LINE
  8
1
 62
7
 10
9.000000000000002
 20
-33
 30
0
 11
9.000000000000016
 21
-23.4064252557459
 31
0
  0
LINE
  8
1
 62
7
 10
10.5
 20
-46
 30
0
 11
-10.5
 21
-46
 31
0
  0
LINE
  8
1
 62
7
 10
10.5
 20
-33
 30
0
 11
10.5
 21
-33.93782217350889
 31
0
  0
LINE
  8
1
 62
7
 10
-10.5
 20
-33
 30
0
 11
-8.187999999999999
 21
-33
 31
0
  0
LINE
  8
1
 62
7
 10
-10.5
 20
-46
 30
0
 11
-10.5
 21
-45.06217782649111
 31
0
  0
LINE
  8
1
 62
2
  6
DASHDOT
 10
-182
 20
1.4210854715202e-14
 30
0
 11
-98
 21
1.4210854715202e-14
 31
0
  0
LINE
  8
1
 62
7
 10
-69.5
 20
91
 30
0
 11
-68
 21
91
 31
0
  0
LINE
  8
1
 62
7
 10
-69.5
 20
47
 30
0
 11
-96
 21
47
 31
0
  0
LINE
  8
1
 62
7
 10
-69.5
 20
47
 30
0
 11
-69.5
 21
91
 31
0
  0
LINE
  8
1
 62
7
 10
-68
 20
47
 30
0
 11
-69.5
 21
47
 31
0
  0
LINE
  8
1
 62
7
 10
-68
 20
91
 30
0
 11
-65
 21
91
 31
0
  0
LINE
  8
1
 62
7
 10
-68
 20
91
 30
0
 11
-68
 21
47
 31
0
  0
LINE
  8
1
 62
7
 10
-144.5
 20
102.5
 30
0
 11
-135.5
 21
102.5
 31
0
  0
LINE
  8
1
 62
7
 10
-4.499999999999998
 20
102.5
 30
0
 11
4.500000000000002
 21
102.5
 31
0
  0
LINE
  8
1
 62
7
 10
6.100000000000001
 20
97
 30
0
 11
6.100000000000001
 21
95.5
 31
0
  0
LINE
  8
1
 62
7
 10
-6.099999999999998
 20
97
 30
0
 11
-4.999999999999998
 21
97
 31
0
  0
LINE
  8
1
 62
7
 10
-6.099999999999998
 20
95.5
 30
0
 11
-6.099999999999998
 21
97
 31
0
  0
LINE
  8
1
 62
7
 10
-133.9
 20
97
 30
0
 11
-133.9
 21
95.5
 31
0
  0
LINE
  8
1
 62
7
 10
-146.1
 20
95.5
 30
0
 11
-146.1
 21
97
 31
0
  0
LINE
  8
1
 62
7
 10
-99.5
 20
57
 30
0
 11
-109.25
 21
57
 31
0
  0
LINE
  8
1
 62
7
 10
-98
 20
55.5
 30
0
 11
-98
 21
82.5
 31
0
  0
LINE
  8
1
 62
7
 10
-110.75
 20
55.5
 30
0
 11
-110.75
 21
47.125
 31
0
  0
LINE
  8
1
 62
7
 10
-98
 20
82.5
 30
0
 11
-98
 21
89
 31
0
  0
LINE
  8
1
 62
7
 10
-109.25
 20
81
 30
0
 11
-99.5
 21
81
 31
0
  0
LINE
  8
1
 62
7
 10
-110.75
 20
82.5
 30
0
 11
-110.75
 21
55.5
 31
0
  0
LINE
  8
1
 62
7
 10
-98
 20
49
 30
0
 11
-98
 21
55.5
 31
0
  0
LINE
  8
1
 62
7
 10
-65
 20
47
 30
0
 11
-68
 21
47
 31
0
  0
LINE
  8
1
 62
7
 10
-63
 20
89
 30
0
 11
-63
 21
49
 31
0
  0
LINE
  8
1
 62
7
 10
-96
 20
91
 30
0
 11
-69.5
 21
91
 31
0
  0
LINE
  8
1
 62
7
 10
29.25
 20
66.09526249034444
 30
0
 11
29.25
 21
47.125
 31
0
  0
LINE
  8
1
 62
7
 10
-29.25
 20
66.09526249034444
 30
0
 11
-29.25
 21
47.125
 31
0
  0
LINE
  8
1
 62
2
  6
DASHDOT
 10
-31.25
 20
69
 30
0
 11
31.25
 21
69
 31
0
  0
LINE
  8
1
 62
7
 10
-115
 20
95
 30
0
 11
-115
 21
95.5
 31
0
  0
LINE
  8
1
 62
7
 10
-115
 20
95.5
 30
0
 11
-165
 21
95.5
 31
0
  0
LINE
  8
1
 62
7
 10
-165
 20
95.5
 30
0
 11
-165
 21
95
 31
0
  0
LINE
  8
1
 62
7
 10
-165.25
 20
95
 30
0
 11
-114.75
 21
95
 31
0
  0
LINE
  8
1
 62
7
 10
-110
 20
41.8
 30
0
 11
-110
 21
46.47499999999999
 31
0
  0
LINE
  8
1
 62
7
 10
-170
 20
41.8
 30
0
 11
-170
 21
46.47499999999999
 31
0
  0
LINE
  8
1
 62
2
  6
DASHDOT
 10
-171.25
 20
69
 30
0
 11
-112.75
 21
69
 31
0
  0
LINE
  8
1
 62
2
  6
DASHDOT
 10
-140
 20
109
 30
0
 11
-140
 21
-65
 31
0
  0
LINE
  8
1
 62
7
 10
-169.575
 20
46.8
 30
0
 11
-169.675
 21
46.8
 31
0
  0
LINE
  8
1
 62
7
 10
-169.25
 20
91
 30
0
 11
-169.25
 21
47.125
 31
0
  0
LINE
  8
1
 62
7
 10
-110.75
 20
91
 30
0
 11
-110.75
 21
82.5
 31
0
  0
LINE
  8
1
 62
7
 10
-110.425
 20
46.8
 30
0
 11
-110.325
 21
46.8
 31
0
  0
LINE
  8
1
 62
7
 10
-113.25
 20
47
 30
0
 11
-166.25
 21
47
 31
0
  0
LINE
  8
1
 62
7
 10
29.575
 20
46.8
 30
0
 11
29.675
 21
46.8
 31
0
  0
LINE
  8
1
 62
7
 10
-29.57499999999999
 20
46.8
 30
0
 11
-29.67500000000001
 21
46.8
 31
0
  0
LINE
  8
1
 62
7
 10
-30
 20
41.8
 30
0
 11
-30
 21
46.47499999999999
 31
0
  0
LINE
  8
1
 62
7
 10
30
 20
41.8
 30
0
 11
23
 21
41.8
 31
0
  0
LINE
  8
1
 62
7
 10
30
 20
41.8
 30
0
 11
30
 21
46.47499999999999
 31
0
  0
LINE
  8
1
 62
7
 10
-29.25
 20
91
 30
0
 11
-29.25
 21
71.90473750965556
 31
0
  0
LINE
  8
1
 62
7
 10
-25.25
 20
95
 30
0
 11
25.25
 21
95
 31
0
  0
LINE
  8
1
 62
7
 10
-25
 20
95.5
 30
0
 11
-25
 21
95
 31
0
  0
LINE
  8
1
 62
7
 10
25
 20
95.5
 30
0
 11
-25
 21
95.5
 31
0
  0
LINE
  8
1
 62
7
 10
25
 20
95
 30
0
 11
25
 21
95.5
 31
0
  0
LINE
  8
1
 62
7
 10
-26.25
 20
47
 30
0
 11
-20
 21
47
 31
0
  0
LINE
  8
1
 62
7
 10
-6.999999999999998
 20
-46
 30
0
 11
-6.999999999999998
 21
-61
 31
0
  0
LINE
  8
1
 62
7
 10
-4.999999999999998
 20
-63
 30
0
 11
5.000000000000002
 21
-63
 31
0
  0
LINE
  8
1
 62
7
 10
7.000000000000002
 20
-46
 30
0
 11
7.000000000000002
 21
-61
 31
0
  0
LINE
  8
1
 62
7
 10
-8.999999999999998
 20
-22
 30
0
 11
-8.999999999999998
 21
-23.4064252557459
 31
0
  0
LINE
  8
1
 62
7
 10
9.999999999999998
 20
-22
 30
0
 11
9.000000000000002
 21
-22
 31
0
  0
LINE
  8
1
 62
7
 10
-145
 20
-63
 30
0
 11
-135
 21
-63
 31
0
  0
LINE
  8
1
 62
7
 10
-133
 20
-46
 30
0
 11
-133
 21
-61
 31
0
  0
LINE
  8
1
 62
7
 10
-147
 20
-46
 30
0
 11
-147
 21
-61
 31
0
  0
LINE
  8
1
 62
7
 10
-21
 20
8
 30
0
 11
-21
 21
0
 31
0
  0
LINE
  8
1
 62
7
 10
-9.999999999999998
 20
-19.6214168703486
 30
0
 11
-9.999999999999995
 21
-22
 31
0
  0
LINE
  8
1
 62
7
 10
18
 20
15.54983443527075
 30
0
 11
18
 21
26.37199898895626
 31
0
  0
LINE
  8
1
 62
7
 10
21
 20
0
 30
0
 11
21.00000000000001
 21
8
 31
0
  0
LINE
  8
1
 62
7
 10
10
 20
-19.6214168703486
 30
0
 11
9.999999999999998
 21
-22
 31
0
  0
LINE
  8
1
 62
7
 10
-23
 20
41.8
 30
0
 11
-23
 21
28.42627613092819
 31
0
  0
LINE
  8
1
 62
7
 10
-23
 20
41.8
 30
0
 11
-30
 21
41.8
 31
0
  0
LINE
  8
1
 62
7
 10
23
 20
41.8
 30
0
 11
23
 21
28.42627613092819
 31
0
  0
LINE
  8
1
 62
7
 10
23
 20
41.8
 30
0
 11
-23
 21
41.8
 31
0
  0
LINE
  8
1
 62
7
 10
-23
 20
26.37199898895626
 30
0
 11
23
 21
26.37199898895626
 31
0
  0
LINE
  8
1
 62
7
 10
-18
 20
26.37199898895626
 30
0
 11
-18
 21
15.54983443527075
 31
0
  0
LINE
  8
1
 62
7
 10
-165.700558166752
 20
27.93116697349279
 30
0
 11
-166.5581123827228
 21
28.42627613092819
 31
0
  0
LINE
  8
1
 62
7
 10
-114.2994418332479
 20
27.93116697349282
 30
0
 11
-113.4418876172772
 21
28.42627613092822
 31
0
  0
LINE
  8
1
 62
7
 10
-113.4418876172772
 20
28.42627613092822
 30
0
 11
-113.4418876172772
 21
40.772861429014
 31
0
  0
LINE
  8
1
 62
7
 10
-120.1183359690731
 20
26.37199898895628
 30
0
 11
-122
 21
26.37199898895628
 31
0
  0
LINE
  8
1
 62
7
 10
-153.2790561913614
 20
28.42627613092819
 30
0
 11
-153.2790561913614
 21
40.77286142901403
 31
0
  0
LINE
  8
1
 62
7
 10
-170
 20
41.8
 30
0
 11
-110
 21
41.8
 31
0
  0
LINE
  8
1
 62
7
 10
-166.5581123827228
 20
40.77286142901403
 30
0
 11
-165.700558166752
 21
41.26797058644942
 31
0
  0
LINE
  8
1
 62
7
 10
-113.4418876172772
 20
40.772861429014
 30
0
 11
-114.2994418332479
 21
41.26797058644939
 31
0
  0
LINE
  8
1
 62
7
 10
-166.5581123827228
 20
40.77286142901403
 30
0
 11
-166.5581123827228
 21
28.42627613092819
 31
0
  0
LINE
  8
1
 62
7
 10
-126.7209438086386
 20
40.77286142901403
 30
0
 11
-126.7209438086386
 21
28.42627613092819
 31
0
  0
LINE
  8
1
 62
7
 10
-23
 20
28.42627613092819
 30
0
 11
-23
 21
26.37199898895626
 31
0
  0
LINE
  8
1
 62
7
 10
23
 20
28.42627613092819
 30
0
 11
23
 21
26.37199898895626
 31
0
  0
LINE
  8
1
 62
7
 10
1.479719125008216e-15
 20
40.77286142901403
 30
0
 11
1.479719125008216e-15
 21
28.42627613092819
 31
0
  0
LINE
  8
1
 62
2
  6
DASHDOT
 10
1.479719125008216e-15
 20
40.77286142901403
 30
0
 11
1.479719125008216e-15
 21
97.4465819873852
 31
0
  0
LINE
  8
1
 62
2
  6
DASHDOT
 10
1.479719125008216e-15
 20
28.42627613092819
 30
0
 11
1.479719125008216e-15
 21
40.77286142901403
 31
0
  0
LINE
  8
1
 62
2
  6
DASHDOT
 10
1.479719125008216e-15
 20
-33.93782217350889
 30
0
 11
8.638922910364499e-16
 21
-20.20725942163691
 31
0
  0
LINE
  8
1
 62
2
  6
DASHDOT
 10
-24
 20
0
 30
0
 11
12.0585
 21
0
 31
0
  0
LINE
  8
1
 62
7
 10
8.638922910364499e-16
 20
20.20725942163689
 30
0
 11
-17.5
 21
10.10362971081845
 31
0
  0
LINE
  8
1
 62
2
  6
DASHDOT
 10
8.638922910364499e-16
 20
20.20725942163689
 30
0
 11
1.479719125008216e-15
 21
28.42627613092819
 31
0
  0
LINE
  8
1
 62
7
 10
-17.5
 20
10.10362971081845
 30
0
 11
-17.50000000000002
 21
-10.1036297108185
 31
0
  0
LINE
  8
1
 62
7
 10
-17.50000000000002
 20
-10.1036297108185
 30
0
 11
8.638922910364499e-16
 21
-20.20725942163691
 31
0
  0
LINE
  8
1
 62
2
  6
DASHDOT
 10
8.638922910364499e-16
 20
-20.20725942163691
 30
0
 11
8.638922910364499e-16
 21
-17.5
 31
0
  0
LINE
  8
1
 62
7
 10
8.638922910364499e-16
 20
-20.20725942163691
 30
0
 11
17.5
 21
-10.1036297108185
 31
0
  0
LINE
  8
1
 62
7
 10
17.5
 20
-10.1036297108185
 30
0
 11
17.5
 21
10.10362971081845
 31
0
  0
LINE
  8
1
 62
7
 10
17.5
 20
10.10362971081845
 30
0
 11
8.638922910364499e-16
 21
20.20725942163689
 31
0
  0
LINE
  8
1
 62
2
  6
DASHDOT
 10
8.638922910364499e-16
 20
-17.5
 30
0
 11
8.638922910364499e-16
 21
20.20725942163689
 31
0
  0
LINE
  8
1
 62
7
 10
-101.1863234664952
 20
-19.5547725181809
 30
0
 11
-101.5630369558482
 21
-20.20725942163691
 31
0
  0
LINE
  8
1
 62
7
 10
-101.1863234664952
 20
19.5547725181809
 30
0
 11
-101.5630369558482
 21
20.20725942163689
 31
0
  0
LINE
  8
1
 62
7
 10
-116.4369630441518
 20
-20.20725942163691
 30
0
 11
-116.8136765335048
 21
-19.5547725181809
 31
0
  0
LINE
  8
1
 62
7
 10
-116.4369630441518
 20
20.20725942163689
 30
0
 11
-116.8136765335048
 21
19.5547725181809
 31
0
  0
LINE
  8
1
 62
7
 10
-116.4369630441518
 20
20.20725942163689
 30
0
 11
-101.5630369558482
 21
20.15107642320076
 31
0
  0
LINE
  8
1
 62
7
 10
-116.4369630441518
 20
10.10362971081845
 30
0
 11
-101.5630369558482
 21
10.10362971081845
 31
0
  0
LINE
  8
1
 62
7
 10
-116.4369630441518
 20
-10.1036297108185
 30
0
 11
-101.5630369558482
 21
-10.1036297108185
 31
0
  0
LINE
  8
1
 62
7
 10
-116.4369630441518
 20
-20.20725942163691
 30
0
 11
-101.6020654042484
 21
-20.20725942163691
 31
0
  0
LINE
  8
1
 62
7
 10
-118
 20
15.12735306700961
 30
0
 11
-118
 21
-15.12735306700959
 31
0
  0
LINE
  8
1
 62
7
 10
-100
 20
15.12735306700961
 30
0
 11
-100
 21
-15.12735306700959
 31
0
  0
LINE
  8
1
 62
7
 10
-178.4369630441518
 20
-20.20725942163691
 30
0
 11
-178.8136765335048
 21
-19.5547725181809
 31
0
  0
LINE
  8
1
 62
7
 10
-178.4369630441518
 20
20.20725942163689
 30
0
 11
-178.8136765335048
 21
19.5547725181809
 31
0
  0
LINE
  8
1
 62
7
 10
-163.1863234664952
 20
-19.5547725181809
 30
0
 11
-163.5630369558482
 21
-20.20725942163691
 31
0
  0
LINE
  8
1
 62
7
 10
-163.1863234664952
 20
19.5547725181809
 30
0
 11
-163.5630369558482
 21
20.20725942163689
 31
0
  0
LINE
  8
1
 62
7
 10
-178.4369630441518
 20
20.15107642320076
 30
0
 11
-163.5630369558482
 21
20.20725942163689
 31
0
  0
LINE
  8
1
 62
7
 10
-178.4369630441518
 20
10.10362971081845
 30
0
 11
-163.5630369558482
 21
10.10362971081845
 31
0
  0
LINE
  8
1
 62
7
 10
-178.4369630441518
 20
-10.1036297108185
 30
0
 11
-163.5630369558482
 21
-10.1036297108185
 31
0
  0
LINE
  8
1
 62
7
 10
-178.3979345957516
 20
-20.20725942163691
 30
0
 11
-163.5630369558482
 21
-20.20725942163691
 31
0
  0
LINE
  8
1
 62
7
 10
-162
 20
-15.12735306700959
 30
0
 11
-162
 21
15.12735306700961
 31
0
  0
LINE
  8
1
 62
7
 10
-180
 20
-15.12735306700959
 30
0
 11
-180
 21
15.12735306700961
 31
0
  0
LINE
  8
1
 62
7
 10
-158
 20
26.37199898895625
 30
0
 11
-158
 21
19.90192378864674
 31
0
  0
LINE
  8
1
 62
7
 10
-158
 20
26.37199898895625
 30
0
 11
-159.8816640309269
 21
26.37199898895625
 31
0
  0
LINE
  8
1
 62
7
 10
-162.6650635094611
 20
18.65192378864674
 30
0
 11
-163.1863234664952
 21
19.5547725181809
 31
0
  0
LINE
  8
1
 62
7
 10
-122
 20
26.37199898895628
 30
0
 11
-122
 21
19.90192378864671
 31
0
  0
LINE
  8
1
 62
7
 10
-122
 20
26.37199898895628
 30
0
 11
-158
 21
26.37199898895625
 31
0
  0
LINE
  8
1
 62
7
 10
-117.3349364905389
 20
18.65192378864671
 30
0
 11
-116.8136765335048
 21
19.5547725181809
 31
0
  0
LINE
  8
1
 62
7
 10
-117.515120673346
 20
-18.3398356293046
 30
0
 11
-116.8136765335048
 21
-19.5547725181809
 31
0
  0
LINE
  8
1
 62
7
 10
-163.1863234664952
 20
-19.5547725181809
 30
0
 11
-162.484879326654
 21
-18.3398356293046
 31
0
  0
LINE
  8
1
 62
2
  6
DASHDOT
 10
-112.75
 20
69
 30
0
 11
-57.99999999999998
 21
69
 31
0
  0
LINE
  8
1
 62
2
  6
DASHDOT
 10
13.2205
 20
0
 30
0
 11
24
 21
0
 31
0
  0
LINE
  8
1
 62
2
  6
DASHDOT
 10
12.0585
 20
0
 30
0
 11
13.2205
 21
0
 31
0
  0
LINE
  8
1
 62
7
 10
20
 20
47
 30
0
 11
26.75
 21
47
 31
0
  0
LINE
  8
1
 62
7
 10
29.25
 20
91
 30
0
 11
29.25
 21
71.90473750965556
 31
0
  0
ARC
  8
1
 62
7
 10
1.479719125008216e-15
 20
102.5
 30
0
 40
4.5
 50
0
 51
90
  0
ARC
  8
1
 62
7
 10
-69.40000000000001
 20
68.98052604957006
 30
0
 40
9.000000000000007
 50
0
 51
16.75281834738626
  0
ARC
  8
1
 62
7
 10
-69.40000000000001
 20
68.98052604957006
 30
0
 40
9.000000000000009
 50
343.5496001733873
 51
0
  0
ARC
  8
1
 62
7
 10
-24
 20
77
 30
0
 40
2
 50
270
 51
0
  0
ARC
  8
1
 62
7
 10
-24
 20
69
 30
0
 40
6
 50
90
 51
270
  0
ARC
  8
1
 62
7
 10
-24
 20
61
 30
0
 40
2
 50
0
 51
90
  0
ARC
  8
1
 62
7
 10
24
 20
61
 30
0
 40
2
 50
90
 51
180
  0
ARC
  8
1
 62
7
 10
24
 20
69
 30
0
 40
6
 50
28.95502437185983
 51
90
  0
ARC
  8
1
 62
7
 10
24
 20
77
 30
0
 40
2
 50
180
 51
270
  0
ARC
  8
1
 62
7
 10
2.500000000000001
 20
104.2208862578843
 30
0
 40
7.220886257884302
 50
249.7438419995838
 51
290.2561580004162
  0
ARC
  8
1
 62
7
 10
-2.499999999999999
 20
104.2208862578843
 30
0
 40
7.220886257884301
 50
249.7438419995838
 51
290.2561580004162
  0
ARC
  8
1
 62
7
 10
-2.499999999999999
 20
95.2791137421157
 30
0
 40
7.220886257884302
 50
69.74384199958381
 51
110.2561580004162
  0
ARC
  8
1
 62
7
 10
2.500000000000001
 20
95.2791137421157
 30
0
 40
7.220886257884302
 50
69.74384199958379
 51
110.2561580004162
  0
ARC
  8
1
 62
7
 10
-144.3221008762885
 20
99.52995397209787
 30
0
 40
2.529953972097855
 50
240.0000000000006
 51
304.5650930945283
  0
ARC
  8
1
 62
7
 10
-140
 20
106.5534180126149
 30
0
 40
9.553418012614893
 50
252.4120462260065
 51
287.5879537739935
  0
ARC
  8
1
 62
7
 10
-135.6778991237115
 20
99.52995397209789
 30
0
 40
2.529953972097912
 50
235.4349069054719
 51
299.9999999999993
  0
ARC
  8
1
 62
7
 10
-135.6778991237115
 20
99.97004602790211
 30
0
 40
2.529953972097843
 50
60.00000000000038
 51
124.5650930945282
  0
ARC
  8
1
 62
7
 10
-144.3221008762885
 20
99.97004602790213
 30
0
 40
2.529953972097901
 50
55.43490690547168
 51
119.9999999999998
  0
ARC
  8
1
 62
7
 10
-140
 20
92.94658198738514
 30
0
 40
9.553418012614852
 50
72.41204622600644
 51
107.5879537739936
  0
ARC
  8
1
 62
7
 10
-5.249999999999998
 20
-48.16386114155711
 30
0
 40
15.16386114155714
 50
69.74384199958395
 51
110.2561580004161
  0
ARC
  8
1
 62
7
 10
5.250000000000002
 20
-48.16386114155711
 30
0
 40
15.16386114155714
 50
69.74384199958396
 51
110.2561580004161
  0
ARC
  8
1
 62
7
 10
5.250000000000002
 20
-30.83613885844311
 30
0
 40
15.16386114155693
 50
249.7438419995837
 51
290.2561580004163
  0
ARC
  8
1
 62
7
 10
-5.249999999999998
 20
-30.83613885844311
 30
0
 40
15.16386114155693
 50
249.7438419995837
 51
290.2561580004163
  0
ARC
  8
1
 62
7
 10
-149.0764118402058
 20
-38.3129033414055
 30
0
 40
5.312903341405536
 50
55.4349069054726
 51
119.9999999999994
  0
ARC
  8
1
 62
7
 10
-140
 20
-53.06217782649099
 30
0
 40
20.06217782649104
 50
72.4120462260061
 51
107.5879537739939
  0
ARC
  8
1
 62
7
 10
-130.9235881597942
 20
-38.3129033414055
 30
0
 40
5.31290334140549
 50
60.00000000000065
 51
124.5650930945274
  0
ARC
  8
1
 62
7
 10
-130.9235881597942
 20
-40.6870966585945
 30
0
 40
5.312903341405536
 50
235.4349069054726
 51
299.9999999999993
  0
ARC
  8
1
 62
7
 10
-149.0764118402058
 20
-40.6870966585945
 30
0
 40
5.31290334140549
 50
240.0000000000006
 51
304.5650930945274
  0
ARC
  8
1
 62
7
 10
-140
 20
-25.93782217350901
 30
0
 40
20.06217782649104
 50
252.4120462260061
 51
287.5879537739939
  0
ARC
  8
1
 62
7
 10
-140
 20
102.5
 30
0
 40
4.5
 50
0
 51
180
  0
ARC
  8
1
 62
7
 10
1.479719125008216e-15
 20
102.5
 30
0
 40
4.5
 50
90
 51
180
  0
ARC
  8
1
 62
7
 10
-99.5
 20
55.5
 30
0
 40
1.5
 50
0
 51
90
  0
ARC
  8
1
 62
7
 10
-109.25
 20
55.5
 30
0
 40
1.5
 50
90
 51
180
  0
ARC
  8
1
 62
7
 10
-99.5
 20
82.5
 30
0
 40
1.5
 50
270
 51
0
  0
ARC
  8
1
 62
7
 10
-109.25
 20
82.5
 30
0
 40
1.5
 50
180
 51
270
  0
ARC
  8
1
 62
7
 10
-12
 20
8
 30
0
 40
9.000000000000009
 50
136.6582417727776
 51
180
  0
ARC
  8
1
 62
7
 10
1.479719125008216e-15
 20
0
 30
0
 40
21
 50
180
 51
238.5510186106205
  0
ARC
  8
1
 62
7
 10
12
 20
8
 30
0
 40
9.000000000000011
 50
0
 51
43.3417582272224
  0
ARC
  8
1
 62
7
 10
1.479719125008216e-15
 20
0
 30
0
 40
21.00000000000002
 50
301.4489813893795
 51
0
  0
ARC
  8
1
 62
7
 10
-140
 20
70.31772184698477
 30
0
 40
43.94572285802851
 50
252.4120462260064
 51
287.5879537739937
  0
ARC
  8
1
 62
7
 10
-159.8816640309269
 20
38.00978726060652
 30
0
 40
11.63778827165024
 50
240.0000000000002
 51
304.5650930945273
  0
ARC
  8
1
 62
7
 10
-120.1183359690731
 20
38.00978726060658
 30
0
 40
11.6377882716503
 50
235.4349069054729
 51
300.0000000000002
  0
ARC
  8
1
 62
7
 10
-140
 20
-1.118584287042552
 30
0
 40
43.9457228580285
 50
102.4120462260061
 51
107.5879537739936
  0
ARC
  8
1
 62
7
 10
-159.8816640309269
 20
31.18935029933569
 30
0
 40
11.63778827165025
 50
114.2529236429054
 51
119.9999999999997
  0
ARC
  8
1
 62
7
 10
-120.1183359690731
 20
31.18935029933564
 30
0
 40
11.63778827165028
 50
114.2529236429055
 51
124.5650930945271
  0
ARC
  8
1
 62
7
 10
-159.8816640309269
 20
31.18935029933569
 30
0
 40
11.63778827165027
 50
55.43490690547271
 51
65.74707635709441
  0
ARC
  8
1
 62
7
 10
-140
 20
-1.118584287042552
 30
0
 40
43.94572285802851
 50
72.4120462260064
 51
77.58795377399387
  0
ARC
  8
1
 62
7
 10
-120.1183359690731
 20
31.18935029933564
 30
0
 40
11.63778827165032
 50
59.99999999999975
 51
65.74707635709446
  0
ARC
  8
1
 62
7
 10
-11.5
 20
59.58807577522407
 30
0
 40
33.2160767862678
 50
249.7438419995838
 51
290.2561580004162
  0
ARC
  8
1
 62
7
 10
11.5
 20
59.58807577522407
 30
0
 40
33.2160767862678
 50
249.7438419995838
 51
290.2561580004162
  0
ARC
  8
1
 62
7
 10
-11.5
 20
9.611061784718146
 30
0
 40
33.21607678626781
 50
104.2857655669643
 51
110.2561580004162
  0
ARC
  8
1
 62
7
 10
11.5
 20
9.611061784718146
 30
0
 40
33.21607678626781
 50
104.2857655669643
 51
110.2561580004162
  0
ARC
  8
1
 62
7
 10
11.5
 20
9.611061784718146
 30
0
 40
33.21607678626781
 50
69.74384199958382
 51
75.71423443303568
  0
ARC
  8
1
 62
7
 10
-11.5
 20
9.611061784718146
 30
0
 40
33.21607678626781
 50
69.74384199958382
 51
75.71423443303568
  0
ARC
  8
1
 62
7
 10
-133.4369630441518
 20
0
 30
0
 40
33.43696304415184
 50
342.4120462260061
 51
17.58795377399375
  0
ARC
  8
1
 62
7
 10
-108.8548389023426
 20
-15.12735306700959
 30
0
 40
8.854838902342607
 50
0
 51
34.56509309452694
  0
ARC
  8
1
 62
7
 10
-108.8548389023426
 20
15.12735306700961
 30
0
 40
8.854838902342607
 50
0
 51
29.99999999999994
  0
ARC
  8
1
 62
7
 10
-84.56303695584829
 20
0
 30
0
 40
33.43696304415172
 50
162.4120462260062
 51
197.5879537739939
  0
ARC
  8
1
 62
7
 10
-109.1451610976575
 20
-15.12735306700959
 30
0
 40
8.854838902342493
 50
180
 51
210.0000000000004
  0
ARC
  8
1
 62
7
 10
-109.1451610976575
 20
15.12735306700961
 30
0
 40
8.854838902342493
 50
180
 51
214.5650930945277
  0
ARC
  8
1
 62
7
 10
-109.1451610976575
 20
15.12735306700961
 30
0
 40
8.854838902342502
 50
149.9999999999997
 51
180
  0
ARC
  8
1
 62
7
 10
-109.1451610976575
 20
-15.12735306700959
 30
0
 40
8.854838902342479
 50
145.4349069054726
 51
180
  0
ARC
  8
1
 62
7
 10
-108.8548389023426
 20
15.12735306700961
 30
0
 40
8.854838902342614
 50
325.4349069054727
 51
0
  0
ARC
  8
1
 62
7
 10
-108.8548389023426
 20
-15.12735306700959
 30
0
 40
8.854838902342609
 50
329.9999999999999
 51
0
  0
ARC
  8
1
 62
7
 10
-146.5630369558482
 20
0
 30
0
 40
33.43696304415183
 50
162.4120462260063
 51
197.5879537739938
  0
ARC
  8
1
 62
7
 10
-171.1451610976574
 20
-15.12735306700959
 30
0
 40
8.854838902342584
 50
145.4349069054731
 51
180
  0
ARC
  8
1
 62
7
 10
-171.1451610976574
 20
15.12735306700961
 30
0
 40
8.8548389023426
 50
150.0000000000001
 51
180
  0
ARC
  8
1
 62
7
 10
-195.4369630441517
 20
0
 30
0
 40
33.43696304415174
 50
342.4120462260061
 51
17.5879537739938
  0
ARC
  8
1
 62
7
 10
-170.8548389023425
 20
-15.12735306700959
 30
0
 40
8.854838902342511
 50
329.9999999999996
 51
0
  0
ARC
  8
1
 62
7
 10
-170.8548389023425
 20
15.12735306700961
 30
0
 40
8.854838902342532
 50
325.4349069054724
 51
0
  0
ARC
  8
1
 62
7
 10
-170.8548389023425
 20
15.12735306700961
 30
0
 40
8.854838902342493
 50
0
 51
30.00000000000031
  0
ARC
  8
1
 62
7
 10
-170.8548389023425
 20
-15.12735306700959
 30
0
 40
8.854838902342493
 50
0
 51
34.5650930945273
  0
ARC
  8
1
 62
7
 10
-171.1451610976574
 20
15.12735306700961
 30
0
 40
8.854838902342607
 50
180
 51
214.5650930945273
  0
ARC
  8
1
 62
7
 10
-171.1451610976574
 20
-15.12735306700959
 30
0
 40
8.854838902342607
 50
180
 51
210.0000000000001
  0
ARC
  8
1
 62
7
 10
-160.5
 20
19.90192378864674
 30
0
 40
2.500000000000008
 50
209.9999999999999
 51
0
  0
ARC
  8
1
 62
7
 10
-119.5
 20
19.90192378864671
 30
0
 40
2.5
 50
180
 51
330.0000000000001
  0
ARC
  8
1
 62
7
 10
-129
 20
-22.6028168082816
 30
0
 40
1.999999999999991
 50
104.47751218593
 51
180
  0
ARC
  8
1
 62
7
 10
-140
 20
20
 30
0
 40
42.00000000000002
 50
284.4775121859299
 51
297.1695432248167
  0
ARC
  8
1
 62
7
 10
-119.6801841828071
 20
-19.5898356293046
 30
0
 40
2.499999999999996
 50
30.00000000000006
 51
117.1695432248155
  0
ARC
  8
1
 62
7
 10
-160.3198158171929
 20
-19.5898356293046
 30
0
 40
2.500000000000002
 50
62.83045677518482
 51
150.0000000000001
  0
ARC
  8
1
 62
7
 10
-140
 20
20
 30
0
 40
41.99999999999998
 50
242.8304567751832
 51
255.5224878140701
  0
ARC
  8
1
 62
7
 10
-151
 20
-22.6028168082816
 30
0
 40
2
 50
0
 51
75.52248781407002
  0
ARC
  8
1
 62
7
 10
24
 20
69
 30
0
 40
6
 50
270
 51
28.95502437185983
  0
CIRCLE
  8
1
 62
7
 10
24
 20
69
 30
0
 40
3.5
  0
CIRCLE
  8
1
 62
7
 10
-24
 20
69
 30
0
 40
3.500000000000011
  0
CIRCLE
  8
1
 62
7
 10
1.479719125008216e-15
 20
0
 30
0
 40
17.5
  0
CIRCLE
  8
1
 62
2
 10
1.479719125008216e-15
 20
0
 30
0
 40
13.2205
  0
CIRCLE
  8
1
 62
7
 10
1.479719125008216e-15
 20
0
 30
0
 40
12.0585
  0
ARC
  8
1
 62
7
 10
-62.01519762301344
 20
66.8
 30
0
 40
1.299999999999997
 50
270
 51
343.5496001733876
  0
ARC
  8
1
 62
7
 10
-62.02680968756652
 20
71.2
 30
0
 40
1.300000000000002
 50
16.75281834738601
 51
90
  0
ARC
  8
1
 62
7
 10
-20
 20
49
 30
0
 40
2
 50
180
 51
270
  0
ARC
  8
1
 62
7
 10
-20
 20
89
 30
0
 40
2
 50
90
 51
180
  0
ARC
  8
1
 62
7
 10
20
 20
89
 30
0
 40
2
 50
0
 51
90
  0
ARC
  8
1
 62
7
 10
20
 20
49
 30
0
 40
2
 50
270
 51
0
  0
ARC
  8
1
 62
7
 10
-2.999999999999999
 20
55.33333333333334
 30
0
 40
1.333333333333332
 50
180
 51
270
  0
ARC
  8
1
 62
7
 10
3.000000000000001
 20
62.66666666666666
 30
0
 40
1.333333333333334
 50
0
 51
90
  0
ARC
  8
1
 62
7
 10
-2.999999999999999
 20
55.33333333333334
 30
0
 40
1
 50
180
 51
270
  0
ARC
  8
1
 62
7
 10
3.000000000000001
 20
62.66666666666666
 30
0
 40
1.000000000000001
 50
0
 51
90
  0
ARC
  8
1
 62
7
 10
-65
 20
49
 30
0
 40
2
 50
270
 51
0
  0
ARC
  8
1
 62
7
 10
-96
 20
49
 30
0
 40
2
 50
180
 51
270
  0
ARC
  8
1
 62
7
 10
-96
 20
89
 30
0
 40
2
 50
90
 51
180
  0
ARC
  8
1
 62
7
 10
-65
 20
89
 30
0
 40
2
 50
0
 51
90
  0
ARC
  8
1
 62
7
 10
-165.25
 20
91
 30
0
 40
4
 50
90
 51
180
  0
ARC
  8
1
 62
7
 10
-114.75
 20
91
 30
0
 40
4
 50
0
 51
90
  0
ARC
  8
1
 62
7
 10
-169.575
 20
47.125
 30
0
 40
0.3250000000000028
 50
270
 51
0
  0
ARC
  8
1
 62
7
 10
-169.675
 20
46.47499999999999
 30
0
 40
0.3250000000000099
 50
90
 51
180
  0
ARC
  8
1
 62
7
 10
-110.425
 20
47.125
 30
0
 40
0.3250000000000028
 50
180
 51
270
  0
ARC
  8
1
 62
7
 10
-110.325
 20
46.47499999999999
 30
0
 40
0.3250000000000028
 50
0
 51
90
  0
ARC
  8
1
 62
7
 10
29.675
 20
46.47499999999999
 30
0
 40
0.3249999999999993
 50
0
 51
90
  0
ARC
  8
1
 62
7
 10
29.575
 20
47.125
 30
0
 40
0.3249999999999993
 50
180
 51
270
  0
ARC
  8
1
 62
7
 10
-29.67500000000001
 20
46.47499999999999
 30
0
 40
0.3250000000000099
 50
90
 51
180
  0
ARC
  8
1
 62
7
 10
-29.57499999999999
 20
47.125
 30
0
 40
0.3250000000000028
 50
270
 51
0
  0
ARC
  8
1
 62
7
 10
25.25
 20
91
 30
0
 40
4
 50
0
 51
90
  0
ARC
  8
1
 62
7
 10
-25.25
 20
91
 30
0
 40
4
 50
90
 51
180
  0
ARC
  8
1
 62
7
 10
-4.999999999999998
 20
-61
 30
0
 40
2
 50
180
 51
270
  0
ARC
  8
1
 62
7
 10
5.000000000000002
 20
-61
 30
0
 40
2
 50
270
 51
0
  0
ARC
  8
1
 62
7
 10
-145
 20
-61
 30
0
 40
2
 50
180
 51
270
  0
ARC
  8
1
 62
7
 10
-135
 20
-61
 30
0
 40
2
 50
270
 51
0
  0
ARC
  8
1
 62
7
 10
20
 20
15.54983443527075
 30
0
 40
2
 50
180
 51
223.3417582272223
  0
ARC
  8
1
 62
7
 10
12
 20
-19.6214168703486
 30
0
 40
1.99999999999999
 50
121.4489813893795
 51
180
  0
ARC
  8
1
 62
7
 10
-12
 20
-19.6214168703486
 30
0
 40
2.000000000000002
 50
0
 51
58.5510186106202
  0
ARC
  8
1
 62
7
 10
-20
 20
15.54983443527075
 30
0
 40
1.999999999999991
 50
316.6582417727777
 51
0
  0
TEXT
  8
1
 62
7
 10
30.43024243294584
 20
113.4096583191922
 30
0
 40
3.149999999999999
  1
DWG No.  SV-4002
 41
0.9
  0
TEXT
  8
1
 62
7
 10
30.43024243294584
 20
106.4796583191922
 30
0
 40
3.149999999999999
  1
REV.     00
 41
0.9
  0
TEXT
  8
1
 62
7
 10
30.43024243294584
 20
99.54965831919222
 30
0
 40
3.149999999999999
  1
Yamatake Corporation
 41
0.9
  0
ENDSEC
  0
EOF
