  0
SECTION
  2
HEADER
  9
$ACADVER
  1
AC1009
  9
$INSBASE
 10
0
 20
0
  9
$EXTMIN
 10
-202
 20
-78.00000000000001
  9
$EXTMAX
 10
105.6259841879804
 20
168.0356644159319
  9
$LIMMIN
 10
-202
 20
-78.00000000000001
  9
$LIMMAX
 10
105.6259841879804
 20
168.0356644159319
  9
$VIEWCTR
 10
10
 20
10
  9
$VIEWSIZE
 40
10
  9
$SNAPMODE
 70
0
  9
$SNAPUNIT
 10
1
 20
1
  9
$SNAPBASE
 10
0
 20
0
  9
$SNAPANG
 50
0
  9
$SNAPSTYLE
 70
0
  9
$SNAPISOPAIR
 70
0
  9
$GRIDMODE
 70
0
  9
$GRIDUNIT
 10
0
 20
0
  9
$ORTHOMODE
 70
0
  9
$REGENMODE
 70
1
  9
$FILLMODE
 70
1
  9
$QTEXTMODE
 70
0
  9
$DRAGMODE
 70
2
  9
$LTSCALE
 40
1
  9
$OSMODE
 70
0
  9
$ATTMODE
 70
1
  9
$TEXTSIZE
 40
3.5
  9
$TRACEWID
 40
0.5
  9
$TEXTSTYLE
  7
STANDARD
  9
$CLAYER
  8
0
  9
$CELTYPE
  6
BYLAYER
  9
$CECOLOR
 62
256
  9
$DIMSCALE
 40
1
  9
$DIMASZ
 40
0.18
  9
$DIMEXO
 40
0.0625
  9
$DIMDLI
 40
0.38
  9
$DIMRND
 40
0
  9
$DIMDLE
 40
0
  9
$DIMEXE
 40
0.18
  9
$DIMTP
 40
0
  9
$DIMTM
 40
0
  9
$DIMTXT
 40
0.18
  9
$DIMCEN
 40
0.09
  9
$DIMTSZ
 40
0
  9
$DIMTOL
 70
0
  9
$DIMLIM
 70
0
  9
$DIMTIH
 70
1
  9
$DIMTOH
 70
1
  9
$DIMSE1
 70
0
  9
$DIMSE2
 70
0
  9
$DIMTAD
 70
0
  9
$DIMZIN
 70
0
  9
$DIMBLK
  1

  9
$DIMASO
 70
1
  9
$DIMSHO
 70
1
  9
$DIMPOST
  1

  9
$DIMAPOST
  1

  9
$DIMALT
 70
0
  9
$DIMALTD
 70
2
  9
$DIMALTF
 40
25.4
  9
$DIMLFAC
 40
1
  9
$DIMTOFL
 70
0
  9
$DIMTVP
 40
0
  9
$DIMTIX
 70
0
  9
$DIMSOXD
 70
0
  9
$DIMSAH
 70
0
  9
$DIMBLK1
  1

  9
$DIMBLK2
  1

  9
$DIMSTYLE
  2
*UNNAMED
  9
$DIMCLRD
 70
0
  9
$DIMCLRE
 70
0
  9
$DIMCLRT
 70
0
  9
$DIMTFAC
 40
1
  9
$DIMGAP
 40
0.09
  9
$LUNITS
 70
2
  9
$LUPREC
 70
4
  9
$AXISMODE
 70
0
  9
$AXISUNIT
 10
0
 20
0
  9
$SKETCHINC
 40
0.1
  9
$FILLETRAD
 40
2
  9
$AUNITS
 70
0
  9
$AUPREC
 70
0
  9
$MENU
  1
ACAD
  9
$ELEVATION
 40
0
  9
$THICKNESS
 40
0
  9
$VIEWDIR
 10
0
 20
0
 30
1
  9
$LIMCHECK
 70
0
  9
$BLIPMODE
 70
1
  9
$CHAMFERA
 40
0
  9
$CHAMFERB
 40
0
  9
$FASTZOOM
 70
1
  9
$SKPOLY
 70
0
  9
$ANGBASE
 50
0
  9
$ANGDIR
 70
0
  9
$PDMODE
 70
0
  9
$PDSIZE
 40
0
  9
$PLINEWID
 40
0
  9
$COORDS
 70
2
  0
ENDSEC
  0
SECTION
  2
TABLES
  0
TABLE
  2
DIMSTYLE
 70
0
  0
ENDTAB
  0
TABLE
  2
LTYPE
 70
9
  0
LTYPE
  2
CONTINUOUS
 70
64
  3
Solid line
 72
65
 73
0
 40
0
  0
LTYPE
  2
BORDER
 70
64
  3
__ __ . __ __ .
 72
65
 73
6
 40
14.16698611392015
 49
4.0477103182629
 49
-2.02385515913145
 49
4.0477103182629
 49
-2.02385515913145
 49
0
 49
-2.02385515913145
  0
LTYPE
  2
CENTER
 70
64
  3
____ _ ____ _
 72
65
 73
4
 40
16.1908412730516
 49
10.11927579565725
 49
-2.02385515913145
 49
2.02385515913145
 49
-2.02385515913145
  0
LTYPE
  2
DASHDOT
 70
64
  3
__ . __ . __ .
 72
65
 73
4
 40
8.0954206365258
 49
4.0477103182629
 49
-2.02385515913145
 49
0
 49
-2.02385515913145
  0
LTYPE
  2
DASHED
 70
64
  3
__ __ __ __ __
 72
65
 73
2
 40
6.071565477394349
 49
4.0477103182629
 49
-2.02385515913145
  0
LTYPE
  2
DIVIDE
 70
64
  3
__ . . __ . . 
 72
65
 73
6
 40
10.11927579565725
 49
4.0477103182629
 49
-2.02385515913145
 49
0
 49
-2.02385515913145
 49
0
 49
-2.02385515913145
  0
LTYPE
  2
DOT
 70
64
  3
..............
 72
65
 73
4
 40
4.0477103182629
 49
0
 49
-2.02385515913145
 49
0
 49
-2.02385515913145
  0
LTYPE
  2
HIDDEN
 70
64
  3
_ _ _ _ _ _ _
 72
65
 73
2
 40
3.035782738697175
 49
2.02385515913145
 49
-1.011927579565725
  0
LTYPE
  2
PHANTOM
 70
64
  3
_____ _ _ _____ _ _ 
 72
65
 73
6
 40
20.2385515913145
 49
10.11927579565725
 49
-2.02385515913145
 49
2.02385515913145
 49
-2.02385515913145
 49
2.02385515913145
 49
-2.02385515913145
  0
ENDTAB
  0
TABLE
  2
LAYER
 70
3
  0
LAYER
  2
1
 70
0
 62
7
  6
CONTINUOUS
  0
LAYER
  2
0
 70
0
 62
7
  6
CONTINUOUS
  0
ENDTAB
  0
TABLE
  2
STYLE
 70
4
  0
STYLE
  2
STANDARD
 70
0
 40
0
 41
1
 50
0
 71
0
 42
3.5
  3
txt
  4

  0
STYLE
  2
SIMPLEX
 70
0
 40
0
 41
1
 50
0
 71
0
 42
3.5
  3
simplex
  4

  0
STYLE
  2
COMPLEX
 70
0
 40
0
 41
1
 50
0
 71
0
 42
3.5
  3
complex
  4

  0
STYLE
  2
ITALIC
 70
0
 40
0
 41
1
 50
0
 71
0
 42
3.5
  3
italic
  4

  0
ENDTAB
  0
TABLE
  2
VIEW
 70
0
  0
ENDTAB
  0
ENDSEC
  0
SECTION
  2
BLOCKS
  0
ENDSEC
  0
SECTION
  2
ENTITIES
  0
LINE
  8
1
 62
7
 10
-20
 20
73.8
 30
0
 11
20
 21
73.8
 31
0
  0
LINE
  8
1
 62
7
 10
20
 20
117.8
 30
0
 11
-20
 21
117.8
 31
0
  0
LINE
  8
1
 62
7
 10
-22
 20
87.8
 30
0
 11
-22
 21
75.8
 31
0
  0
LINE
  8
1
 62
7
 10
22
 20
75.8
 30
0
 11
22
 21
87.8
 31
0
  0
LINE
  8
1
 62
7
 10
22
 20
103.8
 30
0
 11
22
 21
115.8
 31
0
  0
LINE
  8
1
 62
7
 10
-22
 20
115.8
 30
0
 11
-22
 21
103.8
 31
0
  0
LINE
  8
1
 62
2
  6
DASHDOT
 10
37.49999999999999
 20
95.79999999999998
 30
0
 11
-37.5
 21
95.79999999999998
 31
0
  0
LINE
  8
1
 62
2
  6
DASHDOT
 10
24
 20
103.3
 30
0
 11
24
 21
88.29999999999998
 31
0
  0
LINE
  8
1
 62
2
  6
DASHDOT
 10
-23.99999999999999
 20
103.3
 30
0
 11
-23.99999999999999
 21
88.29999999999998
 31
0
  0
LINE
  8
1
 62
2
  6
DASHDOT
 10
5.850788603600782e-15
 20
148.9
 30
0
 11
5.295763827461996e-14
 21
142.0534180126149
 31
0
  0
LINE
  8
1
 62
7
 10
-35.00000000000001
 20
56.79999999999999
 30
0
 11
-29
 21
56.8
 31
0
  0
LINE
  8
1
 62
7
 10
35
 20
56.79999999999999
 30
0
 11
35
 21
131
 31
0
  0
LINE
  8
1
 62
7
 10
31.00000000000001
 20
135
 30
0
 11
-30.99999999999998
 21
135
 31
0
  0
LINE
  8
1
 62
7
 10
-35.00000000000001
 20
131
 30
0
 11
-35.00000000000001
 21
56.79999999999999
 31
0
  0
LINE
  8
1
 62
7
 10
-24.99999999999999
 20
135
 30
0
 11
-24.99999999999999
 21
135.5
 31
0
  0
LINE
  8
1
 62
7
 10
-24.99999999999999
 20
135.5
 30
0
 11
-6.099999999999995
 21
135.5
 31
0
  0
LINE
  8
1
 62
7
 10
25.00000000000001
 20
135.5
 30
0
 11
25.00000000000001
 21
135
 31
0
  0
LINE
  8
1
 62
7
 10
5.850788603600782e-15
 20
31.17691453623978
 30
0
 11
-27
 21
15.58845726811988
 31
0
  0
LINE
  8
1
 62
7
 10
-27
 20
15.58845726811988
 30
0
 11
-27
 21
-1.4210854715202e-14
 31
0
  0
LINE
  8
1
 62
7
 10
-27
 20
-15.58845726811988
 30
0
 11
5.850788603600782e-15
 21
-31.17691453623981
 31
0
  0
LINE
  8
1
 62
7
 10
5.850788603600782e-15
 20
-31.17691453623981
 30
0
 11
27.00000000000001
 21
-15.58845726811988
 31
0
  0
LINE
  8
1
 62
7
 10
27.00000000000001
 20
-15.58845726811988
 30
0
 11
27.00000000000001
 21
15.58845726811988
 31
0
  0
LINE
  8
1
 62
7
 10
27.00000000000001
 20
15.58845726811988
 30
0
 11
5.850788603600782e-15
 21
31.17691453623978
 31
0
  0
LINE
  8
1
 62
7
 10
-27
 20
-1.4210854715202e-14
 30
0
 11
-27
 21
-15.58845726811988
 31
0
  0
LINE
  8
1
 62
2
  6
DASHDOT
 10
35.10000000000002
 20
-1.4210854715202e-14
 30
0
 11
-30
 21
-1.77635683940025e-14
 31
0
  0
LINE
  8
1
 62
7
 10
-29.99999999999999
 20
11.8252943519265
 30
0
 11
-30
 21
-1.77635683940025e-14
 31
0
  0
LINE
  8
1
 62
2
  6
DASHDOT
 10
-30
 20
-1.77635683940025e-14
 30
0
 11
-35.10000000000002
 21
-1.4210854715202e-14
 31
0
  0
LINE
  8
1
 62
7
 10
30
 20
-1.77635683940025e-14
 30
0
 11
30.00000000000001
 21
11.8252943519265
 31
0
  0
LINE
  8
1
 62
7
 10
21.00000000000001
 20
27.12235289270485
 30
0
 11
21.00000000000002
 21
36.79999999999999
 31
0
  0
LINE
  8
1
 62
7
 10
-29
 20
56.8
 30
0
 11
-29
 21
54.20982447316582
 31
0
  0
LINE
  8
1
 62
7
 10
-29
 20
56.8
 30
0
 11
29
 21
56.8
 31
0
  0
LINE
  8
1
 62
7
 10
-29
 20
36.8
 30
0
 11
29
 21
36.79999999999999
 31
0
  0
LINE
  8
1
 62
7
 10
29
 20
36.79999999999999
 30
0
 11
29
 21
39.39017552683417
 31
0
  0
LINE
  8
1
 62
7
 10
29
 20
56.8
 30
0
 11
35
 21
56.79999999999999
 31
0
  0
LINE
  8
1
 62
7
 10
-20.99999999999999
 20
36.79999999999999
 30
0
 11
-20.99999999999999
 21
27.12235289270488
 31
0
  0
LINE
  8
1
 62
7
 10
-166.7431578064991
 20
39.39017552683417
 30
0
 11
-166.7431578064991
 21
46.8
 31
0
  0
LINE
  8
1
 62
7
 10
-133.2568421935009
 20
46.8
 30
0
 11
-133.2568421935009
 21
39.39017552683417
 31
0
  0
LINE
  8
1
 62
7
 10
-117.5949483984431
 20
38.76590745876346
 30
0
 11
-116.5136843870017
 21
39.39017552683417
 31
0
  0
LINE
  8
1
 62
7
 10
-116.5136843870017
 20
39.39017552683417
 30
0
 11
-116.5136843870017
 21
46.8
 31
0
  0
LINE
  8
1
 62
7
 10
-182.4050516015569
 20
38.76590745876346
 30
0
 11
-183.4863156129983
 21
39.39017552683417
 31
0
  0
LINE
  8
1
 62
7
 10
-183.4863156129983
 20
39.39017552683417
 30
0
 11
-183.4863156129983
 21
46.8
 31
0
  0
LINE
  8
1
 62
7
 10
-166.7431578064991
 20
46.8
 30
0
 11
-166.7431578064991
 21
54.20982447316582
 31
0
  0
LINE
  8
1
 62
7
 10
-133.2568421935009
 20
54.20982447316582
 30
0
 11
-133.2568421935009
 21
46.8
 31
0
  0
LINE
  8
1
 62
7
 10
-116.5136843870017
 20
54.20982447316582
 30
0
 11
-117.5949483984431
 21
54.83409254123653
 31
0
  0
LINE
  8
1
 62
7
 10
-116.5136843870017
 20
46.8
 30
0
 11
-116.5136843870017
 21
54.20982447316582
 31
0
  0
LINE
  8
1
 62
7
 10
-183.4863156129983
 20
54.20982447316582
 30
0
 11
-182.4050516015569
 21
54.83409254123653
 31
0
  0
LINE
  8
1
 62
7
 10
-183.4863156129983
 20
46.8
 30
0
 11
-183.4863156129983
 21
54.20982447316582
 31
0
  0
LINE
  8
1
 62
2
  6
DASHDOT
 10
-150
 20
148.5
 30
0
 11
-150
 21
135.5
 31
0
  0
LINE
  8
1
 62
7
 10
-175.0681850824731
 20
36.8
 30
0
 11
-171
 21
36.8
 31
0
  0
LINE
  8
1
 62
7
 10
-124.9318149175269
 20
56.8
 30
0
 11
-175.0681850824731
 21
56.8
 31
0
  0
LINE
  8
1
 62
7
 10
-29
 20
54.20982447316582
 30
0
 11
-29
 21
39.39017552683417
 31
0
  0
LINE
  8
1
 62
7
 10
29
 20
54.20982447316582
 30
0
 11
29
 21
56.8
 31
0
  0
LINE
  8
1
 62
7
 10
29
 20
39.39017552683417
 30
0
 11
29
 21
54.20982447316582
 31
0
  0
LINE
  8
1
 62
7
 10
-29
 20
39.39017552683417
 30
0
 11
-29
 21
36.8
 31
0
  0
LINE
  8
1
 62
7
 10
-119
 20
135
 30
0
 11
-181
 21
135
 31
0
  0
LINE
  8
1
 62
7
 10
-175
 20
135
 30
0
 11
-175
 21
135.5
 31
0
  0
LINE
  8
1
 62
7
 10
-175
 20
135.5
 30
0
 11
-156.1
 21
135.5
 31
0
  0
LINE
  8
1
 62
7
 10
-125
 20
135.5
 30
0
 11
-125
 21
135
 31
0
  0
LINE
  8
1
 62
7
 10
-185
 20
131
 30
0
 11
-185
 21
56.79999999999999
 31
0
  0
LINE
  8
1
 62
7
 10
-121
 20
56.8
 30
0
 11
-115
 21
56.79999999999999
 31
0
  0
LINE
  8
1
 62
7
 10
-179
 20
56.8
 30
0
 11
-121
 21
56.8
 31
0
  0
LINE
  8
1
 62
7
 10
-185
 20
56.79999999999999
 30
0
 11
-179
 21
56.8
 31
0
  0
LINE
  8
1
 62
7
 10
-185
 20
131
 30
0
 11
-185
 21
56.79999999999999
 31
0
  0
LINE
  8
1
 62
7
 10
-100
 20
117.8
 30
0
 11
-73.50000000000001
 21
117.8
 31
0
  0
LINE
  8
1
 62
7
 10
-67.00000000000001
 20
115.8
 30
0
 11
-67.00000000000001
 21
75.8
 31
0
  0
LINE
  8
1
 62
7
 10
-69.00000000000001
 20
73.8
 30
0
 11
-72.00000000000001
 21
73.8
 31
0
  0
LINE
  8
1
 62
7
 10
-102
 20
75.8
 30
0
 11
-102
 21
82.29999999999998
 31
0
  0
LINE
  8
1
 62
7
 10
-72.00000000000001
 20
117.8
 30
0
 11
-72.00000000000001
 21
73.8
 31
0
  0
LINE
  8
1
 62
7
 10
-72.00000000000001
 20
117.8
 30
0
 11
-69.00000000000001
 21
117.8
 31
0
  0
LINE
  8
1
 62
7
 10
-72.00000000000001
 20
73.8
 30
0
 11
-73.50000000000001
 21
73.8
 31
0
  0
LINE
  8
1
 62
7
 10
-73.50000000000001
 20
73.8
 30
0
 11
-73.50000000000001
 21
117.8
 31
0
  0
LINE
  8
1
 62
7
 10
-73.50000000000001
 20
73.8
 30
0
 11
-100
 21
73.8
 31
0
  0
LINE
  8
1
 62
7
 10
-73.50000000000001
 20
117.8
 30
0
 11
-72.00000000000001
 21
117.8
 31
0
  0
LINE
  8
1
 62
7
 10
-113.5
 20
107.8
 30
0
 11
-103.5
 21
107.8
 31
0
  0
LINE
  8
1
 62
7
 10
-102
 20
109.3
 30
0
 11
-102
 21
115.8
 31
0
  0
LINE
  8
1
 62
7
 10
-102
 20
82.29999999999998
 30
0
 11
-102
 21
109.3
 31
0
  0
LINE
  8
1
 62
7
 10
-103.5
 20
83.79999999999998
 30
0
 11
-113.5
 21
83.79999999999998
 31
0
  0
LINE
  8
1
 62
7
 10
-115
 20
56.79999999999999
 30
0
 11
-115
 21
131
 31
0
  0
LINE
  8
1
 62
2
  6
DASHDOT
 10
-187
 20
95.79999999999998
 30
0
 11
-63.40000000000002
 21
95.79999999999998
 31
0
  0
LINE
  8
1
 62
2
  6
DASHDOT
 10
-202
 20
-1.4210854715202e-14
 30
0
 11
-97.99999999999997
 21
-1.4210854715202e-14
 31
0
  0
LINE
  8
1
 62
7
 10
-101.8303276340212
 20
-30.170220456622
 30
0
 11
-102.4115427318801
 21
-31.17691453623981
 31
0
  0
LINE
  8
1
 62
7
 10
-102.4115427318801
 20
-31.17691453623981
 30
0
 11
-111
 21
-31.17691453623981
 31
0
  0
LINE
  8
1
 62
7
 10
-101.8303276340212
 20
30.17022045662202
 30
0
 11
-102.4115427318801
 21
31.17691453623978
 31
0
  0
LINE
  8
1
 62
7
 10
-102.4115427318801
 20
31.17691453623978
 30
0
 11
-111
 21
31.17691453623978
 31
0
  0
LINE
  8
1
 62
7
 10
-111
 20
15.58845726811988
 30
0
 11
-102.4115427318801
 21
15.58845726811988
 31
0
  0
LINE
  8
1
 62
7
 10
-102.4115427318801
 20
-15.58845726811988
 30
0
 11
-111
 21
-15.58845726811988
 31
0
  0
LINE
  8
1
 62
7
 10
-100
 20
23.33934473195767
 30
0
 11
-100
 21
-23.33934473195769
 31
0
  0
LINE
  8
1
 62
7
 10
-119.5884572681199
 20
-31.17691453623981
 30
0
 11
-120.1696723659788
 21
-30.170220456622
 31
0
  0
LINE
  8
1
 62
7
 10
-111
 20
-31.17691453623981
 30
0
 11
-119.5884572681199
 21
-31.17691453623981
 31
0
  0
LINE
  8
1
 62
7
 10
-119.5884572681199
 20
31.17691453623978
 30
0
 11
-120.1696723659788
 21
30.17022045662202
 31
0
  0
LINE
  8
1
 62
7
 10
-111
 20
31.17691453623978
 30
0
 11
-119.5884572681199
 21
31.17691453623978
 31
0
  0
LINE
  8
1
 62
7
 10
-119.5884572681199
 20
15.58845726811988
 30
0
 11
-111
 21
15.58845726811988
 31
0
  0
LINE
  8
1
 62
7
 10
-111
 20
-15.58845726811988
 30
0
 11
-119.5884572681199
 21
-15.58845726811988
 31
0
  0
LINE
  8
1
 62
7
 10
-121.9999999999999
 20
-23.33934473195769
 30
0
 11
-121.9999999999999
 21
23.33934473195767
 31
0
  0
LINE
  8
1
 62
7
 10
-179.8303276340212
 20
-30.170220456622
 30
0
 11
-180.4115427318801
 21
-31.17691453623981
 31
0
  0
LINE
  8
1
 62
7
 10
-180.4115427318801
 20
-31.17691453623981
 30
0
 11
-189
 21
-31.17691453623981
 31
0
  0
LINE
  8
1
 62
7
 10
-179.8303276340212
 20
30.17022045662202
 30
0
 11
-180.4115427318801
 21
31.17691453623978
 31
0
  0
LINE
  8
1
 62
7
 10
-180.4115427318801
 20
31.17691453623978
 30
0
 11
-189.0000000000001
 21
31.17691453623978
 31
0
  0
LINE
  8
1
 62
7
 10
-189.0000000000001
 20
15.58845726811988
 30
0
 11
-180.4115427318801
 21
15.58845726811988
 31
0
  0
LINE
  8
1
 62
7
 10
-180.4115427318801
 20
-15.58845726811988
 30
0
 11
-189
 21
-15.58845726811988
 31
0
  0
LINE
  8
1
 62
7
 10
-178.0000000000001
 20
23.33934473195767
 30
0
 11
-178.0000000000001
 21
-23.33934473195769
 31
0
  0
LINE
  8
1
 62
7
 10
-197.5884572681199
 20
-31.17691453623981
 30
0
 11
-198.1696723659788
 21
-30.170220456622
 31
0
  0
LINE
  8
1
 62
7
 10
-189
 20
-31.17691453623981
 30
0
 11
-197.5884572681199
 21
-31.17691453623981
 31
0
  0
LINE
  8
1
 62
7
 10
-197.5884572681199
 20
31.17691453623978
 30
0
 11
-198.1696723659788
 21
30.17022045662202
 31
0
  0
LINE
  8
1
 62
7
 10
-189.0000000000001
 20
31.17691453623978
 30
0
 11
-197.5884572681199
 21
31.17691453623978
 31
0
  0
LINE
  8
1
 62
7
 10
-197.5884572681199
 20
15.58845726811988
 30
0
 11
-189.0000000000001
 21
15.58845726811988
 31
0
  0
LINE
  8
1
 62
7
 10
-189
 20
-15.58845726811988
 30
0
 11
-197.5884572681199
 21
-15.58845726811988
 31
0
  0
LINE
  8
1
 62
7
 10
-200
 20
-23.33934473195769
 30
0
 11
-200
 21
23.33934473195767
 31
0
  0
LINE
  8
1
 62
7
 10
-129
 20
36.8
 30
0
 11
-129
 21
27.49999999999999
 31
0
  0
LINE
  8
1
 62
7
 10
-129
 20
36.8
 30
0
 11
-124.9318149175269
 21
36.8
 31
0
  0
LINE
  8
1
 62
7
 10
-126
 20
24.49999999999999
 30
0
 11
-125.1754264805429
 21
24.49999999999999
 31
0
  0
LINE
  8
1
 62
7
 10
-122.5773502691896
 20
25.99999999999999
 30
0
 11
-120.1696723659788
 21
30.17022045662202
 31
0
  0
LINE
  8
1
 62
7
 10
-171
 20
36.8
 30
0
 11
-171
 21
27.49999999999999
 31
0
  0
LINE
  8
1
 62
7
 10
-171
 20
36.8
 30
0
 11
-129
 21
36.8
 31
0
  0
LINE
  8
1
 62
7
 10
-174
 20
24.49999999999999
 30
0
 11
-174.8245735194571
 21
24.49999999999999
 31
0
  0
LINE
  8
1
 62
7
 10
-177.4226497308104
 20
25.99999999999999
 30
0
 11
-179.8303276340212
 21
30.17022045662202
 31
0
  0
LINE
  8
1
 62
7
 10
-179.8303276340212
 20
-30.170220456622
 30
0
 11
-177.5458784519277
 21
-26.21343840592699
 31
0
  0
LINE
  8
1
 62
7
 10
-122.4541215480723
 20
-26.21343840592699
 30
0
 11
-120.1696723659788
 21
-30.170220456622
 31
0
  0
LINE
  8
1
 62
7
 10
-10.5
 20
-45.99999999999999
 30
0
 11
-7.999999999999996
 21
-45.99999999999999
 31
0
  0
LINE
  8
1
 62
7
 10
10.5
 20
-45.99999999999999
 30
0
 11
10.5
 21
-46.93782217350888
 31
0
  0
LINE
  8
1
 62
7
 10
10.5
 20
-58.99999999999999
 30
0
 11
5.850788603600782e-15
 21
-58.99999999999999
 31
0
  0
LINE
  8
1
 62
7
 10
-10.5
 20
-58.99999999999999
 30
0
 11
-10.5
 21
-58.06217782649109
 31
0
  0
LINE
  8
1
 62
7
 10
-7.000000000000004
 20
-58.99999999999999
 30
0
 11
-7.000000000000004
 21
-73.99999999999999
 31
0
  0
LINE
  8
1
 62
7
 10
-5.000000000000004
 20
-75.99999999999999
 30
0
 11
4.999999999999996
 21
-75.99999999999999
 31
0
  0
LINE
  8
1
 62
7
 10
6.999999999999996
 20
-73.99999999999999
 30
0
 11
6.999999999999996
 21
-58.99999999999999
 31
0
  0
LINE
  8
1
 62
7
 10
5.850788603600781e-15
 20
-45.99999999999999
 30
0
 11
8.000000000000004
 21
-45.99999999999999
 31
0
  0
LINE
  8
1
 62
7
 10
5.850788603600782e-15
 20
-58.99999999999999
 30
0
 11
-10.5
 21
-58.99999999999999
 31
0
  0
LINE
  8
1
 62
2
  6
DASHDOT
 10
5.850788603600782e-15
 20
-58.99999999999999
 30
0
 11
-3.087485567940816e-15
 21
-77.99999999999999
 31
0
  0
LINE
  8
1
 62
7
 10
-3.885780586188048e-15
 20
54.20982447316582
 30
0
 11
-3.885780586188048e-15
 21
39.39017552683417
 31
0
  0
LINE
  8
1
 62
2
  6
DASHDOT
 10
-3.885780586188048e-15
 20
54.20982447316582
 30
0
 11
-3.885780586188048e-15
 21
39.39017552683417
 31
0
  0
LINE
  8
1
 62
2
  6
DASHDOT
 10
-3.885780586188048e-15
 20
39.39017552683417
 30
0
 11
5.850788603600781e-15
 21
-45.99999999999999
 31
0
  0
LINE
  8
1
 62
7
 10
-7.999999999999995
 20
-30.39736830714129
 30
0
 11
-7.999999999999996
 21
-45.99999999999999
 31
0
  0
LINE
  8
1
 62
7
 10
-7.999999999999996
 20
-45.99999999999999
 30
0
 11
5.850788603600781e-15
 21
-45.99999999999999
 31
0
  0
LINE
  8
1
 62
7
 10
8.000000000000002
 20
-30.39736830714129
 30
0
 11
8.000000000000004
 21
-45.99999999999999
 31
0
  0
LINE
  8
1
 62
7
 10
8.000000000000004
 20
-45.99999999999999
 30
0
 11
10.5
 21
-45.99999999999999
 31
0
  0
LINE
  8
1
 62
7
 10
-158
 20
-31.30217387990361
 30
0
 11
-158
 21
-45.99999999999999
 31
0
  0
LINE
  8
1
 62
7
 10
-142
 20
-31.30217387990361
 30
0
 11
-142
 21
-45.99999999999999
 31
0
  0
LINE
  8
1
 62
7
 10
-157
 20
-58.99999999999999
 30
0
 11
-157
 21
-73.99999999999999
 31
0
  0
LINE
  8
1
 62
7
 10
-155
 20
-75.99999999999999
 30
0
 11
-145
 21
-75.99999999999999
 31
0
  0
LINE
  8
1
 62
7
 10
-143
 20
-73.99999999999999
 30
0
 11
-143
 21
-58.99999999999999
 31
0
  0
LINE
  8
1
 62
7
 10
-161.7328635109085
 20
-58.2882059201029
 30
0
 11
-162.1243556529821
 21
-58.06217782649109
 31
0
  0
LINE
  8
1
 62
7
 10
-138.2671364890915
 20
-58.2882059201029
 30
0
 11
-137.8756443470179
 21
-58.06217782649109
 31
0
  0
LINE
  8
1
 62
7
 10
-159.47825254546
 20
-58.99999999999999
 30
0
 11
-141.372777846496
 21
-58.99999999999999
 31
0
  0
LINE
  8
1
 62
7
 10
-162.1243556529821
 20
-46.93782217350888
 30
0
 11
-161.7328635109085
 21
-46.71179407989707
 31
0
  0
LINE
  8
1
 62
7
 10
-137.8756443470179
 20
-46.93782217350888
 30
0
 11
-138.2671364890915
 21
-46.71179407989707
 31
0
  0
LINE
  8
1
 62
7
 10
-141.372777846496
 20
-45.99999999999999
 30
0
 11
-159.47825254546
 21
-45.99999999999999
 31
0
  0
LINE
  8
1
 62
7
 10
-162.1243556529821
 20
-46.93782217350888
 30
0
 11
-162.1243556529821
 21
-58.06217782649109
 31
0
  0
LINE
  8
1
 62
7
 10
-156.0621778264911
 20
-58.06217782649109
 30
0
 11
-156.0621778264911
 21
-46.93782217350888
 31
0
  0
LINE
  8
1
 62
7
 10
-143.9378221735089
 20
-46.93782217350888
 30
0
 11
-143.9378221735089
 21
-58.06217782649109
 31
0
  0
LINE
  8
1
 62
7
 10
-137.8756443470179
 20
-46.93782217350888
 30
0
 11
-137.8756443470179
 21
-58.06217782649109
 31
0
  0
LINE
  8
1
 62
7
 10
-10.5
 20
-58.06217782649109
 30
0
 11
-10.5
 21
-46.93782217350888
 31
0
  0
LINE
  8
1
 62
7
 10
10.5
 20
-58.06217782649109
 30
0
 11
10.5
 21
-58.99999999999999
 31
0
  0
LINE
  8
1
 62
7
 10
-3.885780586188048e-15
 20
-46.93782217350888
 30
0
 11
-3.885780586188048e-15
 21
-58.06217782649109
 31
0
  0
LINE
  8
1
 62
2
  6
DASHDOT
 10
-3.885780586188048e-15
 20
-46.93782217350888
 30
0
 11
-3.885780586188048e-15
 21
-58.06217782649109
 31
0
  0
LINE
  8
1
 62
7
 10
-10.5
 20
-46.93782217350888
 30
0
 11
-10.5
 21
-45.99999999999999
 31
0
  0
LINE
  8
1
 62
7
 10
10.5
 20
-46.93782217350888
 30
0
 11
10.5
 21
-58.06217782649109
 31
0
  0
LINE
  8
1
 62
2
  6
DASHDOT
 10
5.850788603600781e-15
 20
-45.99999999999999
 30
0
 11
-3.885780586188048e-15
 21
-46.93782217350888
 31
0
  0
LINE
  8
1
 62
2
  6
DASHDOT
 10
5.850788603600782e-15
 20
-58.99999999999999
 30
0
 11
-3.885780586188048e-15
 21
-58.06217782649109
 31
0
  0
LINE
  8
1
 62
7
 10
-158
 20
-3.000000000000014
 30
0
 11
-167
 21
-1.4210854715202e-14
 31
0
  0
LINE
  8
1
 62
7
 10
-158
 20
-1.500000000000014
 30
0
 11
-158
 21
-3.000000000000014
 31
0
  0
LINE
  8
1
 62
7
 10
-142
 20
-1.500000000000014
 30
0
 11
-158
 21
-1.500000000000014
 31
0
  0
LINE
  8
1
 62
7
 10
-140.1111111111111
 20
-3.000000000000014
 30
0
 11
-142
 21
-1.500000000000014
 31
0
  0
LINE
  8
1
 62
7
 10
-133
 20
-3.000000000000014
 30
0
 11
-140.1111111111111
 21
-3.000000000000014
 31
0
  0
LINE
  8
1
 62
7
 10
-134.8888888888889
 20
-1.4210854715202e-14
 30
0
 11
-133
 21
-3.000000000000014
 31
0
  0
LINE
  8
1
 62
7
 10
-133
 20
3.000000000000014
 30
0
 11
-134.8888888888889
 21
-1.4210854715202e-14
 31
0
  0
LINE
  8
1
 62
7
 10
-140.1111111111111
 20
3.000000000000014
 30
0
 11
-133
 21
3.000000000000014
 31
0
  0
LINE
  8
1
 62
7
 10
-142
 20
1.499999999999986
 30
0
 11
-140.1111111111111
 21
3.000000000000014
 31
0
  0
LINE
  8
1
 62
7
 10
-158
 20
1.499999999999986
 30
0
 11
-142
 21
1.499999999999986
 31
0
  0
LINE
  8
1
 62
7
 10
-158
 20
3.000000000000014
 30
0
 11
-158
 21
1.499999999999986
 31
0
  0
LINE
  8
1
 62
7
 10
-167
 20
-1.4210854715202e-14
 30
0
 11
-158
 21
3.000000000000014
 31
0
  0
LINE
  8
1
 62
7
 10
-4.999999999999994
 20
137
 30
0
 11
6.75895553517539e-14
 21
137
 31
0
  0
LINE
  8
1
 62
7
 10
5.000000000000006
 20
137
 30
0
 11
4.999999999999996
 21
137.4465819873853
 31
0
  0
LINE
  8
1
 62
7
 10
5.000000000000006
 20
142.5
 30
0
 11
4.500000000000039
 21
142.5
 31
0
  0
LINE
  8
1
 62
7
 10
-4.999999999999994
 20
142.5
 30
0
 11
-5.000000000000004
 21
137.4465819873853
 31
0
  0
LINE
  8
1
 62
7
 10
-4.999999999999994
 20
137
 30
0
 11
-6.099999999999994
 21
137
 31
0
  0
LINE
  8
1
 62
7
 10
-6.099999999999994
 20
137
 30
0
 11
-6.099999999999995
 21
135.5
 31
0
  0
LINE
  8
1
 62
7
 10
-6.099999999999995
 20
135.5
 30
0
 11
5.624051973349084e-15
 21
135.5
 31
0
  0
LINE
  8
1
 62
7
 10
5.000000000000006
 20
137
 30
0
 11
6.100000000000006
 21
137
 31
0
  0
LINE
  8
1
 62
7
 10
6.100000000000006
 20
137
 30
0
 11
6.100000000000006
 21
135.5
 31
0
  0
LINE
  8
1
 62
7
 10
6.100000000000006
 20
135.5
 30
0
 11
25.00000000000001
 21
135.5
 31
0
  0
LINE
  8
1
 62
2
  6
DASHDOT
 10
6.75895553517539e-14
 20
137
 30
0
 11
5.624051973349084e-15
 21
135.5
 31
0
  0
LINE
  8
1
 62
7
 10
6.75895553517539e-14
 20
137
 30
0
 11
5.000000000000006
 21
137
 31
0
  0
LINE
  8
1
 62
2
  6
DASHDOT
 10
5.624051973349084e-15
 20
135.5
 30
0
 11
-3.885780586188048e-15
 21
54.20982447316582
 31
0
  0
LINE
  8
1
 62
7
 10
5.624051973349084e-15
 20
135.5
 30
0
 11
6.100000000000006
 21
135.5
 31
0
  0
LINE
  8
1
 62
7
 10
4.500000000000039
 20
142.5
 30
0
 11
-4.499999999999961
 21
142.5
 31
0
  0
LINE
  8
1
 62
7
 10
-4.499999999999961
 20
142.5
 30
0
 11
-4.999999999999994
 21
142.5
 31
0
  0
LINE
  8
1
 62
7
 10
-156.1
 20
135.5
 30
0
 11
-156.1
 21
137.0000000000001
 31
0
  0
LINE
  8
1
 62
7
 10
-156.1
 20
135.5
 30
0
 11
-150
 21
135.5
 31
0
  0
LINE
  8
1
 62
7
 10
-143.9
 20
137.0000000000001
 30
0
 11
-143.9
 21
135.5
 31
0
  0
LINE
  8
1
 62
7
 10
-143.9
 20
135.5
 30
0
 11
-125
 21
135.5
 31
0
  0
LINE
  8
1
 62
2
  6
DASHDOT
 10
-150
 20
135.5
 30
0
 11
-150
 21
-78.00000000000001
 31
0
  0
LINE
  8
1
 62
7
 10
-150
 20
135.5
 30
0
 11
-143.9
 21
135.5
 31
0
  0
LINE
  8
1
 62
7
 10
-155.5870778623374
 20
137.3389495618558
 30
0
 11
-155.7735026918963
 21
137.4465819873853
 31
0
  0
LINE
  8
1
 62
7
 10
-143.9
 20
137.0000000000001
 30
0
 11
-156.1
 21
137.0000000000001
 31
0
  0
LINE
  8
1
 62
7
 10
-144.4129221376626
 20
137.3389495618558
 30
0
 11
-144.2264973081038
 21
137.4465819873853
 31
0
  0
LINE
  8
1
 62
7
 10
-155.7735026918963
 20
142.0534180126149
 30
0
 11
-155.5870778623374
 21
142.1610504381443
 31
0
  0
LINE
  8
1
 62
7
 10
-144.2264973081038
 20
142.0534180126149
 30
0
 11
-144.4129221376626
 21
142.1610504381443
 31
0
  0
LINE
  8
1
 62
7
 10
-155.7735026918963
 20
142.0534180126149
 30
0
 11
-155.7735026918963
 21
137.4577329726425
 31
0
  0
LINE
  8
1
 62
7
 10
-152.8867513459482
 20
142.0534180126149
 30
0
 11
-152.8867513459482
 21
137.4465819873853
 31
0
  0
LINE
  8
1
 62
7
 10
-147.1132486540519
 20
142.0534180126149
 30
0
 11
-147.1132486540519
 21
137.4465819873853
 31
0
  0
LINE
  8
1
 62
7
 10
-144.2264973081038
 20
142.0534180126149
 30
0
 11
-144.2264973081038
 21
137.4465819873853
 31
0
  0
LINE
  8
1
 62
7
 10
-154.3221008762885
 20
142.5000000000001
 30
0
 11
-145.6778991237116
 21
142.5000000000001
 31
0
  0
LINE
  8
1
 62
7
 10
-5.000000000000004
 20
137.4465819873853
 30
0
 11
-4.999999999999994
 21
137
 31
0
  0
LINE
  8
1
 62
2
  6
DASHDOT
 10
5.295763827461996e-14
 20
137.4465819873853
 30
0
 11
6.75895553517539e-14
 21
137
 31
0
  0
LINE
  8
1
 62
7
 10
4.999999999999996
 20
137.4465819873853
 30
0
 11
5.000000000000006
 21
142.5
 31
0
  0
LINE
  8
1
 62
7
 10
5.295763827461996e-14
 20
142.0534180126149
 30
0
 11
5.295763827461996e-14
 21
137.4465819873853
 31
0
  0
LINE
  8
1
 62
2
  6
DASHDOT
 10
5.295763827461996e-14
 20
142.0534180126149
 30
0
 11
5.295763827461996e-14
 21
137.4465819873853
 31
0
  0
LINE
  8
1
 62
7
 10
-4.333333333333326
 20
90.79999999999998
 30
0
 11
3.000000000000007
 21
90.79999999999998
 31
0
  0
LINE
  8
1
 62
7
 10
4.33333333333334
 20
80.79999999999998
 30
0
 11
4.33333333333334
 21
89.46666666666664
 31
0
  0
LINE
  8
1
 62
7
 10
4.33333333333334
 20
80.79999999999998
 30
0
 11
-2.999999999999993
 21
80.79999999999998
 31
0
  0
LINE
  8
1
 62
7
 10
-4.333333333333326
 20
90.79999999999998
 30
0
 11
-4.333333333333326
 21
82.13333333333331
 31
0
  0
LINE
  8
1
 62
7
 10
4.000000000000007
 20
81.13333333333331
 30
0
 11
-2.999999999999993
 21
81.13333333333331
 31
0
  0
LINE
  8
1
 62
7
 10
4.000000000000007
 20
81.13333333333331
 30
0
 11
4.000000000000007
 21
89.46666666666664
 31
0
  0
LINE
  8
1
 62
7
 10
-3.999999999999993
 20
90.46666666666664
 30
0
 11
3.000000000000007
 21
90.46666666666664
 31
0
  0
LINE
  8
1
 62
7
 10
-3.999999999999993
 20
90.46666666666664
 30
0
 11
-3.999999999999993
 21
82.13333333333331
 31
0
  0
LINE
  8
1
 62
7
 10
-2.833333333333326
 20
88.79999999999998
 30
0
 11
2.83333333333334
 21
88.79999999999998
 31
0
  0
LINE
  8
1
 62
7
 10
2.83333333333334
 20
88.79999999999998
 30
0
 11
2.83333333333334
 21
89.79999999999998
 31
0
  0
LINE
  8
1
 62
7
 10
2.83333333333334
 20
89.79999999999998
 30
0
 11
-2.833333333333326
 21
89.79999999999998
 31
0
  0
LINE
  8
1
 62
7
 10
-2.833333333333326
 20
89.79999999999998
 30
0
 11
-2.833333333333326
 21
88.79999999999998
 31
0
  0
LINE
  8
1
 62
7
 10
-2.833333333333326
 20
81.79999999999998
 30
0
 11
2.83333333333334
 21
81.79999999999998
 31
0
  0
LINE
  8
1
 62
7
 10
2.83333333333334
 20
81.79999999999998
 30
0
 11
2.83333333333334
 21
82.79999999999998
 31
0
  0
LINE
  8
1
 62
7
 10
2.83333333333334
 20
82.79999999999998
 30
0
 11
-2.833333333333326
 21
82.79999999999998
 31
0
  0
LINE
  8
1
 62
7
 10
-2.833333333333326
 20
82.79999999999998
 30
0
 11
-2.833333333333326
 21
81.79999999999998
 31
0
  0
LINE
  8
1
 62
7
 10
-1.083333333333327
 20
85.13333333333331
 30
0
 11
-1.083333333333327
 21
83.13333333333331
 31
0
  0
LINE
  8
1
 62
7
 10
1.08333333333334
 20
85.13333333333331
 30
0
 11
1.08333333333334
 21
83.13333333333331
 31
0
  0
LINE
  8
1
 62
7
 10
-1.083333333333327
 20
83.13333333333331
 30
0
 11
1.08333333333334
 21
83.13333333333331
 31
0
  0
LINE
  8
1
 62
7
 10
-2.833333333333326
 20
88.29999999999998
 30
0
 11
-1.083333333333327
 21
85.13333333333331
 31
0
  0
LINE
  8
1
 62
7
 10
1.08333333333334
 20
85.13333333333331
 30
0
 11
2.83333333333334
 21
88.29999999999998
 31
0
  0
LINE
  8
1
 62
7
 10
-2.833333333333326
 20
88.29999999999998
 30
0
 11
-0.8333333333333265
 21
88.29999999999998
 31
0
  0
LINE
  8
1
 62
7
 10
-0.8333333333333265
 20
88.29999999999998
 30
0
 11
6.772360450213452e-15
 21
86.79206349206348
 31
0
  0
LINE
  8
1
 62
7
 10
6.772360450213452e-15
 20
86.79206349206348
 30
0
 11
0.83333333333334
 21
88.29999999999998
 31
0
  0
LINE
  8
1
 62
7
 10
0.83333333333334
 20
88.29999999999998
 30
0
 11
2.83333333333334
 21
88.29999999999998
 31
0
  0
LINE
  8
1
 62
7
 10
-25.44956890143244
 20
94.35043109856758
 30
0
 11
-22.55043109856758
 21
97.2495689014324
 31
0
  0
LINE
  8
1
 62
7
 10
-25.44956890143241
 20
97.2495689014324
 30
0
 11
-22.55043109856758
 21
94.35043109856755
 31
0
  0
LINE
  8
1
 62
7
 10
22.55043109856756
 20
94.35043109856758
 30
0
 11
25.44956890143242
 21
97.2495689014324
 31
0
  0
LINE
  8
1
 62
7
 10
22.55043109856758
 20
97.2495689014324
 30
0
 11
25.44956890143242
 21
94.35043109856755
 31
0
  0
LINE
  8
1
 62
7
 10
-65.1532269185458
 20
97.84999999999998
 30
0
 11
-64.40000000000001
 21
95.78052604957004
 31
0
  0
LINE
  8
1
 62
7
 10
-64.40000000000001
 20
95.78052604957004
 30
0
 11
-65.13905104194565
 21
93.74999999999999
 31
0
  0
LINE
  8
1
 62
7
 10
-67.00000000000001
 20
99.29999999999998
 30
0
 11
-67.00000000000001
 21
92.29999999999998
 31
0
  0
LINE
  8
1
 62
7
 10
-67.00000000000001
 20
92.29999999999998
 30
0
 11
-66.01519762301345
 21
92.29999999999998
 31
0
  0
LINE
  8
1
 62
7
 10
-67.00000000000001
 20
99.29999999999998
 30
0
 11
-66.02680968756653
 21
99.29999999999998
 31
0
  0
ARC
  8
1
 62
7
 10
-24
 20
95.8
 30
0
 40
6
 50
180
 51
270
  0
ARC
  8
1
 62
7
 10
24
 20
95.8
 30
0
 40
6
 50
0
 51
90
  0
ARC
  8
1
 62
7
 10
3.219646771412954e-15
 20
-1.4210854715202e-14
 30
0
 40
29.99999999999999
 50
334.1580672368329
 51
0
  0
ARC
  8
1
 62
7
 10
3.219646771412954e-15
 20
-1.4210854715202e-14
 30
0
 40
30
 50
180
 51
205.8419327631671
  0
ARC
  8
1
 62
7
 10
3.219646771412954e-15
 20
-1.4210854715202e-14
 30
0
 40
29.99999999999998
 50
288.209956864283
 51
325.8419327631671
  0
ARC
  8
1
 62
7
 10
-23.99999999999999
 20
27.12235289270485
 30
0
 40
2.999999999999982
 50
299.0592810680408
 51
0
  0
ARC
  8
1
 62
7
 10
-15.49999999999999
 20
11.8252943519265
 30
0
 40
14.50000000000001
 50
119.0592810680405
 51
180
  0
ARC
  8
1
 62
7
 10
15.50000000000001
 20
11.8252943519265
 30
0
 40
14.5
 50
0
 51
60.94071893195946
  0
ARC
  8
1
 62
7
 10
24.00000000000001
 20
27.12235289270485
 30
0
 40
3
 50
180
 51
240.9407189319596
  0
ARC
  8
1
 62
7
 10
-150
 20
92.20982447316605
 30
0
 40
55.40982447316605
 50
252.4120462260064
 51
287.5879537739937
  0
ARC
  8
1
 62
7
 10
-124.9318149175269
 20
51.47373303816778
 30
0
 40
14.67373303816778
 50
270
 51
299.9999999999997
  0
ARC
  8
1
 62
7
 10
-175.0681850824731
 20
51.47373303816774
 30
0
 40
14.67373303816774
 50
270
 51
304.5650930945275
  0
ARC
  8
1
 62
7
 10
-150
 20
1.390175526833943
 30
0
 40
55.40982447316604
 50
72.41204622600635
 51
107.5879537739937
  0
ARC
  8
1
 62
7
 10
-124.9318149175269
 20
42.12626696183221
 30
0
 40
14.67373303816779
 50
90
 51
124.5650930945274
  0
ARC
  8
1
 62
7
 10
-175.0681850824731
 20
42.12626696183225
 30
0
 40
14.67373303816775
 50
90
 51
119.9999999999998
  0
ARC
  8
1
 62
7
 10
-175.0681850824731
 20
51.47373303816774
 30
0
 40
14.67373303816771
 50
240.0000000000002
 51
270
  0
ARC
  8
1
 62
7
 10
-124.9318149175269
 20
51.47373303816778
 30
0
 40
14.67373303816781
 50
235.4349069054726
 51
270
  0
ARC
  8
1
 62
7
 10
-124.9318149175269
 20
42.12626696183221
 30
0
 40
14.67373303816775
 50
60.00000000000028
 51
90
  0
ARC
  8
1
 62
7
 10
-175.0681850824731
 20
42.12626696183225
 30
0
 40
14.67373303816778
 50
55.43490690547247
 51
90
  0
ARC
  8
1
 62
7
 10
-14.5
 20
14.91885970427094
 30
0
 40
41.88114029572904
 50
69.74384199958386
 51
110.2561580004161
  0
ARC
  8
1
 62
7
 10
14.49999999999999
 20
14.91885970427087
 30
0
 40
41.8811402957291
 50
69.74384199958386
 51
110.2561580004161
  0
ARC
  8
1
 62
7
 10
14.5
 20
78.68114029572871
 30
0
 40
41.88114029572873
 50
249.7438419995837
 51
290.2561580004163
  0
ARC
  8
1
 62
7
 10
-14.49999999999999
 20
78.68114029572888
 30
0
 40
41.88114029572888
 50
249.7438419995838
 51
290.2561580004162
  0
ARC
  8
1
 62
7
 10
-113.5
 20
109.3
 30
0
 40
1.5
 50
180
 51
270
  0
ARC
  8
1
 62
7
 10
-103.5
 20
109.3
 30
0
 40
1.5
 50
270
 51
0
  0
ARC
  8
1
 62
7
 10
-103.5
 20
82.29999999999998
 30
0
 40
1.5
 50
0
 51
90
  0
ARC
  8
1
 62
7
 10
-113.5
 20
82.29999999999998
 30
0
 40
1.5
 50
90
 51
180
  0
ARC
  8
1
 62
7
 10
-151.5884572681202
 20
-1.4210854715202e-14
 30
0
 40
51.58845726812018
 50
342.4120462260063
 51
17.58795377399367
  0
ARC
  8
1
 62
7
 10
-113.6617514493287
 20
-23.33934473195769
 30
0
 40
13.6617514493287
 50
0
 51
34.56509309452716
  0
ARC
  8
1
 62
7
 10
-113.6617514493287
 20
23.33934473195767
 30
0
 40
13.6617514493287
 50
0
 51
30.00000000000005
  0
ARC
  8
1
 62
7
 10
-113.6617514493287
 20
23.33934473195767
 30
0
 40
13.66175144932868
 50
325.4349069054729
 51
0
  0
ARC
  8
1
 62
7
 10
-113.6617514493287
 20
-23.33934473195769
 30
0
 40
13.66175144932866
 50
330.0000000000001
 51
0
  0
ARC
  8
1
 62
7
 10
-70.41154273187976
 20
-1.4210854715202e-14
 30
0
 40
51.58845726812022
 50
162.4120462260063
 51
197.5879537739936
  0
ARC
  8
1
 62
7
 10
-108.3382485506713
 20
-23.33934473195769
 30
0
 40
13.66175144932869
 50
145.4349069054728
 51
180
  0
ARC
  8
1
 62
7
 10
-108.3382485506713
 20
23.33934473195767
 30
0
 40
13.66175144932868
 50
150
 51
180
  0
ARC
  8
1
 62
7
 10
-108.3382485506713
 20
23.33934473195767
 30
0
 40
13.66175144932861
 50
180
 51
214.5650930945271
  0
ARC
  8
1
 62
7
 10
-108.3382485506713
 20
-23.33934473195769
 30
0
 40
13.66175144932861
 50
180
 51
209.9999999999999
  0
ARC
  8
1
 62
7
 10
-229.5884572681202
 20
-1.4210854715202e-14
 30
0
 40
51.58845726812018
 50
342.4120462260063
 51
17.58795377399367
  0
ARC
  8
1
 62
7
 10
-191.6617514493287
 20
-23.33934473195769
 30
0
 40
13.66175144932859
 50
0
 51
34.56509309452716
  0
ARC
  8
1
 62
7
 10
-191.6617514493287
 20
23.33934473195767
 30
0
 40
13.66175144932859
 50
0
 51
30.00000000000001
  0
ARC
  8
1
 62
7
 10
-191.6617514493287
 20
23.33934473195767
 30
0
 40
13.66175144932868
 50
325.4349069054729
 51
0
  0
ARC
  8
1
 62
7
 10
-191.6617514493287
 20
-23.33934473195769
 30
0
 40
13.66175144932867
 50
330.0000000000001
 51
0
  0
ARC
  8
1
 62
7
 10
-148.4115427318798
 20
-1.4210854715202e-14
 30
0
 40
51.58845726812019
 50
162.4120462260063
 51
197.5879537739936
  0
ARC
  8
1
 62
7
 10
-186.3382485506713
 20
-23.33934473195769
 30
0
 40
13.66175144932869
 50
145.4349069054728
 51
180
  0
ARC
  8
1
 62
7
 10
-186.3382485506713
 20
23.33934473195767
 30
0
 40
13.66175144932869
 50
150
 51
180
  0
ARC
  8
1
 62
7
 10
-186.3382485506713
 20
23.33934473195767
 30
0
 40
13.6617514493287
 50
180
 51
214.5650930945271
  0
ARC
  8
1
 62
7
 10
-186.3382485506713
 20
-23.33934473195769
 30
0
 40
13.6617514493287
 50
180
 51
209.9999999999999
  0
ARC
  8
1
 62
7
 10
-126
 20
27.49999999999999
 30
0
 40
3
 50
180
 51
270
  0
ARC
  8
1
 62
7
 10
-125.1754264805429
 20
27.49999999999999
 30
0
 40
3
 50
270
 51
329.9999999999999
  0
ARC
  8
1
 62
7
 10
-174
 20
27.49999999999999
 30
0
 40
3
 50
270
 51
0
  0
ARC
  8
1
 62
7
 10
-174.8245735194571
 20
27.49999999999999
 30
0
 40
3
 50
210
 51
270
  0
ARC
  8
1
 62
7
 10
-150
 20
40
 30
0
 40
69.99999999999997
 50
277.9835561455554
 51
291.0096623908005
  0
ARC
  8
1
 62
7
 10
3.219646771412954e-15
 20
-1.4210854715202e-14
 30
0
 40
30.00000000000003
 50
214.1580672368329
 51
251.790043135717
  0
ARC
  8
1
 62
7
 10
-150
 20
40
 30
0
 40
70.00000000000004
 50
248.9903376091995
 51
262.0164438544446
  0
ARC
  8
1
 62
7
 10
-150
 20
-38.93782217350928
 30
0
 40
20.06217782649076
 50
252.4120462260059
 51
287.5879537739942
  0
ARC
  8
1
 62
7
 10
-159.0764118402058
 20
-53.6870966585946
 30
0
 40
5.312903341405391
 50
240
 51
304.5650930945281
  0
ARC
  8
1
 62
7
 10
-140.9235881597942
 20
-53.6870966585946
 30
0
 40
5.312903341405436
 50
235.4349069054719
 51
299.9999999999999
  0
ARC
  8
1
 62
7
 10
-150
 20
-66.0621778264907
 30
0
 40
20.06217782649077
 50
72.41204622600586
 51
107.5879537739941
  0
ARC
  8
1
 62
7
 10
-159.0764118402058
 20
-51.31290334140537
 30
0
 40
5.312903341405436
 50
55.43490690547186
 51
120
  0
ARC
  8
1
 62
7
 10
-140.9235881597942
 20
-51.31290334140537
 30
0
 40
5.312903341405391
 50
60.00000000000002
 51
124.5650930945282
  0
ARC
  8
1
 62
7
 10
-5.250000000000004
 20
-43.83613885844339
 30
0
 40
15.16386114155664
 50
249.7438419995833
 51
290.2561580004167
  0
ARC
  8
1
 62
7
 10
5.249999999999998
 20
-43.83613885844339
 30
0
 40
15.16386114155664
 50
249.7438419995833
 51
290.2561580004167
  0
ARC
  8
1
 62
7
 10
-5.250000000000004
 20
-61.16386114155658
 30
0
 40
15.16386114155665
 50
69.74384199958327
 51
110.2561580004167
  0
ARC
  8
1
 62
7
 10
5.249999999999996
 20
-61.16386114155658
 30
0
 40
15.16386114155665
 50
69.74384199958327
 51
110.2561580004167
  0
ARC
  8
1
 62
7
 10
7.025409061085426e-14
 20
142.5
 30
0
 40
4.5
 50
90
 51
180
  0
ARC
  8
1
 62
7
 10
7.025409061085426e-14
 20
142.5
 30
0
 40
4.499999999999969
 50
0
 51
90
  0
ARC
  8
1
 62
7
 10
-150
 20
142.5000000000001
 30
0
 40
4.5
 50
0
 51
180
  0
ARC
  8
1
 62
7
 10
-150.0000000000001
 20
146.5534180126148
 30
0
 40
9.553418012614706
 50
252.4120462260063
 51
287.5879537739945
  0
ARC
  8
1
 62
7
 10
-154.3221008762885
 20
139.5299539720979
 30
0
 40
2.529953972097855
 50
240.0000000000006
 51
304.5650930945275
  0
ARC
  8
1
 62
7
 10
-145.6778991237116
 20
139.529953972098
 30
0
 40
2.529953972097899
 50
235.434906905474
 51
299.9999999999998
  0
ARC
  8
1
 62
7
 10
-154.3221008762885
 20
139.9700460279022
 30
0
 40
2.5299539720979
 50
90
 51
119.9999999999998
  0
ARC
  8
1
 62
7
 10
-150.0000000000001
 20
132.9465819873853
 30
0
 40
9.553418012614859
 50
72.41204622600573
 51
107.5879537739935
  0
ARC
  8
1
 62
7
 10
-145.6778991237116
 20
139.9700460279022
 30
0
 40
2.5299539720979
 50
90
 51
124.5650930945264
  0
ARC
  8
1
 62
7
 10
-154.3221008762885
 20
139.9700460279022
 30
0
 40
2.529953972097876
 50
55.43490690547362
 51
90
  0
ARC
  8
1
 62
7
 10
-145.6778991237116
 20
139.9700460279022
 30
0
 40
2.529953972097873
 50
59.99999999999853
 51
90
  0
ARC
  8
1
 62
7
 10
-2.499999999999976
 20
144.2208862578834
 30
0
 40
7.220886257883379
 50
249.7438419995809
 51
290.2561580004191
  0
ARC
  8
1
 62
7
 10
2.500000000000024
 20
144.2208862578831
 30
0
 40
7.220886257883093
 50
249.7438419995805
 51
290.2561580004195
  0
ARC
  8
1
 62
7
 10
-2.499999999999976
 20
135.2791137421167
 30
0
 40
7.220886257883485
 50
69.74384199958118
 51
110.2561580004188
  0
ARC
  8
1
 62
7
 10
2.500000000000024
 20
135.2791137421171
 30
0
 40
7.220886257883093
 50
69.74384199958051
 51
110.2561580004195
  0
ARC
  8
1
 62
7
 10
-73.40000000000001
 20
95.78052604957004
 30
0
 40
8.999999999999998
 50
343.5496001733873
 51
0
  0
ARC
  8
1
 62
7
 10
-73.40000000000001
 20
95.78052604957004
 30
0
 40
9
 50
0
 51
16.75281834738637
  0
ARC
  8
1
 62
7
 10
24
 20
95.8
 30
0
 40
6
 50
270
 51
0
  0
ARC
  8
1
 62
7
 10
-24
 20
95.8
 30
0
 40
6
 50
90
 51
180
  0
CIRCLE
  8
1
 62
7
 10
3.219646771412954e-15
 20
-1.4210854715202e-14
 30
0
 40
27
  0
CIRCLE
  8
1
 62
2
 10
3.219646771412954e-15
 20
-1.4210854715202e-14
 30
0
 40
20.95499999999999
  0
CIRCLE
  8
1
 62
7
 10
3.219646771412954e-15
 20
-1.4210854715202e-14
 30
0
 40
19.476
  0
CIRCLE
  8
1
 62
7
 10
-24
 20
95.8
 30
0
 40
3.500000000000011
  0
CIRCLE
  8
1
 62
7
 10
24
 20
95.8
 30
0
 40
3.5
  0
ARC
  8
1
 62
7
 10
-20
 20
75.8
 30
0
 40
2
 50
180
 51
270
  0
ARC
  8
1
 62
7
 10
-20
 20
115.8
 30
0
 40
2
 50
90
 51
180
  0
ARC
  8
1
 62
7
 10
20
 20
115.8
 30
0
 40
2
 50
0
 51
90
  0
ARC
  8
1
 62
7
 10
20
 20
75.8
 30
0
 40
2
 50
270
 51
0
  0
ARC
  8
1
 62
7
 10
-24
 20
87.8
 30
0
 40
2
 50
0
 51
90
  0
ARC
  8
1
 62
7
 10
-24
 20
103.8
 30
0
 40
2
 50
270
 51
0
  0
ARC
  8
1
 62
7
 10
24
 20
103.8
 30
0
 40
2
 50
180
 51
270
  0
ARC
  8
1
 62
7
 10
24
 20
87.8
 30
0
 40
2
 50
90
 51
180
  0
ARC
  8
1
 62
7
 10
-31
 20
131
 30
0
 40
4
 50
90
 51
180
  0
ARC
  8
1
 62
7
 10
31.00000000000001
 20
131
 30
0
 40
3.999999999999989
 50
0
 51
90
  0
ARC
  8
1
 62
7
 10
-181
 20
131
 30
0
 40
4
 50
90
 51
180
  0
ARC
  8
1
 62
7
 10
-119
 20
131
 30
0
 40
4
 50
0
 51
90
  0
ARC
  8
1
 62
7
 10
-69.00000000000001
 20
115.8
 30
0
 40
2
 50
0
 51
90
  0
ARC
  8
1
 62
7
 10
-69.00000000000001
 20
75.8
 30
0
 40
2
 50
270
 51
0
  0
ARC
  8
1
 62
7
 10
-100
 20
75.8
 30
0
 40
2
 50
180
 51
270
  0
ARC
  8
1
 62
7
 10
-100
 20
115.8
 30
0
 40
2
 50
90
 51
180
  0
ARC
  8
1
 62
7
 10
-175.8138276443589
 20
-27.21343840592699
 30
0
 40
2.000000000000014
 50
68.99033760919889
 51
149.999999999999
  0
ARC
  8
1
 62
7
 10
-124.1861723556412
 20
-27.21343840592699
 30
0
 40
2.000000000000028
 50
29.99999999999953
 51
111.0096623907988
  0
ARC
  8
1
 62
7
 10
-5.000000000000004
 20
-73.99999999999999
 30
0
 40
2
 50
180
 51
270
  0
ARC
  8
1
 62
7
 10
4.999999999999996
 20
-73.99999999999999
 30
0
 40
2
 50
270
 51
0
  0
ARC
  8
1
 62
7
 10
10.00000000000001
 20
-30.39736830714129
 30
0
 40
1.999999999999969
 50
108.2099568642836
 51
180
  0
ARC
  8
1
 62
7
 10
-9.999999999999995
 20
-30.39736830714129
 30
0
 40
2
 50
0
 51
71.79004313571663
  0
ARC
  8
1
 62
7
 10
-155
 20
-73.99999999999999
 30
0
 40
2
 50
180
 51
270
  0
ARC
  8
1
 62
7
 10
-145
 20
-73.99999999999999
 30
0
 40
2
 50
270
 51
0
  0
ARC
  8
1
 62
7
 10
-140
 20
-31.30217387990361
 30
0
 40
2.000000000000081
 50
97.98355614555572
 51
180
  0
ARC
  8
1
 62
7
 10
-160
 20
-31.30217387990361
 30
0
 40
2
 50
0
 51
82.01644385444428
  0
ARC
  8
1
 62
7
 10
-2.999999999999993
 20
82.13333333333331
 30
0
 40
1.333333333333333
 50
180
 51
270
  0
ARC
  8
1
 62
7
 10
3.000000000000007
 20
89.46666666666664
 30
0
 40
1.333333333333333
 50
0
 51
90
  0
ARC
  8
1
 62
7
 10
-2.999999999999993
 20
82.13333333333331
 30
0
 40
1
 50
180
 51
270
  0
ARC
  8
1
 62
7
 10
3.000000000000007
 20
89.46666666666664
 30
0
 40
1
 50
0
 51
90
  0
ARC
  8
1
 62
7
 10
-66.02680968756653
 20
97.99999999999999
 30
0
 40
1.299999999999999
 50
16.7528183473867
 51
90
  0
ARC
  8
1
 62
7
 10
-66.01519762301345
 20
93.59999999999998
 30
0
 40
1.299999999999997
 50
270
 51
343.549600173387
  0
TEXT
  8
1
 62
7
 10
49.55598418798039
 20
164.8856644159319
 30
0
 40
3.149999999999999
  1
DWG No.  SV-4004
 41
0.9
  0
TEXT
  8
1
 62
7
 10
49.55598418798039
 20
157.9556644159319
 30
0
 40
3.149999999999999
  1
REV.     00
 41
0.9
  0
TEXT
  8
1
 62
7
 10
49.55598418798039
 20
151.0256644159319
 30
0
 40
3.149999999999999
  1
Yamatake Corporation
 41
0.9
  0
ENDSEC
  0
EOF
