  0
SECTION
  2
HEADER
  9
$ACADVER
  1
AC1009
  9
$INSBASE
 10
0
 20
0
  9
$EXTMIN
 10
-174.5
 20
-24.5
  9
$EXTMAX
 10
73.99053107848219
 20
140.7746595478666
  9
$LIMMIN
 10
-174.5
 20
-24.5
  9
$LIMMAX
 10
73.99053107848219
 20
140.7746595478666
  9
$VIEWCTR
 10
10
 20
10
  9
$VIEWSIZE
 40
10
  9
$SNAPMODE
 70
0
  9
$SNAPUNIT
 10
1
 20
1
  9
$SNAPBASE
 10
0
 20
0
  9
$SNAPANG
 50
0
  9
$SNAPSTYLE
 70
0
  9
$SNAPISOPAIR
 70
0
  9
$GRIDMODE
 70
0
  9
$GRIDUNIT
 10
0
 20
0
  9
$ORTHOMODE
 70
0
  9
$REGENMODE
 70
1
  9
$FILLMODE
 70
1
  9
$QTEXTMODE
 70
0
  9
$DRAGMODE
 70
2
  9
$LTSCALE
 40
1
  9
$OSMODE
 70
0
  9
$ATTMODE
 70
1
  9
$TEXTSIZE
 40
3.5
  9
$TRACEWID
 40
0.5
  9
$TEXTSTYLE
  7
STANDARD
  9
$CLAYER
  8
0
  9
$CELTYPE
  6
BYLAYER
  9
$CECOLOR
 62
256
  9
$DIMSCALE
 40
1
  9
$DIMASZ
 40
0.18
  9
$DIMEXO
 40
0.0625
  9
$DIMDLI
 40
0.38
  9
$DIMRND
 40
0
  9
$DIMDLE
 40
0
  9
$DIMEXE
 40
0.18
  9
$DIMTP
 40
0
  9
$DIMTM
 40
0
  9
$DIMTXT
 40
0.18
  9
$DIMCEN
 40
0.09
  9
$DIMTSZ
 40
0
  9
$DIMTOL
 70
0
  9
$DIMLIM
 70
0
  9
$DIMTIH
 70
1
  9
$DIMTOH
 70
1
  9
$DIMSE1
 70
0
  9
$DIMSE2
 70
0
  9
$DIMTAD
 70
0
  9
$DIMZIN
 70
0
  9
$DIMBLK
  1

  9
$DIMASO
 70
1
  9
$DIMSHO
 70
1
  9
$DIMPOST
  1

  9
$DIMAPOST
  1

  9
$DIMALT
 70
0
  9
$DIMALTD
 70
2
  9
$DIMALTF
 40
25.4
  9
$DIMLFAC
 40
1
  9
$DIMTOFL
 70
0
  9
$DIMTVP
 40
0
  9
$DIMTIX
 70
0
  9
$DIMSOXD
 70
0
  9
$DIMSAH
 70
0
  9
$DIMBLK1
  1

  9
$DIMBLK2
  1

  9
$DIMSTYLE
  2
*UNNAMED
  9
$DIMCLRD
 70
0
  9
$DIMCLRE
 70
0
  9
$DIMCLRT
 70
0
  9
$DIMTFAC
 40
1
  9
$DIMGAP
 40
0.09
  9
$LUNITS
 70
2
  9
$LUPREC
 70
4
  9
$AXISMODE
 70
0
  9
$AXISUNIT
 10
0
 20
0
  9
$SKETCHINC
 40
0.1
  9
$FILLETRAD
 40
2
  9
$AUNITS
 70
0
  9
$AUPREC
 70
0
  9
$MENU
  1
ACAD
  9
$ELEVATION
 40
0
  9
$THICKNESS
 40
0
  9
$VIEWDIR
 10
0
 20
0
 30
1
  9
$LIMCHECK
 70
0
  9
$BLIPMODE
 70
1
  9
$CHAMFERA
 40
0
  9
$CHAMFERB
 40
0
  9
$FASTZOOM
 70
1
  9
$SKPOLY
 70
0
  9
$ANGBASE
 50
0
  9
$ANGDIR
 70
0
  9
$PDMODE
 70
0
  9
$PDSIZE
 40
0
  9
$PLINEWID
 40
0
  9
$COORDS
 70
2
  0
ENDSEC
  0
SECTION
  2
TABLES
  0
TABLE
  2
DIMSTYLE
 70
0
  0
ENDTAB
  0
TABLE
  2
LTYPE
 70
9
  0
LTYPE
  2
CONTINUOUS
 70
64
  3
Solid line
 72
65
 73
0
 40
0
  0
LTYPE
  2
BORDER
 70
64
  3
__ __ . __ __ .
 72
65
 73
6
 40
11.44364287861431
 49
3.26961225103266
 49
-1.63480612551633
 49
3.26961225103266
 49
-1.63480612551633
 49
0
 49
-1.63480612551633
  0
LTYPE
  2
CENTER
 70
64
  3
____ _ ____ _
 72
65
 73
4
 40
13.07844900413064
 49
8.174030627581651
 49
-1.63480612551633
 49
1.63480612551633
 49
-1.63480612551633
  0
LTYPE
  2
DASHDOT
 70
64
  3
__ . __ . __ .
 72
65
 73
4
 40
6.539224502065321
 49
3.26961225103266
 49
-1.63480612551633
 49
0
 49
-1.63480612551633
  0
LTYPE
  2
DASHED
 70
64
  3
__ __ __ __ __
 72
65
 73
2
 40
4.904418376548991
 49
3.26961225103266
 49
-1.63480612551633
  0
LTYPE
  2
DIVIDE
 70
64
  3
__ . . __ . . 
 72
65
 73
6
 40
8.174030627581651
 49
3.26961225103266
 49
-1.63480612551633
 49
0
 49
-1.63480612551633
 49
0
 49
-1.63480612551633
  0
LTYPE
  2
DOT
 70
64
  3
..............
 72
65
 73
4
 40
3.26961225103266
 49
0
 49
-1.63480612551633
 49
0
 49
-1.63480612551633
  0
LTYPE
  2
HIDDEN
 70
64
  3
_ _ _ _ _ _ _
 72
65
 73
2
 40
2.452209188274495
 49
1.63480612551633
 49
-0.8174030627581651
  0
LTYPE
  2
PHANTOM
 70
64
  3
_____ _ _ _____ _ _ 
 72
65
 73
6
 40
16.3480612551633
 49
8.174030627581651
 49
-1.63480612551633
 49
1.63480612551633
 49
-1.63480612551633
 49
1.63480612551633
 49
-1.63480612551633
  0
ENDTAB
  0
TABLE
  2
LAYER
 70
3
  0
LAYER
  2
1
 70
0
 62
7
  6
CONTINUOUS
  0
LAYER
  2
0
 70
0
 62
7
  6
CONTINUOUS
  0
ENDTAB
  0
TABLE
  2
STYLE
 70
4
  0
STYLE
  2
STANDARD
 70
0
 40
0
 41
1
 50
0
 71
0
 42
3.5
  3
txt
  4

  0
STYLE
  2
SIMPLEX
 70
0
 40
0
 41
1
 50
0
 71
0
 42
3.5
  3
simplex
  4

  0
STYLE
  2
COMPLEX
 70
0
 40
0
 41
1
 50
0
 71
0
 42
3.5
  3
complex
  4

  0
STYLE
  2
ITALIC
 70
0
 40
0
 41
1
 50
0
 71
0
 42
3.5
  3
italic
  4

  0
ENDTAB
  0
TABLE
  2
VIEW
 70
0
  0
ENDTAB
  0
ENDSEC
  0
SECTION
  2
BLOCKS
  0
ENDSEC
  0
SECTION
  2
ENTITIES
  0
LINE
  8
1
 62
7
 10
22
 20
65.3
 30
0
 11
24
 21
65.3
 31
0
  0
LINE
  8
1
 62
7
 10
22
 20
53.3
 30
0
 11
24
 21
53.3
 31
0
  0
LINE
  8
1
 62
7
 10
-24
 20
65.3
 30
0
 11
-22
 21
65.3
 31
0
  0
LINE
  8
1
 62
7
 10
-24
 20
53.3
 30
0
 11
-22
 21
53.3
 31
0
  0
LINE
  8
1
 62
7
 10
-49.5
 20
62.79999999999998
 30
0
 11
-48.52680968756653
 21
62.79999999999998
 31
0
  0
LINE
  8
1
 62
7
 10
-49.5
 20
55.79999999999998
 30
0
 11
-48.51519762301344
 21
55.79999999999998
 31
0
  0
LINE
  8
1
 62
7
 10
-49.5
 20
62.79999999999998
 30
0
 11
-49.5
 21
55.79999999999998
 31
0
  0
LINE
  8
1
 62
7
 10
-46.90000000000001
 20
59.28052604957004
 30
0
 11
-47.63905104194563
 21
57.24999999999997
 31
0
  0
LINE
  8
1
 62
7
 10
-47.65322691854578
 20
61.34999999999998
 30
0
 11
-46.90000000000001
 21
59.28052604957004
 31
0
  0
LINE
  8
1
 62
7
 10
0.8333333333333393
 20
51.79999999999998
 30
0
 11
2.833333333333329
 21
51.79999999999998
 31
0
  0
LINE
  8
1
 62
7
 10
0
 20
50.29206349206348
 30
0
 11
0.8333333333333393
 21
51.79999999999998
 31
0
  0
LINE
  8
1
 62
7
 10
-0.8333333333333393
 20
51.79999999999998
 30
0
 11
0
 21
50.29206349206348
 31
0
  0
LINE
  8
1
 62
7
 10
-2.833333333333329
 20
51.79999999999998
 30
0
 11
-0.8333333333333393
 21
51.79999999999998
 31
0
  0
LINE
  8
1
 62
7
 10
1.083333333333339
 20
48.63333333333331
 30
0
 11
2.833333333333329
 21
51.79999999999998
 31
0
  0
LINE
  8
1
 62
7
 10
-2.833333333333329
 20
51.79999999999998
 30
0
 11
-1.083333333333339
 21
48.63333333333331
 31
0
  0
LINE
  8
1
 62
7
 10
-1.083333333333339
 20
46.63333333333331
 30
0
 11
1.083333333333339
 21
46.63333333333331
 31
0
  0
LINE
  8
1
 62
7
 10
1.083333333333339
 20
48.63333333333331
 30
0
 11
1.083333333333339
 21
46.63333333333331
 31
0
  0
LINE
  8
1
 62
7
 10
-1.083333333333339
 20
48.63333333333331
 30
0
 11
-1.083333333333339
 21
46.63333333333331
 31
0
  0
LINE
  8
1
 62
7
 10
-2.833333333333329
 20
46.29999999999998
 30
0
 11
-2.833333333333329
 21
45.29999999999998
 31
0
  0
LINE
  8
1
 62
7
 10
2.833333333333329
 20
46.29999999999998
 30
0
 11
-2.833333333333329
 21
46.29999999999998
 31
0
  0
LINE
  8
1
 62
7
 10
2.833333333333329
 20
45.29999999999998
 30
0
 11
2.833333333333329
 21
46.29999999999998
 31
0
  0
LINE
  8
1
 62
7
 10
-2.833333333333329
 20
45.29999999999998
 30
0
 11
2.833333333333329
 21
45.29999999999998
 31
0
  0
LINE
  8
1
 62
7
 10
-2.833333333333329
 20
53.29999999999998
 30
0
 11
-2.833333333333329
 21
52.29999999999998
 31
0
  0
LINE
  8
1
 62
7
 10
2.833333333333329
 20
53.29999999999998
 30
0
 11
-2.833333333333329
 21
53.29999999999998
 31
0
  0
LINE
  8
1
 62
7
 10
2.833333333333329
 20
52.29999999999998
 30
0
 11
2.833333333333329
 21
53.29999999999998
 31
0
  0
LINE
  8
1
 62
7
 10
-2.833333333333329
 20
52.29999999999998
 30
0
 11
2.833333333333329
 21
52.29999999999998
 31
0
  0
LINE
  8
1
 62
7
 10
-4
 20
53.96666666666665
 30
0
 11
-4
 21
45.63333333333331
 31
0
  0
LINE
  8
1
 62
7
 10
-4
 20
53.96666666666665
 30
0
 11
3
 21
53.96666666666665
 31
0
  0
LINE
  8
1
 62
7
 10
4
 20
44.63333333333331
 30
0
 11
4
 21
52.96666666666665
 31
0
  0
LINE
  8
1
 62
7
 10
4
 20
44.63333333333331
 30
0
 11
-3
 21
44.63333333333331
 31
0
  0
LINE
  8
1
 62
7
 10
-4.333333333333329
 20
54.29999999999998
 30
0
 11
-4.333333333333329
 21
45.63333333333331
 31
0
  0
LINE
  8
1
 62
7
 10
4.333333333333329
 20
44.29999999999998
 30
0
 11
-3
 21
44.29999999999998
 31
0
  0
LINE
  8
1
 62
7
 10
4.333333333333329
 20
44.29999999999998
 30
0
 11
4.333333333333329
 21
52.96666666666665
 31
0
  0
LINE
  8
1
 62
7
 10
-4.333333333333329
 20
54.29999999999998
 30
0
 11
3
 21
54.29999999999998
 31
0
  0
LINE
  8
1
 62
2
  6
DASHDOT
 10
0
 20
99.4465819873852
 30
0
 11
0
 21
-24.5
 31
0
  0
LINE
  8
1
 62
2
  6
DASHDOT
 10
0
 20
103.0534180126148
 30
0
 11
0
 21
99.4465819873852
 31
0
  0
LINE
  8
1
 62
7
 10
0
 20
103.0534180126148
 30
0
 11
0
 21
99.4465819873852
 31
0
  0
LINE
  8
1
 62
7
 10
-5
 20
99.4465819873852
 30
0
 11
-5
 21
103.0534180126148
 31
0
  0
LINE
  8
1
 62
7
 10
5
 20
99.4465819873852
 30
0
 11
5
 21
99
 31
0
  0
LINE
  8
1
 62
7
 10
5
 20
103.0534180126148
 30
0
 11
5
 21
99.4465819873852
 31
0
  0
LINE
  8
1
 62
7
 10
-5
 20
103.0534180126148
 30
0
 11
-5
 21
103.5
 31
0
  0
LINE
  8
1
 62
7
 10
-129.6132486540519
 20
103.0534180126148
 30
0
 11
-129.6132486540519
 21
99.4465819873852
 31
0
  0
LINE
  8
1
 62
7
 10
-135.3867513459481
 20
103.0534180126148
 30
0
 11
-135.3867513459481
 21
99.4465819873852
 31
0
  0
LINE
  8
1
 62
7
 10
-138.2735026918963
 20
99.45773297264239
 30
0
 11
-138.2735026918963
 21
101.25
 31
0
  0
LINE
  8
1
 62
7
 10
-132.5
 20
99
 30
0
 11
-136.75
 21
99
 31
0
  0
LINE
  8
1
 62
7
 10
-126.7264973081037
 20
101.25
 30
0
 11
-126.7264973081037
 21
99.4465819873852
 31
0
  0
LINE
  8
1
 62
7
 10
-126.7264973081037
 20
99.4465819873852
 30
0
 11
-126.9129221376626
 21
99.33894956185577
 31
0
  0
LINE
  8
1
 62
7
 10
-128.1778991237115
 20
99
 30
0
 11
-132.5
 21
99
 31
0
  0
LINE
  8
1
 62
7
 10
-138.2735026918963
 20
101.25
 30
0
 11
-138.2735026918963
 21
103.0422670273576
 31
0
  0
LINE
  8
1
 62
7
 10
-136.75
 20
103.5
 30
0
 11
-132.5
 21
103.5
 31
0
  0
LINE
  8
1
 62
7
 10
-126.7264973081037
 20
103.0534180126148
 30
0
 11
-126.7264973081037
 21
101.25
 31
0
  0
LINE
  8
1
 62
7
 10
-126.9129221376626
 20
103.1610504381442
 30
0
 11
-126.7264973081037
 21
103.0534180126148
 31
0
  0
LINE
  8
1
 62
2
  6
DASHDOT
 10
-45.89999999999999
 20
59.29999999999998
 30
0
 11
-168.5
 21
59.29999999999988
 31
0
  0
LINE
  8
1
 62
7
 10
-84.5
 20
47.3
 30
0
 11
-84.5
 21
39.3
 31
0
  0
LINE
  8
1
 62
7
 10
-97.5
 20
47.3
 30
0
 11
-97.5
 21
20.29999999999999
 31
0
  0
LINE
  8
1
 62
7
 10
-97.5
 20
47.3
 30
0
 11
-84.5
 21
47.3
 31
0
  0
LINE
  8
1
 62
7
 10
-84.5
 20
71.3
 30
0
 11
-84.5
 21
47.3
 31
0
  0
LINE
  8
1
 62
7
 10
-97.5
 20
71.3
 30
0
 11
-97.5
 21
47.3
 31
0
  0
LINE
  8
1
 62
7
 10
-97.5
 20
71.3
 30
0
 11
-84.5
 21
71.3
 31
0
  0
LINE
  8
1
 62
7
 10
-54.5
 20
81.3
 30
0
 11
-56
 21
81.3
 31
0
  0
LINE
  8
1
 62
7
 10
-54.5
 20
37.3
 30
0
 11
-51.5
 21
37.3
 31
0
  0
LINE
  8
1
 62
7
 10
-54.5
 20
37.3
 30
0
 11
-54.5
 21
81.3
 31
0
  0
LINE
  8
1
 62
7
 10
-56
 20
37.3
 30
0
 11
-54.5
 21
37.3
 31
0
  0
LINE
  8
1
 62
7
 10
-56
 20
81.3
 30
0
 11
-82.5
 21
81.3
 31
0
  0
LINE
  8
1
 62
7
 10
-56
 20
81.3
 30
0
 11
-56
 21
37.3
 31
0
  0
LINE
  8
1
 62
7
 10
-84.5
 20
79.3
 30
0
 11
-84.5
 21
71.3
 31
0
  0
LINE
  8
1
 62
7
 10
-51.5
 20
81.3
 30
0
 11
-54.5
 21
81.3
 31
0
  0
LINE
  8
1
 62
7
 10
-49.5
 20
39.3
 30
0
 11
-49.5
 21
79.3
 31
0
  0
LINE
  8
1
 62
7
 10
-82.5
 20
37.3
 30
0
 11
-56
 21
37.3
 31
0
  0
LINE
  8
1
 62
7
 10
-112.5
 20
20.29999999999999
 30
0
 11
-112.5
 21
18.08493649053891
 31
0
  0
LINE
  8
1
 62
7
 10
-112.5
 20
20.29999999999999
 30
0
 11
-97.5
 21
20.29999999999999
 31
0
  0
LINE
  8
1
 62
7
 10
-152.5
 20
20.29999999999999
 30
0
 11
-112.5
 21
20.29999999999999
 31
0
  0
LINE
  8
1
 62
7
 10
-167.5
 20
20.29999999999999
 30
0
 11
-152.5
 21
20.29999999999999
 31
0
  0
LINE
  8
1
 62
7
 10
-97.5
 20
94.5
 30
0
 11
-97.5
 21
71.3
 31
0
  0
LINE
  8
1
 62
7
 10
-167.5
 20
94.5
 30
0
 11
-167.5
 21
20.29999999999999
 31
0
  0
LINE
  8
1
 62
7
 10
-163.5
 20
98.5
 30
0
 11
-101.5
 21
98.5
 31
0
  0
LINE
  8
1
 62
7
 10
-132.5
 20
99
 30
0
 11
-107.5
 21
99
 31
0
  0
LINE
  8
1
 62
7
 10
-132.5
 20
103.5
 30
0
 11
-128.1778991237115
 21
103.5
 31
0
  0
LINE
  8
1
 62
7
 10
-132.5
 20
99
 30
0
 11
-157.5
 21
99
 31
0
  0
LINE
  8
1
 62
7
 10
-128.25
 20
105.25
 30
0
 11
-128.25
 21
103.5
 31
0
  0
LINE
  8
1
 62
7
 10
-136.75
 20
105.25
 30
0
 11
-136.75
 21
103.5
 31
0
  0
LINE
  8
1
 62
7
 10
-136.75
 20
105.25
 30
0
 11
-128.25
 21
105.25
 31
0
  0
LINE
  8
1
 62
7
 10
-107.5
 20
99
 30
0
 11
-107.5
 21
98.5
 31
0
  0
LINE
  8
1
 62
7
 10
-157.5
 20
98.5
 30
0
 11
-157.5
 21
99
 31
0
  0
LINE
  8
1
 62
7
 10
-152.5
 20
18.08493649053889
 30
0
 11
-152.5
 21
20.29999999999999
 31
0
  0
LINE
  8
1
 62
7
 10
-155.6863234664952
 20
19.5547725181809
 30
0
 11
-154.5245190528383
 21
17.54246824526945
 31
0
  0
LINE
  8
1
 62
7
 10
-110.4754809471617
 20
17.54246824526945
 30
0
 11
-109.3136765335048
 21
19.5547725181809
 31
0
  0
LINE
  8
1
 62
7
 10
20
 20
20.29999999999999
 30
0
 11
35
 21
20.29999999999999
 31
0
  0
LINE
  8
1
 62
7
 10
20
 20
20.29999999999999
 30
0
 11
20
 21
13.61437827766147
 31
0
  0
LINE
  8
1
 62
7
 10
-20
 20
20.29999999999999
 30
0
 11
20
 21
20.29999999999999
 31
0
  0
LINE
  8
1
 62
7
 10
-20
 20
20.29999999999999
 30
0
 11
-20
 21
13.61437827766147
 31
0
  0
LINE
  8
1
 62
7
 10
-25.44956890143241
 20
60.7495689014324
 30
0
 11
-22.55043109856757
 21
57.85043109856755
 31
0
  0
LINE
  8
1
 62
7
 10
-25.44956890143244
 20
57.85043109856758
 30
0
 11
-22.55043109856757
 21
60.7495689014324
 31
0
  0
LINE
  8
1
 62
7
 10
22.55043109856758
 20
60.7495689014324
 30
0
 11
25.44956890143242
 21
57.85043109856755
 31
0
  0
LINE
  8
1
 62
7
 10
22.55043109856756
 20
57.85043109856758
 30
0
 11
25.44956890143242
 21
60.7495689014324
 31
0
  0
LINE
  8
1
 62
2
  6
DASHDOT
 10
25.75
 20
59.29999999999998
 30
0
 11
-25.74999999999999
 21
59.29999999999998
 31
0
  0
LINE
  8
1
 62
2
  6
DASHDOT
 10
-25.74999999999999
 20
59.29999999999998
 30
0
 11
-31.49999999999999
 21
59.29999999999998
 31
0
  0
LINE
  8
1
 62
2
  6
DASHDOT
 10
-23.99999999999999
 20
63.79999999999998
 30
0
 11
-23.99999999999999
 21
54.79999999999998
 31
0
  0
LINE
  8
1
 62
2
  6
DASHDOT
 10
31.5
 20
59.29999999999998
 30
0
 11
25.75
 21
59.29999999999998
 31
0
  0
LINE
  8
1
 62
2
  6
DASHDOT
 10
24
 20
63.79999999999998
 30
0
 11
24
 21
54.79999999999998
 31
0
  0
LINE
  8
1
 62
7
 10
22
 20
65.3
 30
0
 11
22
 21
79.3
 31
0
  0
LINE
  8
1
 62
7
 10
-22
 20
53.3
 30
0
 11
-22
 21
39.3
 31
0
  0
LINE
  8
1
 62
7
 10
-22
 20
79.3
 30
0
 11
-22
 21
65.3
 31
0
  0
LINE
  8
1
 62
7
 10
20
 20
81.3
 30
0
 11
-20
 21
81.3
 31
0
  0
LINE
  8
1
 62
7
 10
22
 20
39.3
 30
0
 11
22
 21
53.3
 31
0
  0
LINE
  8
1
 62
7
 10
-20
 20
37.3
 30
0
 11
20
 21
37.3
 31
0
  0
LINE
  8
1
 62
7
 10
-35
 20
20.29999999999999
 30
0
 11
-20
 21
20.29999999999999
 31
0
  0
LINE
  8
1
 62
7
 10
35
 20
94.5
 30
0
 11
35
 21
20.29999999999999
 31
0
  0
LINE
  8
1
 62
7
 10
-35
 20
94.5
 30
0
 11
-35
 21
20.29999999999999
 31
0
  0
LINE
  8
1
 62
7
 10
-31
 20
98.5
 30
0
 11
31
 21
98.5
 31
0
  0
LINE
  8
1
 62
7
 10
0
 20
99
 30
0
 11
5
 21
99
 31
0
  0
LINE
  8
1
 62
7
 10
0
 20
103.5
 30
0
 11
5
 21
103.5
 31
0
  0
LINE
  8
1
 62
7
 10
5
 20
99
 30
0
 11
25
 21
99
 31
0
  0
LINE
  8
1
 62
7
 10
5
 20
103.5
 30
0
 11
5
 21
103.0534180126148
 31
0
  0
LINE
  8
1
 62
7
 10
-5
 20
103.5
 30
0
 11
0
 21
103.5
 31
0
  0
LINE
  8
1
 62
7
 10
-5
 20
99
 30
0
 11
0
 21
99
 31
0
  0
LINE
  8
1
 62
7
 10
-5
 20
99
 30
0
 11
-5
 21
99.4465819873852
 31
0
  0
LINE
  8
1
 62
7
 10
4.25
 20
105.25
 30
0
 11
4.25
 21
103.5
 31
0
  0
LINE
  8
1
 62
7
 10
-4.25
 20
105.25
 30
0
 11
-4.25
 21
103.5
 31
0
  0
LINE
  8
1
 62
7
 10
-4.25
 20
105.25
 30
0
 11
4.25
 21
105.25
 31
0
  0
LINE
  8
1
 62
7
 10
25
 20
99
 30
0
 11
25
 21
98.5
 31
0
  0
LINE
  8
1
 62
7
 10
-25
 20
99
 30
0
 11
-5
 21
99
 31
0
  0
LINE
  8
1
 62
7
 10
-25
 20
98.5
 30
0
 11
-25
 21
99
 31
0
  0
LINE
  8
1
 62
2
  6
DASHDOT
 10
0
 20
111.5
 30
0
 11
0
 21
103.0534180126148
 31
0
  0
LINE
  8
1
 62
7
 10
-126.5
 20
-1.000000000000003
 30
0
 11
-138.5
 21
-1.000000000000003
 31
0
  0
LINE
  8
1
 62
7
 10
-124.9641016151378
 20
-3.000000000000003
 30
0
 11
-126.5
 21
-1.000000000000003
 31
0
  0
LINE
  8
1
 62
7
 10
-124.5
 20
-3.000000000000003
 30
0
 11
-124.9641016151378
 21
-3.000000000000003
 31
0
  0
LINE
  8
1
 62
7
 10
-119.5
 20
-3.000000000000003
 30
0
 11
-124.5
 21
-3.000000000000003
 31
0
  0
LINE
  8
1
 62
7
 10
-121.3038475772934
 20
-1.77635683940025e-15
 30
0
 11
-119.5
 21
-3.000000000000003
 31
0
  0
LINE
  8
1
 62
2
  6
DASHDOT
 10
-121.3038475772934
 20
-1.77635683940025e-15
 30
0
 11
-174.5
 21
-1.77635683940025e-15
 31
0
  0
LINE
  8
1
 62
7
 10
-119.5
 20
2.999999999999997
 30
0
 11
-121.3038475772934
 21
-1.77635683940025e-15
 31
0
  0
LINE
  8
1
 62
7
 10
-124.9641016151378
 20
3.000000000000001
 30
0
 11
-119.5
 21
2.999999999999997
 31
0
  0
LINE
  8
1
 62
7
 10
-126.5
 20
0.9999999999999973
 30
0
 11
-124.9641016151378
 21
3.000000000000001
 31
0
  0
LINE
  8
1
 62
7
 10
-138.5
 20
2.999999999999997
 30
0
 11
-145.5
 21
-2.664535259100376e-15
 31
0
  0
LINE
  8
1
 62
7
 10
-138.5
 20
0.9999999999999973
 30
0
 11
-126.5
 21
0.9999999999999973
 31
0
  0
LINE
  8
1
 62
7
 10
-138.5
 20
0.9999999999999973
 30
0
 11
-138.5
 21
2.999999999999997
 31
0
  0
LINE
  8
1
 62
7
 10
-138.5
 20
-1.000000000000003
 30
0
 11
-138.5
 21
-3.000000000000003
 31
0
  0
LINE
  8
1
 62
2
  6
DASHDOT
 10
-90.5
 20
-1.77635683940025e-15
 30
0
 11
-121.3038475772934
 21
-1.77635683940025e-15
 31
0
  0
LINE
  8
1
 62
7
 10
-145.5
 20
-2.664535259100376e-15
 30
0
 11
-138.5
 21
-3.000000000000003
 31
0
  0
LINE
  8
1
 62
2
  6
DASHDOT
 10
-132.5
 20
111.5
 30
0
 11
-132.5
 21
-24.5
 31
0
  0
LINE
  8
1
 62
7
 10
-110.5130823538889
 20
-17.47734069838189
 30
0
 11
-109.3136765335048
 21
-19.55477251818091
 31
0
  0
LINE
  8
1
 62
7
 10
-155.6863234664952
 20
-19.55477251818091
 30
0
 11
-154.4869176461112
 21
-17.47734069838189
 31
0
  0
LINE
  8
1
 62
7
 10
-154.5
 20
15.12735306700962
 30
0
 11
-154.5
 21
-15.12735306700963
 31
0
  0
LINE
  8
1
 62
7
 10
-172.5
 20
-15.12735306700963
 30
0
 11
-172.5
 21
15.12735306700962
 31
0
  0
LINE
  8
1
 62
7
 10
-156.0630369558482
 20
20.20725942163691
 30
0
 11
-170.9369630441518
 21
20.20725942163691
 31
0
  0
LINE
  8
1
 62
7
 10
-170.9369630441518
 20
10.10362971081845
 30
0
 11
-156.0630369558482
 21
10.10362971081845
 31
0
  0
LINE
  8
1
 62
7
 10
-170.9369630441518
 20
-10.10362971081845
 30
0
 11
-156.0630369558482
 21
-10.10362971081845
 31
0
  0
LINE
  8
1
 62
7
 10
-170.8979345957516
 20
-20.2072594216369
 30
0
 11
-156.0630369558482
 21
-20.2072594216369
 31
0
  0
LINE
  8
1
 62
7
 10
-155.6863234664952
 20
19.5547725181809
 30
0
 11
-156.0630369558482
 21
20.20725942163691
 31
0
  0
LINE
  8
1
 62
7
 10
-155.6863234664952
 20
-19.55477251818091
 30
0
 11
-156.0630369558482
 21
-20.2072594216369
 31
0
  0
LINE
  8
1
 62
7
 10
-170.9369630441518
 20
20.20725942163691
 30
0
 11
-171.3136765335048
 21
19.5547725181809
 31
0
  0
LINE
  8
1
 62
7
 10
-170.9369630441518
 20
-20.2072594216369
 30
0
 11
-171.3136765335048
 21
-19.55477251818091
 31
0
  0
LINE
  8
1
 62
7
 10
-110.5
 20
-15.12735306700963
 30
0
 11
-110.5
 21
15.12735306700962
 31
0
  0
LINE
  8
1
 62
7
 10
-92.5
 20
15.12735306700962
 30
0
 11
-92.5
 21
-15.12735306700963
 31
0
  0
LINE
  8
1
 62
7
 10
-94.0630369558482
 20
20.20725942163691
 30
0
 11
-108.9369630441518
 21
20.20725942163691
 31
0
  0
LINE
  8
1
 62
7
 10
-108.9369630441518
 20
10.10362971081845
 30
0
 11
-94.0630369558482
 21
10.10362971081845
 31
0
  0
LINE
  8
1
 62
7
 10
-108.9369630441518
 20
-10.10362971081845
 30
0
 11
-94.0630369558482
 21
-10.10362971081845
 31
0
  0
LINE
  8
1
 62
7
 10
-108.9369630441518
 20
-20.2072594216369
 30
0
 11
-94.10206540424841
 21
-20.2072594216369
 31
0
  0
LINE
  8
1
 62
7
 10
-108.9369630441518
 20
20.20725942163691
 30
0
 11
-109.3136765335048
 21
19.5547725181809
 31
0
  0
LINE
  8
1
 62
7
 10
-108.9369630441518
 20
-20.2072594216369
 30
0
 11
-109.3136765335048
 21
-19.55477251818091
 31
0
  0
LINE
  8
1
 62
7
 10
-93.6863234664952
 20
19.5547725181809
 30
0
 11
-94.0630369558482
 21
20.20725942163691
 31
0
  0
LINE
  8
1
 62
7
 10
-93.6863234664952
 20
-19.55477251818091
 30
0
 11
-94.0630369558482
 21
-20.2072594216369
 31
0
  0
LINE
  8
1
 62
2
  6
DASHDOT
 10
12.0565
 20
-2.664535259100376e-15
 30
0
 11
13.2205
 21
-2.664535259100376e-15
 31
0
  0
LINE
  8
1
 62
2
  6
DASHDOT
 10
13.2205
 20
-2.664535259100376e-15
 30
0
 11
27.75
 21
-2.664535259100376e-15
 31
0
  0
LINE
  8
1
 62
7
 10
5.55513627132909
 20
17
 30
0
 11
0
 21
20.20725942163689
 31
0
  0
LINE
  8
1
 62
7
 10
12.5
 20
17
 30
0
 11
5.55513627132909
 21
17
 31
0
  0
LINE
  8
1
 62
7
 10
22.5
 20
-4.440892098500626e-15
 30
0
 11
22.5
 21
6.999999999999997
 31
0
  0
LINE
  8
1
 62
7
 10
-22.5
 20
6.999999999999996
 30
0
 11
-22.5
 21
-1.77635683940025e-15
 31
0
  0
LINE
  8
1
 62
7
 10
-5.55513627132909
 20
17
 30
0
 11
-17.5
 21
10.10362971081845
 31
0
  0
LINE
  8
1
 62
7
 10
-5.55513627132909
 20
17
 30
0
 11
-12.5
 21
17
 31
0
  0
LINE
  8
1
 62
2
  6
DASHDOT
 10
-27.75
 20
-2.664535259100376e-15
 30
0
 11
12.0565
 21
-2.664535259100376e-15
 31
0
  0
LINE
  8
1
 62
7
 10
-17.5
 20
-2.664535259100376e-15
 30
0
 11
-17.5
 21
-10.10362971081845
 31
0
  0
LINE
  8
1
 62
7
 10
17.5
 20
10.10362971081845
 30
0
 11
5.55513627132909
 21
17
 31
0
  0
LINE
  8
1
 62
7
 10
17.5
 20
-10.10362971081845
 30
0
 11
17.5
 21
10.10362971081845
 31
0
  0
LINE
  8
1
 62
7
 10
0
 20
-20.2072594216369
 30
0
 11
17.5
 21
-10.10362971081845
 31
0
  0
LINE
  8
1
 62
7
 10
-17.5
 20
-10.10362971081845
 30
0
 11
0
 21
-20.2072594216369
 31
0
  0
LINE
  8
1
 62
7
 10
-17.5
 20
10.10362971081845
 30
0
 11
-17.5
 21
-2.664535259100376e-15
 31
0
  0
LINE
  8
1
 62
7
 10
0
 20
20.20725942163689
 30
0
 11
-5.55513627132909
 21
17
 31
0
  0
ARC
  8
1
 62
7
 10
0
 20
105.25
 30
0
 40
4.25
 50
0
 51
90
  0
ARC
  8
1
 62
7
 10
-24
 20
59.3
 30
0
 40
6
 50
90
 51
180
  0
ARC
  8
1
 62
7
 10
24
 20
59.3
 30
0
 40
6
 50
270
 51
0
  0
ARC
  8
1
 62
7
 10
-55.90000000000001
 20
59.28052604957004
 30
0
 40
9
 50
0
 51
16.75281834738624
  0
ARC
  8
1
 62
7
 10
-55.90000000000001
 20
59.28052604957004
 30
0
 40
9.000000000000016
 50
343.5496001733873
 51
0
  0
ARC
  8
1
 62
7
 10
-2.5
 20
106.2208862578843
 30
0
 40
7.220886257884302
 50
249.7438419995838
 51
290.2561580004162
  0
ARC
  8
1
 62
7
 10
2.5
 20
106.2208862578843
 30
0
 40
7.220886257884302
 50
249.7438419995838
 51
290.2561580004162
  0
ARC
  8
1
 62
7
 10
2.5
 20
96.2791137421157
 30
0
 40
7.220886257884302
 50
69.74384199958381
 51
110.2561580004162
  0
ARC
  8
1
 62
7
 10
-2.5
 20
96.2791137421157
 30
0
 40
7.220886257884302
 50
69.74384199958381
 51
110.2561580004162
  0
ARC
  8
1
 62
7
 10
-136.8221008762885
 20
101.5299539720978
 30
0
 40
2.529953972097846
 50
234.9922631593749
 51
239.9999999999997
  0
ARC
  8
1
 62
7
 10
-136.8221008762885
 20
101.5299539720978
 30
0
 40
2.529953972097794
 50
239.9999999999997
 51
304.5650930945292
  0
ARC
  8
1
 62
7
 10
-128.1778991237115
 20
101.5299539720979
 30
0
 40
2.529953972097924
 50
235.434906905472
 51
299.9999999999991
  0
ARC
  8
1
 62
7
 10
-132.5
 20
108.5534180126148
 30
0
 40
9.553418012614797
 50
252.4120462260063
 51
287.5879537739937
  0
ARC
  8
1
 62
7
 10
-136.8221008762885
 20
100.9700460279022
 30
0
 40
2.529953972097769
 50
120.0000000000006
 51
125.0077368406253
  0
ARC
  8
1
 62
7
 10
-136.8221008762885
 20
100.9700460279022
 30
0
 40
2.529953972097842
 50
55.43490690547077
 51
120.0000000000006
  0
ARC
  8
1
 62
7
 10
-128.1778991237115
 20
100.9700460279021
 30
0
 40
2.529953972097855
 50
60.00000000000053
 51
124.565093094528
  0
ARC
  8
1
 62
7
 10
-132.5
 20
93.94658198738524
 30
0
 40
9.553418012614756
 50
72.41204622600625
 51
107.5879537739937
  0
ARC
  8
1
 62
7
 10
-132.5
 20
105.25
 30
0
 40
4.25
 50
0
 51
180
  0
ARC
  8
1
 62
7
 10
-153.5849364905389
 20
18.0849364905389
 30
0
 40
1.084936490538874
 50
210.0000000000009
 51
0
  0
ARC
  8
1
 62
7
 10
-111.4150635094611
 20
18.0849364905389
 30
0
 40
1.084936490538894
 50
180
 51
329.9999999999996
  0
ARC
  8
1
 62
7
 10
24
 20
59.3
 30
0
 40
6
 50
0
 51
90
  0
ARC
  8
1
 62
7
 10
-24
 20
59.3
 30
0
 40
6
 50
180
 51
270
  0
ARC
  8
1
 62
7
 10
0
 20
105.25
 30
0
 40
4.25
 50
90
 51
180
  0
ARC
  8
1
 62
7
 10
-111.3398606960067
 20
-17.95468139676379
 30
0
 40
0.9546813967637376
 50
30.00000000000202
 51
119.1401324521209
  0
ARC
  8
1
 62
7
 10
-132.5
 20
20
 30
0
 40
42.49999999999996
 50
240.8598675478783
 51
299.1401324521218
  0
ARC
  8
1
 62
7
 10
-153.6601393039933
 20
-17.95468139676379
 30
0
 40
0.9546813967638309
 50
60.85986754787314
 51
150.0000000000014
  0
ARC
  8
1
 62
7
 10
-163.3548389023426
 20
15.12735306700962
 30
0
 40
8.854838902342607
 50
0
 51
29.99999999999988
  0
ARC
  8
1
 62
7
 10
-163.3548389023426
 20
-15.12735306700963
 30
0
 40
8.854838902342607
 50
0
 51
34.56509309452737
  0
ARC
  8
1
 62
7
 10
-163.6451610976574
 20
-15.12735306700963
 30
0
 40
8.854838902342607
 50
180
 51
209.9999999999999
  0
ARC
  8
1
 62
7
 10
-163.6451610976574
 20
15.12735306700962
 30
0
 40
8.854838902342607
 50
180
 51
214.5650930945273
  0
ARC
  8
1
 62
7
 10
-163.3548389023426
 20
15.12735306700962
 30
0
 40
8.85483890234263
 50
325.4349069054727
 51
0
  0
ARC
  8
1
 62
7
 10
-163.3548389023426
 20
-15.12735306700963
 30
0
 40
8.854838902342594
 50
330.0000000000001
 51
0
  0
ARC
  8
1
 62
7
 10
-187.9369630441517
 20
-1.77635683940025e-15
 30
0
 40
33.43696304415172
 50
342.4120462260062
 51
17.58795377399381
  0
ARC
  8
1
 62
7
 10
-163.6451610976574
 20
15.12735306700962
 30
0
 40
8.854838902342594
 50
150.0000000000001
 51
180
  0
ARC
  8
1
 62
7
 10
-163.6451610976574
 20
-15.12735306700963
 30
0
 40
8.854838902342635
 50
145.4349069054726
 51
180
  0
ARC
  8
1
 62
7
 10
-139.0630369558483
 20
-1.77635683940025e-15
 30
0
 40
33.43696304415172
 50
162.4120462260062
 51
197.5879537739938
  0
ARC
  8
1
 62
7
 10
-101.6451610976574
 20
15.12735306700962
 30
0
 40
8.854838902342594
 50
150.0000000000001
 51
180
  0
ARC
  8
1
 62
7
 10
-101.6451610976574
 20
-15.12735306700963
 30
0
 40
8.854838902342625
 50
145.4349069054726
 51
180
  0
ARC
  8
1
 62
7
 10
-101.3548389023426
 20
-15.12735306700963
 30
0
 40
8.854838902342594
 50
330.0000000000001
 51
0
  0
ARC
  8
1
 62
7
 10
-101.3548389023426
 20
15.12735306700962
 30
0
 40
8.854838902342619
 50
325.4349069054726
 51
0
  0
ARC
  8
1
 62
7
 10
-101.6451610976574
 20
15.12735306700962
 30
0
 40
8.854838902342607
 50
180
 51
214.5650930945273
  0
ARC
  8
1
 62
7
 10
-101.6451610976574
 20
-15.12735306700963
 30
0
 40
8.854838902342607
 50
180
 51
209.9999999999999
  0
ARC
  8
1
 62
7
 10
-77.0630369558483
 20
-1.77635683940025e-15
 30
0
 40
33.43696304415171
 50
162.4120462260062
 51
197.5879537739938
  0
ARC
  8
1
 62
7
 10
-101.3548389023426
 20
15.12735306700962
 30
0
 40
8.854838902342607
 50
0
 51
29.99999999999988
  0
ARC
  8
1
 62
7
 10
-101.3548389023426
 20
-15.12735306700963
 30
0
 40
8.854838902342607
 50
0
 51
34.56509309452742
  0
ARC
  8
1
 62
7
 10
-125.9369630441517
 20
-1.77635683940025e-15
 30
0
 40
33.43696304415171
 50
342.4120462260061
 51
17.58795377399381
  0
CIRCLE
  8
1
 62
7
 10
-24
 20
59.3
 30
0
 40
3.500000000000011
  0
CIRCLE
  8
1
 62
7
 10
24
 20
59.3
 30
0
 40
3.5
  0
CIRCLE
  8
1
 62
7
 10
24
 20
59.3
 30
0
 40
3.75
  0
CIRCLE
  8
1
 62
7
 10
-24
 20
59.3
 30
0
 40
3.749999999999989
  0
CIRCLE
  8
1
 62
7
 10
0
 20
-2.664535259100376e-15
 30
0
 40
12.0565
  0
CIRCLE
  8
1
 62
2
 10
0
 20
-2.664535259100376e-15
 30
0
 40
13.2205
  0
CIRCLE
  8
1
 62
7
 10
0
 20
-2.664535259100376e-15
 30
0
 40
17.5
  0
ARC
  8
1
 62
7
 10
-48.51519762301344
 20
57.09999999999998
 30
0
 40
1.299999999999997
 50
270
 51
343.5496001733873
  0
ARC
  8
1
 62
7
 10
-48.52680968756653
 20
61.49999999999997
 30
0
 40
1.300000000000012
 50
16.75281834738652
 51
90
  0
ARC
  8
1
 62
7
 10
3
 20
52.96666666666665
 30
0
 40
1
 50
0
 51
90
  0
ARC
  8
1
 62
7
 10
-3
 20
45.63333333333331
 30
0
 40
1
 50
180
 51
270
  0
ARC
  8
1
 62
7
 10
3
 20
52.96666666666665
 30
0
 40
1.333333333333329
 50
0
 51
90
  0
ARC
  8
1
 62
7
 10
-3
 20
45.63333333333331
 30
0
 40
1.333333333333329
 50
180
 51
270
  0
ARC
  8
1
 62
7
 10
-51.5
 20
39.3
 30
0
 40
2
 50
270
 51
0
  0
ARC
  8
1
 62
7
 10
-51.5
 20
79.3
 30
0
 40
2
 50
0
 51
90
  0
ARC
  8
1
 62
7
 10
-82.5
 20
79.3
 30
0
 40
2
 50
90
 51
180
  0
ARC
  8
1
 62
7
 10
-82.5
 20
39.3
 30
0
 40
2
 50
180
 51
270
  0
ARC
  8
1
 62
7
 10
-101.5
 20
94.5
 30
0
 40
4
 50
0
 51
90
  0
ARC
  8
1
 62
7
 10
-163.5
 20
94.5
 30
0
 40
4
 50
90
 51
180
  0
ARC
  8
1
 62
7
 10
12.5
 20
6.999999999999997
 30
0
 40
10
 50
0
 51
41.40962210927084
  0
ARC
  8
1
 62
7
 10
-12.5
 20
6.999999999999996
 30
0
 40
10
 50
90
 51
138.5903778907291
  0
ARC
  8
1
 62
7
 10
-20
 20
39.3
 30
0
 40
2
 50
180
 51
270
  0
ARC
  8
1
 62
7
 10
20
 20
39.3
 30
0
 40
2
 50
270
 51
0
  0
ARC
  8
1
 62
7
 10
20
 20
79.3
 30
0
 40
2
 50
0
 51
90
  0
ARC
  8
1
 62
7
 10
-20
 20
79.3
 30
0
 40
2
 50
90
 51
180
  0
ARC
  8
1
 62
7
 10
31
 20
94.5
 30
0
 40
4
 50
0
 51
90
  0
ARC
  8
1
 62
7
 10
-31
 20
94.5
 30
0
 40
4
 50
90
 51
180
  0
ARC
  8
1
 62
7
 10
0
 20
-2.664535259100376e-15
 30
0
 40
22.5
 50
270
 51
0
  0
ARC
  8
1
 62
7
 10
0
 20
-2.664535259100376e-15
 30
0
 40
22.5
 50
180
 51
270
  0
ARC
  8
1
 62
7
 10
12.5
 20
6.999999999999997
 30
0
 40
9.999999999999996
 50
41.40962210927084
 51
90
  0
ARC
  8
1
 62
7
 10
-12.5
 20
6.999999999999996
 30
0
 40
9.999999999999998
 50
138.5903778907291
 51
180
  0
TEXT
  8
1
 62
7
 10
17.92053107848221
 20
137.6246595478666
 30
0
 40
3.149999999999999
  1
DWG No.  SV-4008
 41
0.9
  0
TEXT
  8
1
 62
7
 10
17.92053107848221
 20
130.6946595478666
 30
0
 40
3.149999999999999
  1
REV.     00
 41
0.9
  0
TEXT
  8
1
 62
7
 10
17.92053107848221
 20
123.7646595478666
 30
0
 40
3.149999999999999
  1
Yamatake Corporation
 41
0.9
  0
ENDSEC
  0
EOF
